  0
SECTION
  2
HEADER
  9
$CLAYER
  8
1
  9
$LTSCALE
 40
3.0
  0
ENDSEC
  0
SECTION
  2
TABLES
  0
TABLE
  2
LTYPE
 70
     4
  0
LTYPE
  2
CONTINUOUS
  3
solid line
 70
    64
 72
    65
 73
     0
 40
0.0
  0
LTYPE
  2
DASHED
  3
__ __ __ __ __ __ __ __ __ __ __ __ __ __ __
 70
    64
 72
    65
 73
     2
 40
0.75
 49
0.5
 49
-0.25
  0
LTYPE
  2
CENTER
  3
____ _ ____ _ ____ _ ____ _ ____ _ ____ _ ____
 70
    64
 72
    65
 73
     4
 40
2.0
 49
1.25
 49
-0.25
 49
0.25
 49
-0.25
  0
LTYPE
  2
PHANTOM
  3
_____ _ _ _____ _ _ _____ _ _ _____ _ _ ____
 70
    64
 72
    65
 73
     6
 40
2.5
 49
1.25
 49
-0.25
 49
0.25
 49
-0.25
 49
0.25
 49
-0.25
  0
ENDTAB
  0
TABLE
  2
LAYER
 70
     1
  0
LAYER
  2
0
 70
    64
 62
     7
  6
CONTINUOUS
  0
ENDTAB
  0
TABLE
  2
STYLE
 70
     1
  0
STYLE
  2
STANDARD
 70
     0
 40
0.000000
 41
1.000000
 50
0.000000
 71
     0
 42
3.000000
  3
txt
  4
BIGFONT
  0
ENDTAB
  0
ENDSEC
  0
SECTION
  2
BLOCKS
  0
ENDSEC
  0
SECTION
  2
ENTITIES
  0
LINE
  8
0
  6
CENTER
 10
353.460144
 20
301.823761
 11
-6.560000
 21
301.823761
  0
LINE
  8
0
  6
CONTINUOUS
 10
229.474533
 20
244.573761
 11
226.974533
 21
244.573761
  0
LINE
  8
0
  6
CONTINUOUS
 10
231.491928
 20
359.073761
 11
226.974533
 21
359.073761
  0
LINE
  8
0
  6
CONTINUOUS
 10
234.224533
 20
244.573761
 11
226.974533
 21
244.573761
  0
LINE
  8
0
  6
CONTINUOUS
 10
235.678757
 20
269.823761
 11
226.974533
 21
269.823761
  0
LINE
  8
0
  6
CONTINUOUS
 10
234.241135
 20
254.323761
 11
226.974533
 21
254.323761
  0
LINE
  8
0
  6
CONTINUOUS
 10
232.334930
 20
349.323761
 11
226.974533
 21
349.323761
  0
LINE
  8
0
  6
CONTINUOUS
 10
226.974533
 20
333.823761
 11
343.763336
 21
333.823761
  0
LINE
  8
0
  6
CONTINUOUS
 10
232.491730
 20
358.091248
 11
232.829605
 21
338.736481
  0
ARC
  8
0
  6
CONTINUOUS
 10
231.491837
 20
358.073761
 40
1.000000
 50
1.000700
 51
90.000000
  0
ARC
  8
0
  6
CONTINUOUS
 10
237.828934
 20
338.823761
 40
5.000000
 50
-178.999802
 51
-90.000000
  0
LINE
  8
0
  6
CONTINUOUS
 10
226.974533
 20
359.323761
 11
226.974533
 21
244.323761
  0
LINE
  8
0
  6
CONTINUOUS
 10
348.724518
 20
243.823761
 11
234.724533
 21
243.823761
  0
LINE
  8
0
  6
CONTINUOUS
 10
271.724518
 20
333.823761
 11
271.724518
 21
256.626068
  0
LINE
  8
0
  6
CONTINUOUS
 10
311.724518
 20
333.823761
 11
311.724518
 21
256.626068
  0
LINE
  8
0
  6
CONTINUOUS
 10
345.262817
 20
332.363068
 11
347.246521
 21
256.626068
  0
ARC
  8
0
  6
CONTINUOUS
 10
343.763245
 20
332.323761
 40
1.500000
 50
1.500200
 51
90.000000
  0
LINE
  8
0
  6
CONTINUOUS
 10
235.724533
 20
255.823761
 11
347.436035
 21
255.823761
  0
LINE
  8
0
  6
CONTINUOUS
 10
234.724533
 20
254.823761
 11
234.724533
 21
243.823761
  0
LINE
  8
0
  6
CONTINUOUS
 10
348.724518
 20
243.823761
 11
348.435730
 21
254.849960
  0
ARC
  8
0
  6
CONTINUOUS
 10
347.436035
 20
254.823761
 40
1.000000
 50
1.500100
 51
90.000000
  0
ARC
  8
0
  6
CONTINUOUS
 10
348.245941
 20
256.652252
 40
1.000000
 50
-178.499603
 51
-113.891197
  0
ARC
  8
0
  6
CONTINUOUS
 10
234.224533
 20
244.073761
 40
0.500000
 50
0.000000
 51
90.000000
  0
LINE
  8
0
  6
CENTER
 10
149.957504
 20
60.148762
 11
258.918335
 21
60.148762
  0
LINE
  8
0
  6
CENTER
 10
291.724518
 20
155.730026
 11
291.724518
 21
-12.007500
  0
LINE
  8
0
  6
CENTER
 10
236.132507
 20
90.648758
 11
356.793396
 21
90.648758
  0
LINE
  8
0
  6
CONTINUOUS
 10
241.724457
 20
95.009460
 11
241.724457
 21
50.288071
  0
LINE
  8
0
  6
CONTINUOUS
 10
341.724609
 20
95.009422
 11
341.724609
 21
50.288071
  0
ARC
  8
0
  6
CONTINUOUS
 10
291.724518
 20
72.648773
 40
60.000000
 50
48.189621
 51
131.810394
  0
ARC
  8
0
  6
CONTINUOUS
 10
291.724518
 20
72.648773
 40
60.000000
 50
228.189697
 51
311.810303
  0
ARC
  8
0
  6
CONTINUOUS
 10
311.724609
 20
95.009422
 40
30.000000
 50
0.000000
 51
48.189629
  0
CIRCLE
  8
0
  6
CONTINUOUS
 10
291.724518
 20
90.648758
 40
27.500000
  0
ARC
  8
0
  6
CONTINUOUS
 10
291.724518
 20
90.648758
 40
31.750000
 50
7.552697
 51
172.447403
  0
ARC
  8
0
  6
CONTINUOUS
 10
274.974518
 20
49.148766
 40
20.600000
 50
172.447403
 51
270.000000
  0
ARC
  8
0
  6
CONTINUOUS
 10
308.474518
 20
49.148766
 40
20.600000
 50
-90.000000
 51
7.552700
  0
LINE
  8
0
  6
CONTINUOUS
 10
323.199219
 20
94.821922
 11
328.895813
 21
51.856392
  0
LINE
  8
0
  6
CONTINUOUS
 10
254.553131
 20
51.856354
 11
260.249939
 21
94.821861
  0
LINE
  8
0
  6
CONTINUOUS
 10
274.974518
 20
28.548759
 11
308.474518
 21
28.548759
  0
ARC
  8
0
  6
CONTINUOUS
 10
274.974518
 20
49.148766
 40
19.000000
 50
172.447601
 51
270.000000
  0
ARC
  8
0
  6
CONTINUOUS
 10
308.474518
 20
49.148766
 40
19.000000
 50
-90.000000
 51
7.552700
  0
ARC
  8
0
  6
CONTINUOUS
 10
291.724518
 20
90.648758
 40
30.150000
 50
-187.552597
 51
7.552697
  0
LINE
  8
0
  6
CONTINUOUS
 10
256.139343
 20
51.646057
 11
261.836121
 21
94.611580
  0
LINE
  8
0
  6
CONTINUOUS
 10
321.613007
 20
94.611603
 11
327.309814
 21
51.646091
  0
LINE
  8
0
  6
CONTINUOUS
 10
274.974518
 20
30.148760
 11
308.474518
 21
30.148760
  0
LINE
  8
0
  6
CONTINUOUS
 10
281.428131
 20
37.648762
 11
277.267731
 21
37.648762
  0
LINE
  8
0
  6
CONTINUOUS
 10
283.724518
 20
44.617516
 11
283.724518
 21
37.648762
  0
LINE
  8
0
  6
CONTINUOUS
 10
287.724518
 20
47.148766
 11
287.724518
 21
49.648766
  0
LINE
  8
0
  6
CONTINUOUS
 10
295.724518
 20
47.148766
 11
295.724518
 21
49.648766
  0
LINE
  8
0
  6
CONTINUOUS
 10
290.943329
 20
48.180016
 11
290.943329
 21
38.961262
  0
LINE
  8
0
  6
CONTINUOUS
 10
292.443329
 20
48.180016
 11
292.443329
 21
38.961262
  0
LINE
  8
0
  6
CONTINUOUS
 10
300.318329
 20
48.180016
 11
300.318329
 21
38.898762
  0
LINE
  8
0
  6
CONTINUOUS
 10
301.693329
 20
43.258137
 11
301.693329
 21
38.898762
  0
LINE
  8
0
  6
CONTINUOUS
 10
281.826538
 20
48.055016
 11
277.971527
 21
48.055016
  0
LINE
  8
0
  6
CONTINUOUS
 10
277.971527
 20
48.055016
 11
277.068329
 21
46.935017
  0
LINE
  8
0
  6
CONTINUOUS
 10
277.176941
 20
49.648766
 11
275.724518
 21
47.789009
  0
LINE
  8
0
  6
CONTINUOUS
 10
277.068329
 20
40.021702
 11
277.985931
 21
39.055000
  0
LINE
  8
0
  6
CONTINUOUS
 10
275.724518
 20
39.205940
 11
277.267731
 21
37.648762
  0
LINE
  8
0
  6
CONTINUOUS
 10
275.724518
 20
47.789009
 11
275.724518
 21
39.205940
  0
LINE
  8
0
  6
CONTINUOUS
 10
277.068329
 20
46.935017
 11
277.068329
 21
40.021702
  0
LINE
  8
0
  6
CONTINUOUS
 10
282.568329
 20
47.337914
 11
281.811340
 21
48.055016
  0
LINE
  8
0
  6
CONTINUOUS
 10
282.556335
 20
49.648766
 11
283.724518
 21
48.352268
  0
LINE
  8
0
  6
CONTINUOUS
 10
282.568329
 20
47.148766
 11
283.724518
 21
47.148766
  0
LINE
  8
0
  6
CONTINUOUS
 10
277.176941
 20
49.648766
 11
282.556335
 21
49.648766
  0
LINE
  8
0
  6
CONTINUOUS
 10
280.474518
 20
44.617516
 11
283.724518
 21
44.617516
  0
LINE
  8
0
  6
CONTINUOUS
 10
282.568329
 20
43.305016
 11
280.474518
 21
43.305016
  0
LINE
  8
0
  6
CONTINUOUS
 10
280.068329
 20
39.055000
 11
277.985931
 21
39.055000
  0
LINE
  8
0
  6
CONTINUOUS
 10
282.568329
 20
42.055016
 11
282.568329
 21
43.055016
  0
ARC
  8
0
  6
CONTINUOUS
 10
280.068329
 20
41.555008
 40
2.500000
 50
-89.999786
 51
0.000109
  0
LINE
  8
0
  6
CONTINUOUS
 10
282.568329
 20
38.605320
 11
282.568329
 21
37.648762
  0
LINE
  8
0
  6
CONTINUOUS
 10
283.724518
 20
48.352268
 11
283.724518
 21
47.148766
  0
LINE
  8
0
  6
CONTINUOUS
 10
282.568329
 20
43.305016
 11
282.568329
 21
41.555016
  0
LINE
  8
0
  6
CONTINUOUS
 10
280.474518
 20
44.617516
 11
280.474518
 21
43.305016
  0
LINE
  8
0
  6
CONTINUOUS
 10
282.568329
 20
37.648762
 11
283.724518
 21
37.648762
  0
LINE
  8
0
  6
CONTINUOUS
 10
282.568329
 20
38.605320
 11
281.428131
 21
37.648762
  0
LINE
  8
0
  6
CONTINUOUS
 10
292.443329
 20
38.961262
 11
292.943329
 21
38.961262
  0
LINE
  8
0
  6
CONTINUOUS
 10
290.349518
 20
38.961262
 11
290.349518
 21
37.648762
  0
LINE
  8
0
  6
CONTINUOUS
 10
292.943329
 20
38.961262
 11
292.943329
 21
37.648762
  0
LINE
  8
0
  6
CONTINUOUS
 10
294.890137
 20
47.148766
 11
295.724518
 21
47.148766
  0
LINE
  8
0
  6
CONTINUOUS
 10
287.724518
 20
47.148766
 11
288.612518
 21
47.148766
  0
LINE
  8
0
  6
CONTINUOUS
 10
287.724518
 20
49.648766
 11
295.724518
 21
49.648766
  0
LINE
  8
0
  6
CONTINUOUS
 10
290.349518
 20
37.648762
 11
292.943329
 21
37.648762
  0
LINE
  8
0
  6
CONTINUOUS
 10
290.349518
 20
38.961262
 11
290.943329
 21
38.961262
  0
ARC
  8
0
  6
CONTINUOUS
 10
304.521332
 20
46.445637
 40
3.203126
 50
-73.981873
 51
90.003510
  0
ARC
  8
0
  6
CONTINUOUS
 10
304.521332
 20
46.445637
 40
1.954124
 50
-82.585274
 51
62.411850
  0
LINE
  8
0
  6
CONTINUOUS
 10
299.724518
 20
49.648766
 11
304.521332
 21
49.648766
  0
LINE
  8
0
  6
CONTINUOUS
 10
304.773529
 20
44.507851
 11
301.693329
 21
44.507851
  0
LINE
  8
0
  6
CONTINUOUS
 10
299.724518
 20
49.648766
 11
299.724518
 21
48.180016
  0
LINE
  8
0
  6
CONTINUOUS
 10
301.693329
 20
48.180016
 11
301.693329
 21
44.507851
  0
LINE
  8
0
  6
CONTINUOUS
 10
305.405334
 20
43.366875
 11
307.387756
 21
38.898762
  0
LINE
  8
0
  6
CONTINUOUS
 10
304.253754
 20
43.258137
 11
306.129944
 21
38.898762
  0
LINE
  8
0
  6
CONTINUOUS
 10
299.724518
 20
38.898762
 11
300.318329
 21
38.898762
  0
LINE
  8
0
  6
CONTINUOUS
 10
301.693329
 20
38.898762
 11
302.240143
 21
38.898762
  0
LINE
  8
0
  6
CONTINUOUS
 10
302.240143
 20
37.648762
 11
299.724518
 21
37.648762
  0
LINE
  8
0
  6
CONTINUOUS
 10
305.880737
 20
38.898762
 11
306.129944
 21
38.898762
  0
LINE
  8
0
  6
CONTINUOUS
 10
305.880737
 20
37.648762
 11
307.724518
 21
37.648762
  0
LINE
  8
0
  6
CONTINUOUS
 10
305.880737
 20
38.898762
 11
305.880737
 21
37.648762
  0
LINE
  8
0
  6
CONTINUOUS
 10
302.240143
 20
38.898762
 11
302.240143
 21
37.648762
  0
LINE
  8
0
  6
CONTINUOUS
 10
299.724518
 20
38.898762
 11
299.724518
 21
37.648762
  0
LINE
  8
0
  6
CONTINUOUS
 10
289.042328
 20
48.180016
 11
288.612518
 21
47.148766
  0
LINE
  8
0
  6
CONTINUOUS
 10
294.527740
 20
48.180016
 11
294.890137
 21
47.148766
  0
LINE
  8
0
  6
CONTINUOUS
 10
292.443329
 20
48.180016
 11
294.527740
 21
48.180016
  0
LINE
  8
0
  6
CONTINUOUS
 10
290.943329
 20
48.180016
 11
289.042328
 21
48.180016
  0
LINE
  8
0
  6
CONTINUOUS
 10
301.693329
 20
43.258137
 11
304.253754
 21
43.258137
  0
LINE
  8
0
  6
CONTINUOUS
 10
299.724518
 20
48.180016
 11
300.318329
 21
48.180016
  0
LINE
  8
0
  6
CONTINUOUS
 10
301.693329
 20
48.180016
 11
305.426331
 21
48.177589
  0
LINE
  8
0
  6
CONTINUOUS
 10
282.568329
 20
47.337914
 11
282.568329
 21
47.148766
  0
ARC
  8
0
  6
CONTINUOUS
 10
271.724518
 20
95.009460
 40
30.000000
 50
131.810394
 51
180.000000
  0
ARC
  8
0
  6
CONTINUOUS
 10
271.724518
 20
50.288071
 40
30.000000
 50
180.000000
 51
228.189697
  0
LINE
  8
0
  6
CONTINUOUS
 10
226.974548
 20
117.398743
 11
234.724457
 21
117.398743
  0
LINE
  8
0
  6
CONTINUOUS
 10
232.538910
 20
2.898740
 11
226.974548
 21
2.898740
  0
LINE
  8
0
  6
CONTINUOUS
 10
233.521332
 20
107.648743
 11
226.974548
 21
107.648743
  0
LINE
  8
0
  6
CONTINUOUS
 10
226.974548
 20
12.648740
 11
234.724457
 21
12.648740
  0
LINE
  8
0
  6
CONTINUOUS
 10
233.521332
 20
92.108780
 11
226.974548
 21
92.108780
  0
LINE
  8
0
  6
CONTINUOUS
 10
233.521332
 20
28.188780
 11
226.974548
 21
28.188780
  0
LINE
  8
0
  6
CENTER
 10
238.077576
 20
132.648758
 11
255.374527
 21
132.648758
  0
LINE
  8
0
  6
CENTER
 10
328.162201
 20
132.648758
 11
352.743408
 21
132.648758
  0
LINE
  8
0
  6
CENTER
 10
236.931488
 20
12.648740
 11
255.543137
 21
12.648740
  0
LINE
  8
0
  6
CENTER
 10
327.599609
 20
12.648740
 11
352.405823
 21
12.648740
  0
LINE
  8
0
  6
CENTER
 10
336.724609
 20
141.808167
 11
336.724609
 21
123.667503
  0
LINE
  8
0
  6
CENTER
 10
246.724457
 20
141.555038
 11
246.724457
 21
124.089363
  0
LINE
  8
0
  6
CENTER
 10
246.724457
 20
21.826860
 11
246.724457
 21
-4.582480
  0
LINE
  8
0
  6
CENTER
 10
336.724609
 20
21.995640
 11
336.724609
 21
-3.907500
  0
CIRCLE
  8
0
  6
CONTINUOUS
 10
336.724609
 20
132.648758
 40
5.500000
  0
CIRCLE
  8
0
  6
CONTINUOUS
 10
246.724457
 20
132.648758
 40
5.500000
  0
CIRCLE
  8
0
  6
CONTINUOUS
 10
246.724457
 20
12.648740
 40
5.500000
  0
CIRCLE
  8
0
  6
CONTINUOUS
 10
336.724609
 20
12.648740
 40
5.500000
  0
ARC
  8
0
  6
CONTINUOUS
 10
336.724609
 20
132.648758
 40
12.000000
 50
0.000000
 51
90.000000
  0
ARC
  8
0
  6
CONTINUOUS
 10
246.724457
 20
132.648758
 40
12.000000
 50
90.000000
 51
180.000000
  0
ARC
  8
0
  6
CONTINUOUS
 10
246.724457
 20
12.648740
 40
12.000000
 50
180.000000
 51
270.000000
  0
ARC
  8
0
  6
CONTINUOUS
 10
336.724609
 20
12.648740
 40
12.000000
 50
-90.000000
 51
0.000000
  0
LINE
  8
0
  6
CONTINUOUS
 10
336.724609
 20
144.648758
 11
246.724457
 21
144.648758
  0
LINE
  8
0
  6
CONTINUOUS
 10
246.724533
 20
0.648740
 11
336.724609
 21
0.648740
  0
LINE
  8
0
  6
CONTINUOUS
 10
348.724609
 20
132.648758
 11
348.724609
 21
12.648740
  0
LINE
  8
0
  6
CONTINUOUS
 10
234.724457
 20
132.648727
 11
234.724457
 21
12.648720
  0
LINE
  8
0
  6
CONTINUOUS
 10
319.724609
 20
5.648740
 11
263.724518
 21
5.648740
  0
LINE
  8
0
  6
CONTINUOUS
 10
263.724518
 20
139.648758
 11
319.724609
 21
139.648758
  0
LINE
  8
0
  6
CONTINUOUS
 10
343.724609
 20
115.648743
 11
343.724609
 21
29.648760
  0
LINE
  8
0
  6
CONTINUOUS
 10
239.724457
 20
115.648743
 11
239.724457
 21
29.648760
  0
ARC
  8
0
  6
CONTINUOUS
 10
336.724609
 20
132.648758
 40
11.000000
 50
180.000000
 51
270.000000
  0
ARC
  8
0
  6
CONTINUOUS
 10
246.724457
 20
132.648758
 40
11.000000
 50
-90.000000
 51
0.000000
  0
ARC
  8
0
  6
CONTINUOUS
 10
246.724457
 20
12.648740
 40
11.000000
 50
0.000000
 51
90.000000
  0
ARC
  8
0
  6
CONTINUOUS
 10
336.724609
 20
12.648740
 40
11.000000
 50
90.000000
 51
180.000000
  0
LINE
  8
0
  6
CONTINUOUS
 10
245.724457
 20
23.648741
 11
246.724457
 21
23.648741
  0
LINE
  8
0
  6
CONTINUOUS
 10
257.724518
 20
11.648740
 11
257.724518
 21
12.648740
  0
ARC
  8
0
  6
CONTINUOUS
 10
245.724457
 20
29.648760
 40
6.000000
 50
180.000000
 51
270.000000
  0
ARC
  8
0
  6
CONTINUOUS
 10
263.724518
 20
11.648740
 40
6.000000
 50
180.000000
 51
270.000000
  0
LINE
  8
0
  6
CONTINUOUS
 10
337.724609
 20
23.648741
 11
336.724609
 21
23.648741
  0
LINE
  8
0
  6
CONTINUOUS
 10
325.724609
 20
11.648740
 11
325.724609
 21
12.648720
  0
ARC
  8
0
  6
CONTINUOUS
 10
337.724609
 20
29.648760
 40
6.000000
 50
-90.000000
 51
0.000000
  0
ARC
  8
0
  6
CONTINUOUS
 10
319.724609
 20
11.648740
 40
6.000000
 50
-90.000000
 51
0.000000
  0
LINE
  8
0
  6
CONTINUOUS
 10
337.724609
 20
121.648743
 11
336.724609
 21
121.648743
  0
LINE
  8
0
  6
CONTINUOUS
 10
325.724609
 20
133.648758
 11
325.724609
 21
132.648727
  0
ARC
  8
0
  6
CONTINUOUS
 10
319.724609
 20
133.648758
 40
6.000000
 50
0.000000
 51
90.000000
  0
ARC
  8
0
  6
CONTINUOUS
 10
337.724609
 20
115.648743
 40
6.000000
 50
0.000000
 51
90.000000
  0
LINE
  8
0
  6
CONTINUOUS
 10
245.724457
 20
121.648743
 11
246.724457
 21
121.648743
  0
LINE
  8
0
  6
CONTINUOUS
 10
257.724518
 20
133.648758
 11
257.724518
 21
132.648758
  0
ARC
  8
0
  6
CONTINUOUS
 10
263.724518
 20
133.648819
 40
6.000000
 50
90.000000
 51
180.000000
  0
ARC
  8
0
  6
CONTINUOUS
 10
245.724487
 20
115.648804
 40
6.000000
 50
90.000000
 51
180.000000
  0
LINE
  8
0
  6
CONTINUOUS
 10
233.536667
 20
3.832240
 11
234.087112
 21
12.088660
  0
ARC
  8
0
  6
CONTINUOUS
 10
234.685806
 20
12.048760
 40
0.600000
 50
90.000000
 51
176.186096
  0
ARC
  8
0
  6
CONTINUOUS
 10
232.538910
 20
3.898740
 40
1.000000
 50
270.000000
 51
356.185791
  0
ARC
  8
0
  6
CONTINUOUS
 10
311.724609
 20
50.288086
 40
30.000000
 50
-48.189449
 51
0.000000
  0
LINE
  8
0
  6
CONTINUOUS
 10
299.224518
 20
87.648758
 11
299.224518
 21
93.648743
  0
LINE
  8
0
  6
CONTINUOUS
 10
305.224518
 20
87.648720
 11
305.224518
 21
93.648720
  0
LINE
  8
0
  6
CONTINUOUS
 10
305.224518
 20
87.648720
 11
299.224518
 21
87.648758
  0
LINE
  8
0
  6
CONTINUOUS
 10
305.224518
 20
93.648720
 11
299.224518
 21
93.648743
  0
ARC
  8
0
  6
CONTINUOUS
 10
291.724518
 20
90.648758
 40
11.000000
 50
-344.173401
 51
-15.826600
  0
LINE
  8
0
  6
CONTINUOUS
 10
226.974548
 20
117.648758
 11
226.974548
 21
2.648760
  0
LINE
  8
0
  6
CENTER
 10
514.718384
 20
-16.897461
 11
514.718384
 21
153.846725
  0
LINE
  8
0
  6
CENTER
 10
442.751770
 20
60.148762
 11
580.978149
 21
60.148762
  0
LINE
  8
0
  6
CENTER
 10
411.718567
 20
90.648758
 11
572.392334
 21
90.648758
  0
LINE
  8
0
  6
CONTINUOUS
 10
456.718567
 20
79.648758
 11
456.718567
 21
0.648740
  0
LINE
  8
0
  6
CONTINUOUS
 10
468.718567
 20
120.898743
 11
468.718567
 21
142.648758
  0
LINE
  8
0
  6
CONTINUOUS
 10
466.800354
 20
144.648758
 11
456.718567
 21
144.648758
  0
LINE
  8
0
  6
CONTINUOUS
 10
466.800354
 20
0.648780
 11
456.718567
 21
0.648780
  0
LINE
  8
0
  6
CONTINUOUS
 10
546.718384
 20
11.131440
 11
546.718384
 21
134.166077
  0
LINE
  8
0
  6
CONTINUOUS
 10
545.736145
 20
135.165939
 11
470.683746
 21
136.475647
  0
LINE
  8
0
  6
CONTINUOUS
 10
545.736145
 20
10.131620
 11
470.683746
 21
8.821300
  0
LINE
  8
0
  6
CONTINUOUS
 10
473.275146
 20
112.648743
 11
545.651184
 21
112.648743
  0
LINE
  8
0
  6
CONTINUOUS
 10
470.627563
 20
32.648762
 11
545.328186
 21
32.648762
  0
LINE
  8
0
  6
CONTINUOUS
 10
469.215149
 20
2.501740
 11
470.324371
 21
6.641580
  0
LINE
  8
0
  6
CONTINUOUS
 10
469.215149
 20
142.795837
 11
470.324554
 21
138.655319
  0
ARC
  8
0
  6
CONTINUOUS
 10
473.222351
 20
139.431839
 40
3.000000
 50
195.000702
 51
269.000488
  0
ARC
  8
0
  6
CONTINUOUS
 10
466.718567
 20
142.648758
 40
2.000000
 50
0.000000
 51
90.000000
  0
ARC
  8
0
  6
CONTINUOUS
 10
470.718567
 20
138.475357
 40
2.000000
 50
180.000000
 51
269.000610
  0
ARC
  8
0
  6
CONTINUOUS
 10
473.222168
 20
5.865140
 40
3.000000
 50
91.000526
 51
165.000305
  0
ARC
  8
0
  6
CONTINUOUS
 10
470.718567
 20
6.821620
 40
2.000000
 50
91.000633
 51
180.000000
  0
ARC
  8
0
  6
CONTINUOUS
 10
466.718567
 20
2.648780
 40
2.000000
 50
-90.000000
 51
0.000000
  0
ARC
  8
0
  6
CONTINUOUS
 10
545.718384
 20
134.166077
 40
1.000000
 50
0.000000
 51
89.000359
  0
ARC
  8
0
  6
CONTINUOUS
 10
545.718384
 20
11.131440
 40
1.000000
 50
-88.999573
 51
0.000000
  0
LINE
  8
0
  6
CENTER
 10
451.224762
 20
132.648758
 11
473.861359
 21
132.648758
  0
LINE
  8
0
  6
CENTER
 10
451.224762
 20
12.648740
 11
473.861359
 21
12.648740
  0
LINE
  8
0
  6
DASHED
 10
456.718567
 20
138.148758
 11
468.718567
 21
138.148758
  0
LINE
  8
0
  6
DASHED
 10
456.718567
 20
127.148758
 11
468.718567
 21
127.148758
  0
LINE
  8
0
  6
DASHED
 10
456.718567
 20
18.148741
 11
468.718567
 21
18.148741
  0
LINE
  8
0
  6
DASHED
 10
456.718567
 20
7.148740
 11
468.718567
 21
7.148740
  0
LINE
  8
0
  6
CONTINUOUS
 10
562.718384
 20
65.455910
 11
562.718384
 21
115.841599
  0
LINE
  8
0
  6
CONTINUOUS
 10
552.718384
 20
32.453602
 11
552.718384
 21
92.718742
  0
LINE
  8
0
  6
CONTINUOUS
 10
560.488770
 20
118.741043
 11
548.948547
 21
121.806442
  0
LINE
  8
0
  6
CONTINUOUS
 10
560.488770
 20
62.556461
 11
554.948181
 21
61.084805
  0
LINE
  8
0
  6
CONTINUOUS
 10
550.491577
 20
29.554920
 11
548.945557
 21
29.142620
  0
ARC
  8
0
  6
CONTINUOUS
 10
559.718384
 20
115.841599
 40
3.000000
 50
0.000000
 51
75.124413
  0
ARC
  8
0
  6
CONTINUOUS
 10
559.718384
 20
65.455910
 40
3.000000
 50
-75.124207
 51
0.000000
  0
ARC
  8
0
  6
CONTINUOUS
 10
549.718384
 20
32.453602
 40
3.000000
 50
-75.068420
 51
0.000000
  0
ARC
  8
0
  6
CONTINUOUS
 10
549.718384
 20
124.705917
 40
3.000000
 50
180.000000
 51
255.124603
  0
ARC
  8
0
  6
CONTINUOUS
 10
555.718384
 20
58.185368
 40
3.000000
 50
104.876099
 51
180.000000
  0
ARC
  8
0
  6
CONTINUOUS
 10
549.718384
 20
26.243919
 40
3.000000
 50
104.931801
 51
180.000000
  0
LINE
  8
0
  6
CONTINUOUS
 10
562.218384
 20
17.648741
 11
562.218384
 21
26.700100
  0
LINE
  8
0
  6
CONTINUOUS
 10
557.218384
 20
12.648740
 11
548.167358
 21
12.648740
  0
ARC
  8
0
  6
CONTINUOUS
 10
514.718384
 20
60.148762
 40
57.250000
 50
-32.501888
 51
33.025517
  0
ARC
  8
0
  6
CONTINUOUS
 10
514.718384
 20
60.148762
 40
57.250000
 50
243.004898
 51
298.995514
  0
ARC
  8
0
  6
CONTINUOUS
 10
557.218384
 20
17.648741
 40
5.000000
 50
-90.000000
 51
0.000000
  0
ARC
  8
0
  6
CONTINUOUS
 10
567.218384
 20
26.700100
 40
5.000000
 50
147.498093
 51
180.000000
  0
ARC
  8
0
  6
CONTINUOUS
 10
548.167358
 20
7.648740
 40
5.000000
 50
90.000000
 51
106.842003
  0
LINE
  8
0
  6
CONTINUOUS
 10
466.718567
 20
65.455910
 11
466.718567
 21
115.841599
  0
LINE
  8
0
  6
CONTINUOUS
 10
468.948547
 20
62.556454
 11
471.749756
 21
61.812366
  0
LINE
  8
0
  6
CONTINUOUS
 10
468.948547
 20
118.741043
 11
470.772156
 21
119.225479
  0
ARC
  8
0
  6
CONTINUOUS
 10
469.718750
 20
115.841599
 40
3.000000
 50
104.876099
 51
180.000000
  0
ARC
  8
0
  6
CONTINUOUS
 10
469.718567
 20
65.455925
 40
3.000000
 50
180.000000
 51
255.124603
  0
LINE
  8
0
  6
CONTINUOUS
 10
474.218567
 20
110.398743
 11
475.718567
 21
104.148743
  0
LINE
  8
0
  6
CONTINUOUS
 10
475.718567
 20
104.148743
 11
474.718567
 21
98.648743
  0
LINE
  8
0
  6
CONTINUOUS
 10
474.718567
 20
98.648743
 11
476.968567
 21
92.898743
  0
LINE
  8
0
  6
CONTINUOUS
 10
476.968567
 20
92.898743
 11
475.218567
 21
87.148758
  0
LINE
  8
0
  6
CONTINUOUS
 10
475.218567
 20
87.148758
 11
473.218567
 21
82.148758
  0
LINE
  8
0
  6
CONTINUOUS
 10
473.218567
 20
82.148758
 11
473.718567
 21
73.398758
  0
LINE
  8
0
  6
CONTINUOUS
 10
473.718567
 20
73.398758
 11
472.468567
 21
68.898758
  0
LINE
  8
0
  6
CONTINUOUS
 10
472.468567
 20
68.898758
 11
472.468567
 21
64.148758
  0
LINE
  8
0
  6
CONTINUOUS
 10
472.468567
 20
64.148758
 11
470.468567
 21
57.648762
  0
LINE
  8
0
  6
CONTINUOUS
 10
470.468567
 20
57.648762
 11
470.718567
 21
53.648762
  0
LINE
  8
0
  6
CONTINUOUS
 10
470.718567
 20
53.648762
 11
469.718567
 21
49.273762
  0
LINE
  8
0
  6
CONTINUOUS
 10
469.718567
 20
49.273762
 11
466.218567
 21
46.648762
  0
LINE
  8
0
  6
CONTINUOUS
 10
466.218567
 20
46.648762
 11
463.593567
 21
43.398762
  0
LINE
  8
0
  6
CONTINUOUS
 10
463.593567
 20
43.398762
 11
460.718567
 21
41.648762
  0
LINE
  8
0
  6
CONTINUOUS
 10
460.718567
 20
41.648762
 11
458.343567
 21
39.523762
  0
LINE
  8
0
  6
CONTINUOUS
 10
458.343567
 20
39.523762
 11
456.718567
 21
39.152340
  0
LINE
  8
0
  6
CONTINUOUS
 10
466.593567
 20
122.523743
 11
463.093567
 21
123.398743
  0
LINE
  8
0
  6
CONTINUOUS
 10
463.093567
 20
123.398743
 11
459.718567
 21
124.023743
  0
LINE
  8
0
  6
CONTINUOUS
 10
459.718567
 20
124.023743
 11
456.718567
 21
125.023758
  0
LINE
  8
0
  6
CONTINUOUS
 10
456.718567
 20
144.648758
 11
456.718567
 21
101.648743
  0
LINE
  8
0
  6
CONTINUOUS
 10
468.718567
 20
2.648780
 11
468.718567
 21
48.523762
  0
LINE
  8
0
  6
CONTINUOUS
 10
466.593567
 20
122.523743
 11
468.718567
 21
120.898743
  0
LINE
  8
0
  6
CONTINUOUS
 10
468.718567
 20
120.898743
 11
472.093567
 21
118.148743
  0
LINE
  8
0
  6
CONTINUOUS
 10
472.093567
 20
118.148743
 11
472.593567
 21
114.273743
  0
LINE
  8
0
  6
CONTINUOUS
 10
472.593567
 20
114.273743
 11
474.218567
 21
110.398743
  0
LINE
  8
0
  6
CONTINUOUS
 10
463.718567
 20
79.648758
 11
463.718567
 21
43.553520
  0
LINE
  8
0
  6
CONTINUOUS
 10
463.718567
 20
123.242523
 11
463.718567
 21
101.648743
  0
LINE
  8
0
  6
CONTINUOUS
 10
424.718750
 20
79.648766
 11
424.718750
 21
101.648743
  0
LINE
  8
0
  6
CONTINUOUS
 10
464.718750
 20
101.648743
 11
424.718750
 21
101.648743
  0
LINE
  8
0
  6
CONTINUOUS
 10
464.718750
 20
79.648766
 11
424.718750
 21
79.648766
  0
LINE
  8
0
  6
CONTINUOUS
 10
464.718750
 20
103.148743
 11
464.718750
 21
78.148766
  0
LINE
  8
0
  6
CONTINUOUS
 10
466.718750
 20
103.148743
 11
464.718750
 21
103.148743
  0
LINE
  8
0
  6
CONTINUOUS
 10
466.718750
 20
78.148766
 11
464.718750
 21
78.148766
  0
ARC
  8
0
  6
CONTINUOUS
 10
456.718750
 20
90.648758
 40
3.000000
 50
-90.000000
 51
90.000000
  0
LINE
  8
0
  6
CONTINUOUS
 10
456.718750
 20
93.648743
 11
424.718750
 21
93.648743
  0
LINE
  8
0
  6
CONTINUOUS
 10
456.718750
 20
87.648758
 11
424.718750
 21
87.648758
  0
ARC
  8
0
  6
CONTINUOUS
 10
466.800354
 20
142.148758
 40
2.500000
 50
15.000760
 51
90.000000
  0
ARC
  8
0
  6
CONTINUOUS
 10
466.800354
 20
3.148780
 40
2.500000
 50
270.000000
 51
345.000214
  0
ARC
  8
0
  6
CONTINUOUS
 10
514.718384
 20
60.148762
 40
57.499821
 50
303.815704
 51
303.996307
  0
ARC
  8
0
  6
CONTINUOUS
 10
514.718384
 20
60.148762
 40
57.500000
 50
242.540298
 51
299.460602
  0
ARC
  8
0
  6
CONTINUOUS
 10
514.718384
 20
60.148762
 40
57.500000
 50
-33.996769
 51
33.406792
  0
ARC
  8
0
  6
CONTINUOUS
 10
514.718384
 20
60.148762
 40
57.500000
 50
303.815613
 51
303.997314
  0
LINE
  8
0
  6
CONTINUOUS
 10
238.186234
 20
332.363037
 11
237.983521
 21
324.623749
  0
ARC
  8
0
  6
CONTINUOUS
 10
239.685715
 20
332.323761
 40
1.500000
 50
90.000000
 51
178.499649
  0
ARC
  8
0
  6
CONTINUOUS
 10
235.724533
 20
254.823761
 40
1.000000
 50
90.000000
 51
180.000000
  0
ARC
  8
0
  6
CONTINUOUS
 10
235.205566
 20
256.755249
 40
1.000000
 50
285.039185
 51
358.499664
  0
LINE
  8
0
  6
CENTER
 10
291.724518
 20
360.799072
 11
291.724518
 21
201.599808
  0
LINE
  8
0
  6
CONTINUOUS
 10
266.531677
 20
349.823761
 11
316.917389
 21
349.823761
  0
LINE
  8
0
  6
CONTINUOUS
 10
321.880768
 20
339.823761
 11
325.167633
 21
339.823761
  0
ARC
  8
0
  6
CONTINUOUS
 10
316.917389
 20
346.823761
 40
3.000000
 50
-345.124329
 51
-270.000000
  0
LINE
  8
0
  6
CONTINUOUS
 10
328.067078
 20
337.593933
 11
328.476227
 21
336.053589
  0
ARC
  8
0
  6
CONTINUOUS
 10
325.167633
 20
336.823761
 40
3.000000
 50
-345.124329
 51
-270.000000
  0
ARC
  8
0
  6
CONTINUOUS
 10
331.375702
 20
336.823761
 40
3.000000
 50
-165.124313
 51
-90.000000
  0
LINE
  8
0
  6
CONTINUOUS
 10
321.880768
 20
339.823761
 11
319.816833
 21
347.593933
  0
LINE
  8
0
  6
CONTINUOUS
 10
255.381989
 20
337.593933
 11
254.972824
 21
336.053589
  0
ARC
  8
0
  6
CONTINUOUS
 10
258.281433
 20
336.823761
 40
3.000000
 50
90.000000
 51
165.124313
  0
ARC
  8
0
  6
CONTINUOUS
 10
252.073380
 20
336.823761
 40
3.000000
 50
-90.000000
 51
-14.875682
  0
LINE
  8
0
  6
CONTINUOUS
 10
261.568268
 20
339.823761
 11
258.281433
 21
339.823761
  0
ARC
  8
0
  6
CONTINUOUS
 10
266.531677
 20
346.823761
 40
3.000000
 50
90.000000
 51
165.124313
  0
LINE
  8
0
  6
CONTINUOUS
 10
261.568268
 20
339.823761
 11
263.632233
 21
347.593933
  0
LINE
  8
0
  6
CONTINUOUS
 10
280.724518
 20
211.823761
 11
305.224518
 21
211.823761
  0
LINE
  8
0
  6
CONTINUOUS
 10
280.724518
 20
243.823761
 11
280.724518
 21
211.823761
  0
LINE
  8
0
  6
CONTINUOUS
 10
305.224518
 20
243.823761
 11
305.224518
 21
211.823761
  0
LINE
  8
0
  6
CONTINUOUS
 10
302.307526
 20
211.823761
 11
302.307526
 21
243.823761
  0
ARC
  8
0
  6
CONTINUOUS
 10
176.540115
 20
303.417450
 40
65.000000
 50
-22.042076
 51
19.041388
  0
LINE
  8
0
  6
CONTINUOUS
 10
236.789169
 20
279.023773
 11
236.205231
 21
256.729065
  0
LINE
  8
0
  6
CONTINUOUS
 10
60.974529
 20
87.148743
 11
174.974533
 21
87.148743
  0
LINE
  8
0
  6
CONTINUOUS
 10
60.974529
 20
11.148780
 11
174.974533
 21
11.148780
  0
LINE
  8
0
  6
CONTINUOUS
 10
60.974529
 20
79.397743
 11
166.974533
 21
79.397743
  0
LINE
  8
0
  6
CONTINUOUS
 10
60.974529
 20
18.899780
 11
166.974533
 21
18.899780
  0
LINE
  8
0
  6
CONTINUOUS
 10
166.974533
 20
85.148743
 11
166.974533
 21
13.148760
  0
ARC
  8
0
  6
CONTINUOUS
 10
168.974533
 20
85.148758
 40
2.000000
 50
90.000000
 51
180.000000
  0
ARC
  8
0
  6
CONTINUOUS
 10
168.974533
 20
13.148780
 40
2.000000
 50
180.000000
 51
270.000000
  0
LINE
  8
0
  6
CONTINUOUS
 10
216.561783
 20
88.601021
 11
174.974533
 21
87.148758
  0
LINE
  8
0
  6
CONTINUOUS
 10
226.974533
 20
9.332880
 11
174.974533
 21
11.148760
  0
LINE
  8
0
  6
CONTINUOUS
 10
218.974533
 20
116.648758
 11
218.974533
 21
89.648758
  0
LINE
  8
0
  6
CONTINUOUS
 10
219.974533
 20
117.648758
 11
226.974548
 21
117.648758
  0
LINE
  8
0
  6
CONTINUOUS
 10
221.474533
 20
2.648760
 11
226.974533
 21
2.648760
  0
LINE
  8
0
  6
CONTINUOUS
 10
218.974533
 20
90.148758
 11
218.974533
 21
19.236103
  0
LINE
  8
0
  6
CONTINUOUS
 10
174.974533
 20
87.148758
 11
174.974533
 21
11.148760
  0
LINE
  8
0
  6
CONTINUOUS
 10
217.561401
 20
100.466560
 11
191.617981
 21
87.942154
  0
ARC
  8
0
  6
CONTINUOUS
 10
219.974533
 20
116.648758
 40
1.000000
 50
90.000000
 51
180.000000
  0
ARC
  8
0
  6
CONTINUOUS
 10
216.474533
 20
102.717941
 40
2.500000
 50
-64.230675
 51
0.000000
  0
ARC
  8
0
  6
CONTINUOUS
 10
216.474533
 20
91.099495
 40
2.500000
 50
-88.000000
 51
0.000000
  0
ARC
  8
0
  6
CONTINUOUS
 10
190.531097
 20
90.193527
 40
2.500000
 50
272.000000
 51
295.769318
  0
LINE
  8
0
  6
CONTINUOUS
 10
220.099609
 20
16.994761
 11
226.974533
 21
16.994761
  0
LINE
  8
0
  6
CONTINUOUS
 10
218.974533
 20
5.148760
 11
218.974533
 21
7.198024
  0
ARC
  8
0
  6
CONTINUOUS
 10
221.474533
 20
5.148760
 40
2.500000
 50
180.000000
 51
270.000000
  0
ARC
  8
0
  6
CONTINUOUS
 10
216.474533
 20
7.198024
 40
2.500000
 50
0.000000
 51
88.000000
  0
LINE
  8
0
  6
CENTER
 10
-8.025000
 20
49.148762
 11
259.724518
 21
49.148762
  0
LINE
  8
0
  6
CONTINUOUS
 10
221.474533
 20
244.323761
 11
226.974533
 21
244.323761
  0
LINE
  8
0
  6
CONTINUOUS
 10
221.474533
 20
359.323761
 11
226.974533
 21
359.323761
  0
LINE
  8
0
  6
CONTINUOUS
 10
218.974533
 20
246.823761
 11
218.974533
 21
356.823761
  0
LINE
  8
0
  6
CONTINUOUS
 10
174.974533
 20
339.823761
 11
174.974533
 21
263.823761
  0
LINE
  8
0
  6
CONTINUOUS
 10
216.561783
 20
341.276031
 11
174.974533
 21
339.823761
  0
LINE
  8
0
  6
CONTINUOUS
 10
216.561783
 20
262.371490
 11
174.974533
 21
263.823761
  0
ARC
  8
0
  6
CONTINUOUS
 10
221.474533
 20
356.823761
 40
2.500000
 50
90.000000
 51
180.000000
  0
ARC
  8
0
  6
CONTINUOUS
 10
221.474533
 20
246.823761
 40
2.500000
 50
180.000000
 51
270.000000
  0
LINE
  8
0
  6
CONTINUOUS
 10
174.974533
 20
339.823761
 11
174.974533
 21
263.823761
  0
LINE
  8
0
  6
CONTINUOUS
 10
60.974651
 20
339.823730
 11
174.974655
 21
339.823730
  0
LINE
  8
0
  6
CONTINUOUS
 10
60.974651
 20
263.823792
 11
174.974655
 21
263.823792
  0
LINE
  8
0
  6
CONTINUOUS
 10
166.974655
 20
337.823730
 11
166.974655
 21
324.823761
  0
ARC
  8
0
  6
CONTINUOUS
 10
168.974655
 20
337.823761
 40
2.000000
 50
90.000000
 51
180.000000
  0
ARC
  8
0
  6
CONTINUOUS
 10
168.974655
 20
265.823792
 40
2.000000
 50
180.000000
 51
270.000000
  0
LINE
  8
0
  6
CONTINUOUS
 10
101.974640
 20
324.823761
 11
166.974655
 21
324.823761
  0
LINE
  8
0
  6
CONTINUOUS
 10
101.974648
 20
278.823761
 11
166.974655
 21
278.823761
  0
LINE
  8
0
  6
CONTINUOUS
 10
166.974655
 20
278.823761
 11
166.974655
 21
265.823761
  0
ARC
  8
0
  6
CONTINUOUS
 10
206.144165
 20
301.823761
 40
15.000000
 50
130.747620
 51
229.252380
  0
LINE
  8
0
  6
CONTINUOUS
 10
218.106354
 20
331.929749
 11
196.353241
 21
313.187653
  0
LINE
  8
0
  6
CONTINUOUS
 10
218.106354
 20
271.717773
 11
196.353241
 21
290.459869
  0
ARC
  8
0
  6
CONTINUOUS
 10
216.474533
 20
333.823730
 40
2.500000
 50
-49.252373
 51
0.000000
  0
ARC
  8
0
  6
CONTINUOUS
 10
216.474533
 20
343.774506
 40
2.500000
 50
-88.000000
 51
0.000000
  0
ARC
  8
0
  6
CONTINUOUS
 10
216.474533
 20
269.823792
 40
2.500000
 50
0.000000
 51
49.252373
  0
ARC
  8
0
  6
CONTINUOUS
 10
216.474533
 20
259.873016
 40
2.500000
 50
0.000000
 51
88.000000
  0
LINE
  8
0
  6
CONTINUOUS
 10
60.974651
 20
339.823730
 11
60.974651
 21
326.823730
  0
LINE
  8
0
  6
CONTINUOUS
 10
60.974651
 20
339.823730
 11
51.474651
 21
339.823730
  0
LINE
  8
0
  6
CONTINUOUS
 10
60.974651
 20
263.823730
 11
51.474651
 21
263.823730
  0
LINE
  8
0
  6
CONTINUOUS
 10
51.974651
 20
278.823730
 11
51.474651
 21
278.823730
  0
LINE
  8
0
  6
CONTINUOUS
 10
51.974651
 20
324.823730
 11
51.474651
 21
324.823730
  0
LINE
  8
0
  6
CONTINUOUS
 10
60.974651
 20
276.823730
 11
60.974651
 21
263.823730
  0
LINE
  8
0
  6
CONTINUOUS
 10
51.474651
 20
261.823730
 11
51.474651
 21
301.823761
  0
LINE
  8
0
  6
CONTINUOUS
 10
7.474653
 20
341.823730
 11
51.474651
 21
341.823730
  0
LINE
  8
0
  6
CONTINUOUS
 10
7.474653
 20
261.823730
 11
51.474651
 21
261.823730
  0
LINE
  8
0
  6
CONTINUOUS
 10
2.474653
 20
266.823730
 11
2.474653
 21
336.823730
  0
ARC
  8
0
  6
CONTINUOUS
 10
7.474653
 20
336.823730
 40
5.000000
 50
90.000000
 51
180.000000
  0
ARC
  8
0
  6
CONTINUOUS
 10
7.474653
 20
266.823730
 40
5.000000
 50
180.000000
 51
270.000000
  0
LINE
  8
0
  6
CONTINUOUS
 10
4.974653
 20
325.823730
 11
51.474651
 21
325.823730
  0
LINE
  8
0
  6
CONTINUOUS
 10
4.974653
 20
275.823730
 11
51.474651
 21
275.823730
  0
LINE
  8
0
  6
CONTINUOUS
 10
51.474529
 20
87.148743
 11
60.974529
 21
87.148743
  0
LINE
  8
0
  6
CONTINUOUS
 10
51.474529
 20
11.148740
 11
60.974529
 21
11.148740
  0
LINE
  8
0
  6
CONTINUOUS
 10
51.474529
 20
9.148740
 11
51.474529
 21
89.148743
  0
LINE
  8
0
  6
CONTINUOUS
 10
51.474529
 20
79.397743
 11
60.974529
 21
79.397743
  0
LINE
  8
0
  6
CONTINUOUS
 10
51.474529
 20
18.899740
 11
60.974529
 21
18.899740
  0
LINE
  8
0
  6
CONTINUOUS
 10
7.474531
 20
89.148743
 11
51.474529
 21
89.148743
  0
LINE
  8
0
  6
CONTINUOUS
 10
7.474531
 20
9.148740
 11
51.474529
 21
9.148740
  0
LINE
  8
0
  6
CONTINUOUS
 10
2.474531
 20
14.148740
 11
2.474531
 21
84.148743
  0
ARC
  8
0
  6
CONTINUOUS
 10
7.474531
 20
84.148743
 40
5.000000
 50
90.000000
 51
180.000000
  0
ARC
  8
0
  6
CONTINUOUS
 10
7.474531
 20
14.148740
 40
5.000000
 50
180.000000
 51
270.000000
  0
LINE
  8
0
  6
CONTINUOUS
 10
4.974531
 20
75.148743
 11
51.474529
 21
75.148743
  0
LINE
  8
0
  6
CONTINUOUS
 10
4.974531
 20
25.148741
 11
51.474529
 21
25.148741
  0
LINE
  8
0
  6
CONTINUOUS
 10
60.974529
 20
11.148760
 11
60.974529
 21
87.148743
  0
LINE
  8
0
  6
CONTINUOUS
 10
51.474651
 20
301.823761
 11
51.474651
 21
341.823730
  0
LINE
  8
0
  6
CONTINUOUS
 10
51.974651
 20
278.823730
 11
51.974651
 21
324.823730
  0
LINE
  8
0
  6
CONTINUOUS
 10
53.974651
 20
326.823730
 11
51.974651
 21
324.823730
  0
LINE
  8
0
  6
CONTINUOUS
 10
53.974651
 20
326.823730
 11
99.974640
 21
326.823730
  0
LINE
  8
0
  6
CONTINUOUS
 10
94.474655
 20
322.323730
 11
94.474655
 21
326.823730
  0
ARC
  8
0
  6
CONTINUOUS
 10
97.474655
 20
322.323730
 40
3.000000
 50
180.000000
 51
270.000000
  0
LINE
  8
0
  6
CONTINUOUS
 10
97.474655
 20
319.323730
 11
101.974640
 21
319.323730
  0
CIRCLE
  8
0
  6
CONTINUOUS
 10
98.474655
 20
323.323730
 40
2.250000
  0
LINE
  8
0
  6
CONTINUOUS
 10
101.974648
 20
278.823730
 11
101.974640
 21
324.823730
  0
LINE
  8
0
  6
CONTINUOUS
 10
99.974640
 20
326.823730
 11
101.974640
 21
324.823730
  0
LINE
  8
0
  6
CONTINUOUS
 10
99.974648
 20
276.823730
 11
101.974648
 21
278.823730
  0
LINE
  8
0
  6
CONTINUOUS
 10
99.974648
 20
276.823730
 11
53.974651
 21
276.823730
  0
LINE
  8
0
  6
CONTINUOUS
 10
51.974651
 20
278.823730
 11
53.974651
 21
276.823730
  0
LINE
  8
0
  6
CONTINUOUS
 10
56.474651
 20
284.323730
 11
51.974663
 21
284.323730
  0
CIRCLE
  8
0
  6
CONTINUOUS
 10
55.474651
 20
280.323730
 40
2.250000
  0
ARC
  8
0
  6
CONTINUOUS
 10
56.474651
 20
281.323730
 40
3.000000
 50
0.000000
 51
90.000000
  0
LINE
  8
0
  6
CONTINUOUS
 10
59.474651
 20
281.323730
 11
59.474651
 21
276.823730
  0
LINE
  8
0
  6
CENTER
 10
76.974655
 20
269.357971
 11
76.974655
 21
333.489990
  0
LINE
  8
0
  6
CONTINUOUS
 10
52.974659
 20
284.323730
 11
52.974659
 21
319.323730
  0
LINE
  8
0
  6
CONTINUOUS
 10
94.474655
 20
325.823730
 11
59.474651
 21
325.823730
  0
LINE
  8
0
  6
CONTINUOUS
 10
100.974648
 20
319.323730
 11
100.974648
 21
284.323730
  0
LINE
  8
0
  6
CONTINUOUS
 10
59.474651
 20
277.823730
 11
94.474655
 21
277.823730
  0
LINE
  8
0
  6
CONTINUOUS
 10
56.474651
 20
319.323730
 11
51.974651
 21
319.323730
  0
ARC
  8
0
  6
CONTINUOUS
 10
56.474651
 20
322.323730
 40
3.000000
 50
-90.000000
 51
0.000000
  0
LINE
  8
0
  6
CONTINUOUS
 10
59.474651
 20
322.323730
 11
59.474651
 21
326.823730
  0
CIRCLE
  8
0
  6
CONTINUOUS
 10
55.474651
 20
323.323730
 40
2.250000
  0
ARC
  8
0
  6
CONTINUOUS
 10
97.474655
 20
281.323730
 40
3.000000
 50
90.000000
 51
180.000000
  0
LINE
  8
0
  6
CONTINUOUS
 10
94.474655
 20
281.323730
 11
94.474655
 21
276.823761
  0
LINE
  8
0
  6
CONTINUOUS
 10
97.474655
 20
284.323730
 11
101.974655
 21
284.323730
  0
CIRCLE
  8
0
  6
CONTINUOUS
 10
98.474655
 20
280.323730
 40
2.250000
  0
LINE
  8
0
  6
CONTINUOUS
 10
53.474529
 20
88.648743
 11
99.974533
 21
88.648743
  0
LINE
  8
0
  6
CONTINUOUS
 10
101.974510
 20
132.648743
 11
101.974533
 21
90.648743
  0
LINE
  8
0
  6
CONTINUOUS
 10
51.974529
 20
132.648743
 11
51.974529
 21
90.648743
  0
LINE
  8
0
  6
CONTINUOUS
 10
51.974529
 20
100.648743
 11
101.974533
 21
100.648743
  0
LINE
  8
0
  6
CONTINUOUS
 10
99.974533
 20
88.648743
 11
101.974533
 21
90.648743
  0
LINE
  8
0
  6
CONTINUOUS
 10
51.974529
 20
90.648743
 11
53.974529
 21
88.648743
  0
LINE
  8
0
  6
CONTINUOUS
 10
51.974529
 20
90.648743
 11
101.974533
 21
90.648743
  0
LINE
  8
0
  6
CONTINUOUS
 10
51.974529
 20
101.648743
 11
101.974510
 21
101.648743
  0
LINE
  8
0
  6
CONTINUOUS
 10
52.974529
 20
133.648743
 11
100.974510
 21
133.648743
  0
LINE
  8
0
  6
CONTINUOUS
 10
100.974510
 20
133.648743
 11
101.974510
 21
132.648743
  0
LINE
  8
0
  6
CONTINUOUS
 10
52.974529
 20
133.648743
 11
51.974529
 21
132.648743
  0
LINE
  8
0
  6
CONTINUOUS
 10
51.974529
 20
132.648743
 11
101.974510
 21
132.648743
  0
LINE
  8
0
  6
CENTER
 10
76.974533
 20
82.259232
 11
76.974533
 21
139.951233
  0
LINE
  8
0
  6
CENTER
 10
49.599529
 20
116.648743
 11
54.224529
 21
116.648743
  0
LINE
  8
0
  6
CONTINUOUS
 10
53.474529
 20
88.648743
 11
53.474529
 21
87.148743
  0
LINE
  8
0
  6
CONTINUOUS
 10
99.474533
 20
88.648743
 11
99.474533
 21
87.148743
  0
LINE
  8
0
  6
CONTINUOUS
 10
51.099529
 20
127.148743
 11
53.099529
 21
127.148743
  0
LINE
  8
0
  6
CONTINUOUS
 10
51.099529
 20
106.148743
 11
53.099529
 21
106.148743
  0
LINE
  8
0
  6
CENTER
 10
246.724457
 20
261.066254
 11
246.724457
 21
239.899994
  0
LINE
  8
0
  6
DASHED
 10
252.224457
 20
255.823761
 11
252.224457
 21
243.823761
  0
LINE
  8
0
  6
DASHED
 10
241.224457
 20
255.823761
 11
241.224457
 21
243.823761
  0
LINE
  8
0
  6
DASHED
 10
331.224609
 20
255.823761
 11
331.224609
 21
243.823761
  0
LINE
  8
0
  6
CENTER
 10
336.724609
 20
261.066254
 11
336.724609
 21
239.899994
  0
LINE
  8
0
  6
DASHED
 10
342.224609
 20
255.823761
 11
342.224609
 21
243.823761
  0
LINE
  8
0
  6
CONTINUOUS
 10
174.974533
 20
39.748760
 11
218.974533
 21
39.748760
  0
LINE
  8
0
  6
CONTINUOUS
 10
174.974533
 20
29.548759
 11
218.974533
 21
29.548759
  0
TEXT
  8
0
 10
-8.000000
 20
-16.000000
 40
4.000000
 41
1.000000
  1
HFM-22R-300~450-S40WK
 50
0.000000
  0
ENDSEC
  0
EOF
