  0
SECTION
  2
HEADER
  9
$CLAYER
  8
1
  9
$LTSCALE
 40
3.0
  0
ENDSEC
  0
SECTION
  2
TABLES
  0
TABLE
  2
LTYPE
 70
     4
  0
LTYPE
  2
CONTINUOUS
  3
solid line
 70
    64
 72
    65
 73
     0
 40
0.0
  0
LTYPE
  2
DASHED
  3
__ __ __ __ __ __ __ __ __ __ __ __ __ __ __
 70
    64
 72
    65
 73
     2
 40
0.75
 49
0.5
 49
-0.25
  0
LTYPE
  2
CENTER
  3
____ _ ____ _ ____ _ ____ _ ____ _ ____ _ ____
 70
    64
 72
    65
 73
     4
 40
2.0
 49
1.25
 49
-0.25
 49
0.25
 49
-0.25
  0
LTYPE
  2
PHANTOM
  3
_____ _ _ _____ _ _ _____ _ _ _____ _ _ ____
 70
    64
 72
    65
 73
     6
 40
2.5
 49
1.25
 49
-0.25
 49
0.25
 49
-0.25
 49
0.25
 49
-0.25
  0
ENDTAB
  0
TABLE
  2
LAYER
 70
     1
  0
LAYER
  2
0
 70
    64
 62
     7
  6
CONTINUOUS
  0
ENDTAB
  0
TABLE
  2
STYLE
 70
     1
  0
STYLE
  2
STANDARD
 70
     0
 40
0.000000
 41
1.000000
 50
0.000000
 71
     0
 42
3.000000
  3
txt
  4
BIGFONT
  0
ENDTAB
  0
ENDSEC
  0
SECTION
  2
BLOCKS
  0
ENDSEC
  0
SECTION
  2
ENTITIES
  0
LINE
  8
0
  6
CENTER
 10
353.460144
 20
303.258759
 11
-6.560000
 21
303.258759
  0
LINE
  8
0
  6
CONTINUOUS
 10
229.474533
 20
246.008759
 11
226.974533
 21
246.008759
  0
LINE
  8
0
  6
CONTINUOUS
 10
231.491928
 20
360.508759
 11
226.974533
 21
360.508759
  0
LINE
  8
0
  6
CONTINUOUS
 10
234.224533
 20
246.008759
 11
226.974533
 21
246.008759
  0
LINE
  8
0
  6
CONTINUOUS
 10
235.678757
 20
271.258759
 11
226.974533
 21
271.258759
  0
LINE
  8
0
  6
CONTINUOUS
 10
234.241135
 20
255.758759
 11
226.974533
 21
255.758759
  0
LINE
  8
0
  6
CONTINUOUS
 10
232.334930
 20
350.758759
 11
226.974533
 21
350.758759
  0
LINE
  8
0
  6
CONTINUOUS
 10
226.974533
 20
335.258759
 11
343.763336
 21
335.258759
  0
LINE
  8
0
  6
CONTINUOUS
 10
232.491730
 20
359.526245
 11
232.829605
 21
340.171478
  0
ARC
  8
0
  6
CONTINUOUS
 10
231.491837
 20
359.508759
 40
1.000000
 50
1.000700
 51
90.000000
  0
ARC
  8
0
  6
CONTINUOUS
 10
237.828934
 20
340.258759
 40
5.000000
 50
-178.999802
 51
-90.000000
  0
LINE
  8
0
  6
CONTINUOUS
 10
226.974533
 20
360.758759
 11
226.974533
 21
245.758759
  0
LINE
  8
0
  6
CONTINUOUS
 10
348.724518
 20
245.258759
 11
234.724533
 21
245.258759
  0
LINE
  8
0
  6
CONTINUOUS
 10
271.724518
 20
335.258759
 11
271.724518
 21
258.061066
  0
LINE
  8
0
  6
CONTINUOUS
 10
311.724518
 20
335.258759
 11
311.724518
 21
258.061066
  0
LINE
  8
0
  6
CONTINUOUS
 10
345.262817
 20
333.798065
 11
347.246521
 21
258.061066
  0
ARC
  8
0
  6
CONTINUOUS
 10
343.763245
 20
333.758759
 40
1.500000
 50
1.500200
 51
90.000000
  0
LINE
  8
0
  6
CONTINUOUS
 10
235.724533
 20
257.258759
 11
347.436035
 21
257.258759
  0
LINE
  8
0
  6
CONTINUOUS
 10
234.724533
 20
256.258759
 11
234.724533
 21
245.258759
  0
LINE
  8
0
  6
CONTINUOUS
 10
348.724518
 20
245.258759
 11
348.435730
 21
256.284973
  0
ARC
  8
0
  6
CONTINUOUS
 10
347.436035
 20
256.258759
 40
1.000000
 50
1.500100
 51
90.000000
  0
ARC
  8
0
  6
CONTINUOUS
 10
348.245941
 20
258.087250
 40
1.000000
 50
-178.499603
 51
-113.891197
  0
ARC
  8
0
  6
CONTINUOUS
 10
234.224533
 20
245.508759
 40
0.500000
 50
0.000000
 51
90.000000
  0
LINE
  8
0
  6
CENTER
 10
151.751251
 20
61.583759
 11
258.918335
 21
61.583759
  0
LINE
  8
0
  6
CENTER
 10
291.724518
 20
157.165024
 11
291.724518
 21
-10.572500
  0
LINE
  8
0
  6
CENTER
 10
236.132507
 20
92.083763
 11
356.793396
 21
92.083763
  0
LINE
  8
0
  6
CONTINUOUS
 10
241.724457
 20
96.444458
 11
241.724457
 21
51.723072
  0
LINE
  8
0
  6
CONTINUOUS
 10
341.724609
 20
96.444420
 11
341.724609
 21
51.723072
  0
ARC
  8
0
  6
CONTINUOUS
 10
291.724518
 20
74.083771
 40
60.000000
 50
48.189621
 51
131.810394
  0
ARC
  8
0
  6
CONTINUOUS
 10
291.724518
 20
74.083771
 40
60.000000
 50
228.189697
 51
311.810303
  0
ARC
  8
0
  6
CONTINUOUS
 10
311.724609
 20
96.444420
 40
30.000000
 50
0.000000
 51
48.189629
  0
CIRCLE
  8
0
  6
CONTINUOUS
 10
291.724518
 20
92.083763
 40
27.500000
  0
ARC
  8
0
  6
CONTINUOUS
 10
291.724518
 20
92.083763
 40
31.750000
 50
7.552697
 51
172.447403
  0
ARC
  8
0
  6
CONTINUOUS
 10
274.974518
 20
50.583763
 40
20.600000
 50
172.447403
 51
270.000000
  0
ARC
  8
0
  6
CONTINUOUS
 10
308.474518
 20
50.583763
 40
20.600000
 50
-90.000000
 51
7.552700
  0
LINE
  8
0
  6
CONTINUOUS
 10
323.199219
 20
96.256920
 11
328.895813
 21
53.291389
  0
LINE
  8
0
  6
CONTINUOUS
 10
254.553131
 20
53.291351
 11
260.249939
 21
96.256859
  0
LINE
  8
0
  6
CONTINUOUS
 10
274.974518
 20
29.983761
 11
308.474518
 21
29.983761
  0
ARC
  8
0
  6
CONTINUOUS
 10
274.974518
 20
50.583763
 40
19.000000
 50
172.447601
 51
270.000000
  0
ARC
  8
0
  6
CONTINUOUS
 10
308.474518
 20
50.583763
 40
19.000000
 50
-90.000000
 51
7.552700
  0
ARC
  8
0
  6
CONTINUOUS
 10
291.724518
 20
92.083763
 40
30.150000
 50
-187.552597
 51
7.552697
  0
LINE
  8
0
  6
CONTINUOUS
 10
256.139343
 20
53.081055
 11
261.836121
 21
96.046577
  0
LINE
  8
0
  6
CONTINUOUS
 10
321.613007
 20
96.046600
 11
327.309814
 21
53.081089
  0
LINE
  8
0
  6
CONTINUOUS
 10
274.974518
 20
31.583759
 11
308.474518
 21
31.583759
  0
LINE
  8
0
  6
CONTINUOUS
 10
281.428131
 20
39.083759
 11
277.267731
 21
39.083759
  0
LINE
  8
0
  6
CONTINUOUS
 10
283.724518
 20
46.052513
 11
283.724518
 21
39.083759
  0
LINE
  8
0
  6
CONTINUOUS
 10
287.724518
 20
48.583763
 11
287.724518
 21
51.083763
  0
LINE
  8
0
  6
CONTINUOUS
 10
295.724518
 20
48.583763
 11
295.724518
 21
51.083763
  0
LINE
  8
0
  6
CONTINUOUS
 10
290.943329
 20
49.615013
 11
290.943329
 21
40.396259
  0
LINE
  8
0
  6
CONTINUOUS
 10
292.443329
 20
49.615013
 11
292.443329
 21
40.396259
  0
LINE
  8
0
  6
CONTINUOUS
 10
300.318329
 20
49.615013
 11
300.318329
 21
40.333759
  0
LINE
  8
0
  6
CONTINUOUS
 10
301.693329
 20
44.693138
 11
301.693329
 21
40.333759
  0
LINE
  8
0
  6
CONTINUOUS
 10
281.826538
 20
49.490013
 11
277.971527
 21
49.490013
  0
LINE
  8
0
  6
CONTINUOUS
 10
277.971527
 20
49.490013
 11
277.068329
 21
48.370018
  0
LINE
  8
0
  6
CONTINUOUS
 10
277.176941
 20
51.083763
 11
275.724518
 21
49.224007
  0
LINE
  8
0
  6
CONTINUOUS
 10
277.068329
 20
41.456699
 11
277.985931
 21
40.490002
  0
LINE
  8
0
  6
CONTINUOUS
 10
275.724518
 20
40.640942
 11
277.267731
 21
39.083759
  0
LINE
  8
0
  6
CONTINUOUS
 10
275.724518
 20
49.224007
 11
275.724518
 21
40.640942
  0
LINE
  8
0
  6
CONTINUOUS
 10
277.068329
 20
48.370018
 11
277.068329
 21
41.456699
  0
LINE
  8
0
  6
CONTINUOUS
 10
282.568329
 20
48.772911
 11
281.811340
 21
49.490013
  0
LINE
  8
0
  6
CONTINUOUS
 10
282.556335
 20
51.083763
 11
283.724518
 21
49.787270
  0
LINE
  8
0
  6
CONTINUOUS
 10
282.568329
 20
48.583763
 11
283.724518
 21
48.583763
  0
LINE
  8
0
  6
CONTINUOUS
 10
277.176941
 20
51.083763
 11
282.556335
 21
51.083763
  0
LINE
  8
0
  6
CONTINUOUS
 10
280.474518
 20
46.052513
 11
283.724518
 21
46.052513
  0
LINE
  8
0
  6
CONTINUOUS
 10
282.568329
 20
44.740017
 11
280.474518
 21
44.740017
  0
LINE
  8
0
  6
CONTINUOUS
 10
280.068329
 20
40.490002
 11
277.985931
 21
40.490002
  0
LINE
  8
0
  6
CONTINUOUS
 10
282.568329
 20
43.490017
 11
282.568329
 21
44.490017
  0
ARC
  8
0
  6
CONTINUOUS
 10
280.068329
 20
42.990009
 40
2.500000
 50
-89.999786
 51
0.000109
  0
LINE
  8
0
  6
CONTINUOUS
 10
282.568329
 20
40.040321
 11
282.568329
 21
39.083759
  0
LINE
  8
0
  6
CONTINUOUS
 10
283.724518
 20
49.787270
 11
283.724518
 21
48.583763
  0
LINE
  8
0
  6
CONTINUOUS
 10
282.568329
 20
44.740017
 11
282.568329
 21
42.990017
  0
LINE
  8
0
  6
CONTINUOUS
 10
280.474518
 20
46.052513
 11
280.474518
 21
44.740017
  0
LINE
  8
0
  6
CONTINUOUS
 10
282.568329
 20
39.083759
 11
283.724518
 21
39.083759
  0
LINE
  8
0
  6
CONTINUOUS
 10
282.568329
 20
40.040321
 11
281.428131
 21
39.083759
  0
LINE
  8
0
  6
CONTINUOUS
 10
292.443329
 20
40.396259
 11
292.943329
 21
40.396259
  0
LINE
  8
0
  6
CONTINUOUS
 10
290.349518
 20
40.396259
 11
290.349518
 21
39.083759
  0
LINE
  8
0
  6
CONTINUOUS
 10
292.943329
 20
40.396259
 11
292.943329
 21
39.083759
  0
LINE
  8
0
  6
CONTINUOUS
 10
294.890137
 20
48.583763
 11
295.724518
 21
48.583763
  0
LINE
  8
0
  6
CONTINUOUS
 10
287.724518
 20
48.583763
 11
288.612518
 21
48.583763
  0
LINE
  8
0
  6
CONTINUOUS
 10
287.724518
 20
51.083763
 11
295.724518
 21
51.083763
  0
LINE
  8
0
  6
CONTINUOUS
 10
290.349518
 20
39.083759
 11
292.943329
 21
39.083759
  0
LINE
  8
0
  6
CONTINUOUS
 10
290.349518
 20
40.396259
 11
290.943329
 21
40.396259
  0
ARC
  8
0
  6
CONTINUOUS
 10
304.521332
 20
47.880638
 40
3.203126
 50
-73.981873
 51
90.003510
  0
ARC
  8
0
  6
CONTINUOUS
 10
304.521332
 20
47.880638
 40
1.954124
 50
-82.585274
 51
62.411850
  0
LINE
  8
0
  6
CONTINUOUS
 10
299.724518
 20
51.083763
 11
304.521332
 21
51.083763
  0
LINE
  8
0
  6
CONTINUOUS
 10
304.773529
 20
45.942848
 11
301.693329
 21
45.942848
  0
LINE
  8
0
  6
CONTINUOUS
 10
299.724518
 20
51.083763
 11
299.724518
 21
49.615013
  0
LINE
  8
0
  6
CONTINUOUS
 10
301.693329
 20
49.615013
 11
301.693329
 21
45.942848
  0
LINE
  8
0
  6
CONTINUOUS
 10
305.405334
 20
44.801872
 11
307.387756
 21
40.333759
  0
LINE
  8
0
  6
CONTINUOUS
 10
304.253754
 20
44.693138
 11
306.129944
 21
40.333759
  0
LINE
  8
0
  6
CONTINUOUS
 10
299.724518
 20
40.333759
 11
300.318329
 21
40.333759
  0
LINE
  8
0
  6
CONTINUOUS
 10
301.693329
 20
40.333759
 11
302.240143
 21
40.333759
  0
LINE
  8
0
  6
CONTINUOUS
 10
302.240143
 20
39.083759
 11
299.724518
 21
39.083759
  0
LINE
  8
0
  6
CONTINUOUS
 10
305.880737
 20
40.333759
 11
306.129944
 21
40.333759
  0
LINE
  8
0
  6
CONTINUOUS
 10
305.880737
 20
39.083759
 11
307.724518
 21
39.083759
  0
LINE
  8
0
  6
CONTINUOUS
 10
305.880737
 20
40.333759
 11
305.880737
 21
39.083759
  0
LINE
  8
0
  6
CONTINUOUS
 10
302.240143
 20
40.333759
 11
302.240143
 21
39.083759
  0
LINE
  8
0
  6
CONTINUOUS
 10
299.724518
 20
40.333759
 11
299.724518
 21
39.083759
  0
LINE
  8
0
  6
CONTINUOUS
 10
289.042328
 20
49.615013
 11
288.612518
 21
48.583763
  0
LINE
  8
0
  6
CONTINUOUS
 10
294.527740
 20
49.615013
 11
294.890137
 21
48.583763
  0
LINE
  8
0
  6
CONTINUOUS
 10
292.443329
 20
49.615013
 11
294.527740
 21
49.615013
  0
LINE
  8
0
  6
CONTINUOUS
 10
290.943329
 20
49.615013
 11
289.042328
 21
49.615013
  0
LINE
  8
0
  6
CONTINUOUS
 10
301.693329
 20
44.693138
 11
304.253754
 21
44.693138
  0
LINE
  8
0
  6
CONTINUOUS
 10
299.724518
 20
49.615013
 11
300.318329
 21
49.615013
  0
LINE
  8
0
  6
CONTINUOUS
 10
301.693329
 20
49.615013
 11
305.426331
 21
49.612587
  0
LINE
  8
0
  6
CONTINUOUS
 10
282.568329
 20
48.772911
 11
282.568329
 21
48.583763
  0
ARC
  8
0
  6
CONTINUOUS
 10
271.724518
 20
96.444458
 40
30.000000
 50
131.810394
 51
180.000000
  0
ARC
  8
0
  6
CONTINUOUS
 10
271.724518
 20
51.723072
 40
30.000000
 50
180.000000
 51
228.189697
  0
LINE
  8
0
  6
CONTINUOUS
 10
226.974548
 20
118.833740
 11
234.724457
 21
118.833740
  0
LINE
  8
0
  6
CONTINUOUS
 10
232.538910
 20
4.333740
 11
226.974548
 21
4.333740
  0
LINE
  8
0
  6
CONTINUOUS
 10
233.521332
 20
109.083740
 11
226.974548
 21
109.083740
  0
LINE
  8
0
  6
CONTINUOUS
 10
226.974548
 20
14.083740
 11
234.724457
 21
14.083740
  0
LINE
  8
0
  6
CONTINUOUS
 10
233.521332
 20
93.543777
 11
226.974548
 21
93.543777
  0
LINE
  8
0
  6
CONTINUOUS
 10
233.521332
 20
29.623779
 11
226.974548
 21
29.623779
  0
LINE
  8
0
  6
CENTER
 10
238.077576
 20
134.083755
 11
255.374527
 21
134.083755
  0
LINE
  8
0
  6
CENTER
 10
328.162201
 20
134.083755
 11
352.743408
 21
134.083755
  0
LINE
  8
0
  6
CENTER
 10
236.931488
 20
14.083740
 11
255.543137
 21
14.083740
  0
LINE
  8
0
  6
CENTER
 10
327.599609
 20
14.083740
 11
352.405823
 21
14.083740
  0
LINE
  8
0
  6
CENTER
 10
336.724609
 20
143.243164
 11
336.724609
 21
125.102501
  0
LINE
  8
0
  6
CENTER
 10
246.724457
 20
142.990036
 11
246.724457
 21
125.524361
  0
LINE
  8
0
  6
CENTER
 10
246.724457
 20
23.261860
 11
246.724457
 21
-3.147480
  0
LINE
  8
0
  6
CENTER
 10
336.724609
 20
23.430639
 11
336.724609
 21
-2.472500
  0
CIRCLE
  8
0
  6
CONTINUOUS
 10
336.724609
 20
134.083755
 40
5.500000
  0
CIRCLE
  8
0
  6
CONTINUOUS
 10
246.724457
 20
134.083755
 40
5.500000
  0
CIRCLE
  8
0
  6
CONTINUOUS
 10
246.724457
 20
14.083740
 40
5.500000
  0
CIRCLE
  8
0
  6
CONTINUOUS
 10
336.724609
 20
14.083740
 40
5.500000
  0
ARC
  8
0
  6
CONTINUOUS
 10
336.724609
 20
134.083755
 40
12.000000
 50
0.000000
 51
90.000000
  0
ARC
  8
0
  6
CONTINUOUS
 10
246.724457
 20
134.083755
 40
12.000000
 50
90.000000
 51
180.000000
  0
ARC
  8
0
  6
CONTINUOUS
 10
246.724457
 20
14.083740
 40
12.000000
 50
180.000000
 51
270.000000
  0
ARC
  8
0
  6
CONTINUOUS
 10
336.724609
 20
14.083740
 40
12.000000
 50
-90.000000
 51
0.000000
  0
LINE
  8
0
  6
CONTINUOUS
 10
336.724609
 20
146.083755
 11
246.724457
 21
146.083755
  0
LINE
  8
0
  6
CONTINUOUS
 10
246.724533
 20
2.083740
 11
336.724609
 21
2.083740
  0
LINE
  8
0
  6
CONTINUOUS
 10
348.724609
 20
134.083755
 11
348.724609
 21
14.083740
  0
LINE
  8
0
  6
CONTINUOUS
 10
234.724457
 20
134.083725
 11
234.724457
 21
14.083720
  0
LINE
  8
0
  6
CONTINUOUS
 10
319.724609
 20
7.083740
 11
263.724518
 21
7.083740
  0
LINE
  8
0
  6
CONTINUOUS
 10
263.724518
 20
141.083755
 11
319.724609
 21
141.083755
  0
LINE
  8
0
  6
CONTINUOUS
 10
343.724609
 20
117.083740
 11
343.724609
 21
31.083759
  0
LINE
  8
0
  6
CONTINUOUS
 10
239.724457
 20
117.083740
 11
239.724457
 21
31.083759
  0
ARC
  8
0
  6
CONTINUOUS
 10
336.724609
 20
134.083755
 40
11.000000
 50
180.000000
 51
270.000000
  0
ARC
  8
0
  6
CONTINUOUS
 10
246.724457
 20
134.083755
 40
11.000000
 50
-90.000000
 51
0.000000
  0
ARC
  8
0
  6
CONTINUOUS
 10
246.724457
 20
14.083740
 40
11.000000
 50
0.000000
 51
90.000000
  0
ARC
  8
0
  6
CONTINUOUS
 10
336.724609
 20
14.083740
 40
11.000000
 50
90.000000
 51
180.000000
  0
LINE
  8
0
  6
CONTINUOUS
 10
245.724457
 20
25.083740
 11
246.724457
 21
25.083740
  0
LINE
  8
0
  6
CONTINUOUS
 10
257.724518
 20
13.083740
 11
257.724518
 21
14.083740
  0
ARC
  8
0
  6
CONTINUOUS
 10
245.724457
 20
31.083759
 40
6.000000
 50
180.000000
 51
270.000000
  0
ARC
  8
0
  6
CONTINUOUS
 10
263.724518
 20
13.083740
 40
6.000000
 50
180.000000
 51
270.000000
  0
LINE
  8
0
  6
CONTINUOUS
 10
337.724609
 20
25.083740
 11
336.724609
 21
25.083740
  0
LINE
  8
0
  6
CONTINUOUS
 10
325.724609
 20
13.083740
 11
325.724609
 21
14.083720
  0
ARC
  8
0
  6
CONTINUOUS
 10
337.724609
 20
31.083759
 40
6.000000
 50
-90.000000
 51
0.000000
  0
ARC
  8
0
  6
CONTINUOUS
 10
319.724609
 20
13.083740
 40
6.000000
 50
-90.000000
 51
0.000000
  0
LINE
  8
0
  6
CONTINUOUS
 10
337.724609
 20
123.083740
 11
336.724609
 21
123.083740
  0
LINE
  8
0
  6
CONTINUOUS
 10
325.724609
 20
135.083755
 11
325.724609
 21
134.083725
  0
ARC
  8
0
  6
CONTINUOUS
 10
319.724609
 20
135.083755
 40
6.000000
 50
0.000000
 51
90.000000
  0
ARC
  8
0
  6
CONTINUOUS
 10
337.724609
 20
117.083740
 40
6.000000
 50
0.000000
 51
90.000000
  0
LINE
  8
0
  6
CONTINUOUS
 10
245.724457
 20
123.083740
 11
246.724457
 21
123.083740
  0
LINE
  8
0
  6
CONTINUOUS
 10
257.724518
 20
135.083755
 11
257.724518
 21
134.083755
  0
ARC
  8
0
  6
CONTINUOUS
 10
263.724518
 20
135.083817
 40
6.000000
 50
90.000000
 51
180.000000
  0
ARC
  8
0
  6
CONTINUOUS
 10
245.724487
 20
117.083801
 40
6.000000
 50
90.000000
 51
180.000000
  0
LINE
  8
0
  6
CONTINUOUS
 10
233.536667
 20
5.267240
 11
234.087112
 21
13.523660
  0
ARC
  8
0
  6
CONTINUOUS
 10
234.685806
 20
13.483760
 40
0.600000
 50
90.000000
 51
176.186096
  0
ARC
  8
0
  6
CONTINUOUS
 10
232.538910
 20
5.333740
 40
1.000000
 50
270.000000
 51
356.185791
  0
ARC
  8
0
  6
CONTINUOUS
 10
311.724609
 20
51.723087
 40
30.000000
 50
-48.189449
 51
0.000000
  0
LINE
  8
0
  6
CONTINUOUS
 10
299.224518
 20
89.083763
 11
299.224518
 21
95.083740
  0
LINE
  8
0
  6
CONTINUOUS
 10
305.224518
 20
89.083717
 11
305.224518
 21
95.083717
  0
LINE
  8
0
  6
CONTINUOUS
 10
305.224518
 20
89.083717
 11
299.224518
 21
89.083763
  0
LINE
  8
0
  6
CONTINUOUS
 10
305.224518
 20
95.083717
 11
299.224518
 21
95.083740
  0
ARC
  8
0
  6
CONTINUOUS
 10
291.724518
 20
92.083763
 40
11.000000
 50
-344.173401
 51
-15.826600
  0
LINE
  8
0
  6
CONTINUOUS
 10
226.974548
 20
119.083763
 11
226.974548
 21
4.083760
  0
LINE
  8
0
  6
CENTER
 10
514.718384
 20
-15.462460
 11
514.718384
 21
155.281723
  0
LINE
  8
0
  6
CENTER
 10
442.751770
 20
61.583759
 11
580.978149
 21
61.583759
  0
LINE
  8
0
  6
CENTER
 10
411.718567
 20
92.083763
 11
572.392334
 21
92.083763
  0
LINE
  8
0
  6
CONTINUOUS
 10
456.718567
 20
81.083763
 11
456.718567
 21
2.083740
  0
LINE
  8
0
  6
CONTINUOUS
 10
468.718567
 20
122.333740
 11
468.718567
 21
144.083755
  0
LINE
  8
0
  6
CONTINUOUS
 10
466.800354
 20
146.083755
 11
456.718567
 21
146.083755
  0
LINE
  8
0
  6
CONTINUOUS
 10
466.800354
 20
2.083780
 11
456.718567
 21
2.083780
  0
LINE
  8
0
  6
CONTINUOUS
 10
546.718384
 20
12.566440
 11
546.718384
 21
135.601074
  0
LINE
  8
0
  6
CONTINUOUS
 10
545.736145
 20
136.600937
 11
470.683746
 21
137.910645
  0
LINE
  8
0
  6
CONTINUOUS
 10
545.736145
 20
11.566620
 11
470.683746
 21
10.256300
  0
LINE
  8
0
  6
CONTINUOUS
 10
473.275146
 20
114.083740
 11
545.651184
 21
114.083740
  0
LINE
  8
0
  6
CONTINUOUS
 10
470.627563
 20
34.083759
 11
545.328186
 21
34.083759
  0
LINE
  8
0
  6
CONTINUOUS
 10
469.215149
 20
3.936740
 11
470.324371
 21
8.076580
  0
LINE
  8
0
  6
CONTINUOUS
 10
469.215149
 20
144.230835
 11
470.324554
 21
140.090317
  0
ARC
  8
0
  6
CONTINUOUS
 10
473.222351
 20
140.866837
 40
3.000000
 50
195.000702
 51
269.000488
  0
ARC
  8
0
  6
CONTINUOUS
 10
466.718567
 20
144.083755
 40
2.000000
 50
0.000000
 51
90.000000
  0
ARC
  8
0
  6
CONTINUOUS
 10
470.718567
 20
139.910355
 40
2.000000
 50
180.000000
 51
269.000610
  0
ARC
  8
0
  6
CONTINUOUS
 10
473.222168
 20
7.300140
 40
3.000000
 50
91.000526
 51
165.000305
  0
ARC
  8
0
  6
CONTINUOUS
 10
470.718567
 20
8.256620
 40
2.000000
 50
91.000633
 51
180.000000
  0
ARC
  8
0
  6
CONTINUOUS
 10
466.718567
 20
4.083780
 40
2.000000
 50
-90.000000
 51
0.000000
  0
ARC
  8
0
  6
CONTINUOUS
 10
545.718384
 20
135.601074
 40
1.000000
 50
0.000000
 51
89.000359
  0
ARC
  8
0
  6
CONTINUOUS
 10
545.718384
 20
12.566440
 40
1.000000
 50
-88.999573
 51
0.000000
  0
LINE
  8
0
  6
CENTER
 10
451.224762
 20
134.083755
 11
473.861359
 21
134.083755
  0
LINE
  8
0
  6
CENTER
 10
451.224762
 20
14.083740
 11
473.861359
 21
14.083740
  0
LINE
  8
0
  6
DASHED
 10
456.718567
 20
139.583755
 11
468.718567
 21
139.583755
  0
LINE
  8
0
  6
DASHED
 10
456.718567
 20
128.583755
 11
468.718567
 21
128.583755
  0
LINE
  8
0
  6
DASHED
 10
456.718567
 20
19.583740
 11
468.718567
 21
19.583740
  0
LINE
  8
0
  6
DASHED
 10
456.718567
 20
8.583740
 11
468.718567
 21
8.583740
  0
LINE
  8
0
  6
CONTINUOUS
 10
562.718384
 20
66.890915
 11
562.718384
 21
117.276604
  0
LINE
  8
0
  6
CONTINUOUS
 10
552.718384
 20
33.888599
 11
552.718384
 21
94.153740
  0
LINE
  8
0
  6
CONTINUOUS
 10
560.488770
 20
120.176041
 11
548.948547
 21
123.241440
  0
LINE
  8
0
  6
CONTINUOUS
 10
560.488770
 20
63.991463
 11
554.948181
 21
62.519802
  0
LINE
  8
0
  6
CONTINUOUS
 10
550.491577
 20
30.989920
 11
548.945557
 21
30.577620
  0
ARC
  8
0
  6
CONTINUOUS
 10
559.718384
 20
117.276604
 40
3.000000
 50
0.000000
 51
75.124413
  0
ARC
  8
0
  6
CONTINUOUS
 10
559.718384
 20
66.890915
 40
3.000000
 50
-75.124207
 51
0.000000
  0
ARC
  8
0
  6
CONTINUOUS
 10
549.718384
 20
33.888599
 40
3.000000
 50
-75.068420
 51
0.000000
  0
ARC
  8
0
  6
CONTINUOUS
 10
549.718384
 20
126.140923
 40
3.000000
 50
180.000000
 51
255.124603
  0
ARC
  8
0
  6
CONTINUOUS
 10
555.718384
 20
59.620365
 40
3.000000
 50
104.876099
 51
180.000000
  0
ARC
  8
0
  6
CONTINUOUS
 10
549.718384
 20
27.678921
 40
3.000000
 50
104.931801
 51
180.000000
  0
LINE
  8
0
  6
CONTINUOUS
 10
562.218384
 20
19.083740
 11
562.218384
 21
28.135099
  0
LINE
  8
0
  6
CONTINUOUS
 10
557.218384
 20
14.083740
 11
548.167358
 21
14.083740
  0
ARC
  8
0
  6
CONTINUOUS
 10
514.718384
 20
61.583759
 40
57.250000
 50
-32.501888
 51
33.025517
  0
ARC
  8
0
  6
CONTINUOUS
 10
514.718384
 20
61.583759
 40
57.250000
 50
243.004898
 51
298.995514
  0
ARC
  8
0
  6
CONTINUOUS
 10
557.218384
 20
19.083740
 40
5.000000
 50
-90.000000
 51
0.000000
  0
ARC
  8
0
  6
CONTINUOUS
 10
567.218384
 20
28.135099
 40
5.000000
 50
147.498093
 51
180.000000
  0
ARC
  8
0
  6
CONTINUOUS
 10
548.167358
 20
9.083740
 40
5.000000
 50
90.000000
 51
106.842003
  0
LINE
  8
0
  6
CONTINUOUS
 10
466.718567
 20
66.890907
 11
466.718567
 21
117.276604
  0
LINE
  8
0
  6
CONTINUOUS
 10
468.948547
 20
63.991451
 11
471.749756
 21
63.247368
  0
LINE
  8
0
  6
CONTINUOUS
 10
468.948547
 20
120.176041
 11
470.772156
 21
120.660477
  0
ARC
  8
0
  6
CONTINUOUS
 10
469.718750
 20
117.276604
 40
3.000000
 50
104.876099
 51
180.000000
  0
ARC
  8
0
  6
CONTINUOUS
 10
469.718567
 20
66.890930
 40
3.000000
 50
180.000000
 51
255.124603
  0
LINE
  8
0
  6
CONTINUOUS
 10
474.218567
 20
111.833740
 11
475.718567
 21
105.583740
  0
LINE
  8
0
  6
CONTINUOUS
 10
475.718567
 20
105.583740
 11
474.718567
 21
100.083740
  0
LINE
  8
0
  6
CONTINUOUS
 10
474.718567
 20
100.083740
 11
476.968567
 21
94.333740
  0
LINE
  8
0
  6
CONTINUOUS
 10
476.968567
 20
94.333740
 11
475.218567
 21
88.583763
  0
LINE
  8
0
  6
CONTINUOUS
 10
475.218567
 20
88.583763
 11
473.218567
 21
83.583763
  0
LINE
  8
0
  6
CONTINUOUS
 10
473.218567
 20
83.583763
 11
473.718567
 21
74.833763
  0
LINE
  8
0
  6
CONTINUOUS
 10
473.718567
 20
74.833763
 11
472.468567
 21
70.333763
  0
LINE
  8
0
  6
CONTINUOUS
 10
472.468567
 20
70.333763
 11
472.468567
 21
65.583763
  0
LINE
  8
0
  6
CONTINUOUS
 10
472.468567
 20
65.583763
 11
470.468567
 21
59.083759
  0
LINE
  8
0
  6
CONTINUOUS
 10
470.468567
 20
59.083759
 11
470.718567
 21
55.083759
  0
LINE
  8
0
  6
CONTINUOUS
 10
470.718567
 20
55.083759
 11
469.718567
 21
50.708759
  0
LINE
  8
0
  6
CONTINUOUS
 10
469.718567
 20
50.708759
 11
466.218567
 21
48.083759
  0
LINE
  8
0
  6
CONTINUOUS
 10
466.218567
 20
48.083759
 11
463.593567
 21
44.833763
  0
LINE
  8
0
  6
CONTINUOUS
 10
463.593567
 20
44.833763
 11
460.718567
 21
43.083763
  0
LINE
  8
0
  6
CONTINUOUS
 10
460.718567
 20
43.083763
 11
458.343567
 21
40.958759
  0
LINE
  8
0
  6
CONTINUOUS
 10
458.343567
 20
40.958759
 11
456.718567
 21
40.587341
  0
LINE
  8
0
  6
CONTINUOUS
 10
466.593567
 20
123.958740
 11
463.093567
 21
124.833740
  0
LINE
  8
0
  6
CONTINUOUS
 10
463.093567
 20
124.833740
 11
459.718567
 21
125.458740
  0
LINE
  8
0
  6
CONTINUOUS
 10
459.718567
 20
125.458740
 11
456.718567
 21
126.458763
  0
LINE
  8
0
  6
CONTINUOUS
 10
456.718567
 20
146.083755
 11
456.718567
 21
103.083740
  0
LINE
  8
0
  6
CONTINUOUS
 10
468.718567
 20
4.083780
 11
468.718567
 21
49.958759
  0
LINE
  8
0
  6
CONTINUOUS
 10
466.593567
 20
123.958740
 11
468.718567
 21
122.333740
  0
LINE
  8
0
  6
CONTINUOUS
 10
468.718567
 20
122.333740
 11
472.093567
 21
119.583740
  0
LINE
  8
0
  6
CONTINUOUS
 10
472.093567
 20
119.583740
 11
472.593567
 21
115.708740
  0
LINE
  8
0
  6
CONTINUOUS
 10
472.593567
 20
115.708740
 11
474.218567
 21
111.833740
  0
LINE
  8
0
  6
CONTINUOUS
 10
463.718567
 20
81.083763
 11
463.718567
 21
44.988522
  0
LINE
  8
0
  6
CONTINUOUS
 10
463.718567
 20
124.677521
 11
463.718567
 21
103.083740
  0
LINE
  8
0
  6
CONTINUOUS
 10
424.718750
 20
81.083763
 11
424.718750
 21
103.083740
  0
LINE
  8
0
  6
CONTINUOUS
 10
464.718750
 20
103.083740
 11
424.718750
 21
103.083740
  0
LINE
  8
0
  6
CONTINUOUS
 10
464.718750
 20
81.083763
 11
424.718750
 21
81.083763
  0
LINE
  8
0
  6
CONTINUOUS
 10
464.718750
 20
104.583740
 11
464.718750
 21
79.583763
  0
LINE
  8
0
  6
CONTINUOUS
 10
466.718750
 20
104.583740
 11
464.718750
 21
104.583740
  0
LINE
  8
0
  6
CONTINUOUS
 10
466.718750
 20
79.583763
 11
464.718750
 21
79.583763
  0
ARC
  8
0
  6
CONTINUOUS
 10
456.718750
 20
92.083763
 40
3.000000
 50
-90.000000
 51
90.000000
  0
LINE
  8
0
  6
CONTINUOUS
 10
456.718750
 20
95.083740
 11
424.718750
 21
95.083740
  0
LINE
  8
0
  6
CONTINUOUS
 10
456.718750
 20
89.083763
 11
424.718750
 21
89.083763
  0
ARC
  8
0
  6
CONTINUOUS
 10
466.800354
 20
143.583755
 40
2.500000
 50
15.000760
 51
90.000000
  0
ARC
  8
0
  6
CONTINUOUS
 10
466.800354
 20
4.583780
 40
2.500000
 50
270.000000
 51
345.000214
  0
ARC
  8
0
  6
CONTINUOUS
 10
514.718384
 20
61.583759
 40
57.499821
 50
303.815704
 51
303.996307
  0
ARC
  8
0
  6
CONTINUOUS
 10
514.718384
 20
61.583759
 40
57.500000
 50
242.540298
 51
299.460602
  0
ARC
  8
0
  6
CONTINUOUS
 10
514.718384
 20
61.583759
 40
57.500000
 50
-33.996769
 51
33.406792
  0
ARC
  8
0
  6
CONTINUOUS
 10
514.718384
 20
61.583759
 40
57.500000
 50
303.815613
 51
303.997314
  0
LINE
  8
0
  6
CONTINUOUS
 10
238.186234
 20
333.798035
 11
237.983521
 21
326.058746
  0
ARC
  8
0
  6
CONTINUOUS
 10
239.685715
 20
333.758759
 40
1.500000
 50
90.000000
 51
178.499649
  0
ARC
  8
0
  6
CONTINUOUS
 10
235.724533
 20
256.258759
 40
1.000000
 50
90.000000
 51
180.000000
  0
ARC
  8
0
  6
CONTINUOUS
 10
235.205566
 20
258.190247
 40
1.000000
 50
285.039185
 51
358.499664
  0
LINE
  8
0
  6
CENTER
 10
291.724518
 20
362.234070
 11
291.724518
 21
203.034805
  0
LINE
  8
0
  6
CONTINUOUS
 10
266.531677
 20
351.258759
 11
316.917389
 21
351.258759
  0
LINE
  8
0
  6
CONTINUOUS
 10
321.880768
 20
341.258759
 11
325.167633
 21
341.258759
  0
ARC
  8
0
  6
CONTINUOUS
 10
316.917389
 20
348.258759
 40
3.000000
 50
-345.124329
 51
-270.000000
  0
LINE
  8
0
  6
CONTINUOUS
 10
328.067078
 20
339.028931
 11
328.476227
 21
337.488586
  0
ARC
  8
0
  6
CONTINUOUS
 10
325.167633
 20
338.258759
 40
3.000000
 50
-345.124329
 51
-270.000000
  0
ARC
  8
0
  6
CONTINUOUS
 10
331.375702
 20
338.258759
 40
3.000000
 50
-165.124313
 51
-90.000000
  0
LINE
  8
0
  6
CONTINUOUS
 10
321.880768
 20
341.258759
 11
319.816833
 21
349.028931
  0
LINE
  8
0
  6
CONTINUOUS
 10
255.381989
 20
339.028931
 11
254.972824
 21
337.488586
  0
ARC
  8
0
  6
CONTINUOUS
 10
258.281433
 20
338.258759
 40
3.000000
 50
90.000000
 51
165.124313
  0
ARC
  8
0
  6
CONTINUOUS
 10
252.073380
 20
338.258759
 40
3.000000
 50
-90.000000
 51
-14.875682
  0
LINE
  8
0
  6
CONTINUOUS
 10
261.568268
 20
341.258759
 11
258.281433
 21
341.258759
  0
ARC
  8
0
  6
CONTINUOUS
 10
266.531677
 20
348.258759
 40
3.000000
 50
90.000000
 51
165.124313
  0
LINE
  8
0
  6
CONTINUOUS
 10
261.568268
 20
341.258759
 11
263.632233
 21
349.028931
  0
LINE
  8
0
  6
CONTINUOUS
 10
280.724518
 20
213.258759
 11
305.224518
 21
213.258759
  0
LINE
  8
0
  6
CONTINUOUS
 10
280.724518
 20
245.258759
 11
280.724518
 21
213.258759
  0
LINE
  8
0
  6
CONTINUOUS
 10
305.224518
 20
245.258759
 11
305.224518
 21
213.258759
  0
LINE
  8
0
  6
CONTINUOUS
 10
302.307526
 20
213.258759
 11
302.307526
 21
245.258759
  0
ARC
  8
0
  6
CONTINUOUS
 10
176.540115
 20
304.852448
 40
65.000000
 50
-22.042076
 51
19.041388
  0
LINE
  8
0
  6
CONTINUOUS
 10
236.789169
 20
280.458771
 11
236.205231
 21
258.164062
  0
LINE
  8
0
  6
CONTINUOUS
 10
60.974529
 20
88.583740
 11
174.974533
 21
88.583740
  0
LINE
  8
0
  6
CONTINUOUS
 10
60.974529
 20
12.583780
 11
174.974533
 21
12.583780
  0
LINE
  8
0
  6
CONTINUOUS
 10
60.974529
 20
80.832741
 11
166.974533
 21
80.832741
  0
LINE
  8
0
  6
CONTINUOUS
 10
60.974529
 20
20.334780
 11
166.974533
 21
20.334780
  0
LINE
  8
0
  6
CONTINUOUS
 10
166.974533
 20
86.583740
 11
166.974533
 21
14.583760
  0
ARC
  8
0
  6
CONTINUOUS
 10
168.974533
 20
86.583763
 40
2.000000
 50
90.000000
 51
180.000000
  0
ARC
  8
0
  6
CONTINUOUS
 10
168.974533
 20
14.583780
 40
2.000000
 50
180.000000
 51
270.000000
  0
LINE
  8
0
  6
CONTINUOUS
 10
216.561783
 20
90.036018
 11
174.974533
 21
88.583763
  0
LINE
  8
0
  6
CONTINUOUS
 10
226.974533
 20
10.767880
 11
174.974533
 21
12.583760
  0
LINE
  8
0
  6
CONTINUOUS
 10
218.974533
 20
118.083763
 11
218.974533
 21
91.083763
  0
LINE
  8
0
  6
CONTINUOUS
 10
219.974533
 20
119.083763
 11
226.974548
 21
119.083763
  0
LINE
  8
0
  6
CONTINUOUS
 10
221.474533
 20
4.083760
 11
226.974533
 21
4.083760
  0
LINE
  8
0
  6
CONTINUOUS
 10
218.974533
 20
91.583763
 11
218.974533
 21
20.671104
  0
LINE
  8
0
  6
CONTINUOUS
 10
174.974533
 20
88.583763
 11
174.974533
 21
12.583760
  0
LINE
  8
0
  6
CONTINUOUS
 10
217.561401
 20
101.901566
 11
191.617981
 21
89.377151
  0
ARC
  8
0
  6
CONTINUOUS
 10
219.974533
 20
118.083763
 40
1.000000
 50
90.000000
 51
180.000000
  0
ARC
  8
0
  6
CONTINUOUS
 10
216.474533
 20
104.152939
 40
2.500000
 50
-64.230675
 51
0.000000
  0
ARC
  8
0
  6
CONTINUOUS
 10
216.474533
 20
92.534492
 40
2.500000
 50
-88.000000
 51
0.000000
  0
ARC
  8
0
  6
CONTINUOUS
 10
190.531097
 20
91.628532
 40
2.500000
 50
272.000000
 51
295.769318
  0
LINE
  8
0
  6
CONTINUOUS
 10
220.099609
 20
18.429760
 11
226.974533
 21
18.429760
  0
LINE
  8
0
  6
CONTINUOUS
 10
218.974533
 20
6.583760
 11
218.974533
 21
8.633024
  0
ARC
  8
0
  6
CONTINUOUS
 10
221.474533
 20
6.583760
 40
2.500000
 50
180.000000
 51
270.000000
  0
ARC
  8
0
  6
CONTINUOUS
 10
216.474533
 20
8.633024
 40
2.500000
 50
0.000000
 51
88.000000
  0
LINE
  8
0
  6
CENTER
 10
-8.025000
 20
50.583759
 11
259.724518
 21
50.583759
  0
LINE
  8
0
  6
CONTINUOUS
 10
221.474533
 20
245.758759
 11
226.974533
 21
245.758759
  0
LINE
  8
0
  6
CONTINUOUS
 10
221.474533
 20
360.758759
 11
226.974533
 21
360.758759
  0
LINE
  8
0
  6
CONTINUOUS
 10
218.974533
 20
248.258759
 11
218.974533
 21
358.258759
  0
LINE
  8
0
  6
CONTINUOUS
 10
174.974533
 20
341.258759
 11
174.974533
 21
265.258759
  0
LINE
  8
0
  6
CONTINUOUS
 10
216.561783
 20
342.711029
 11
174.974533
 21
341.258759
  0
LINE
  8
0
  6
CONTINUOUS
 10
216.561783
 20
263.806488
 11
174.974533
 21
265.258759
  0
ARC
  8
0
  6
CONTINUOUS
 10
221.474533
 20
358.258759
 40
2.500000
 50
90.000000
 51
180.000000
  0
ARC
  8
0
  6
CONTINUOUS
 10
221.474533
 20
248.258759
 40
2.500000
 50
180.000000
 51
270.000000
  0
LINE
  8
0
  6
CONTINUOUS
 10
174.974533
 20
341.258759
 11
174.974533
 21
265.258759
  0
LINE
  8
0
  6
CONTINUOUS
 10
60.974651
 20
341.258728
 11
174.974655
 21
341.258728
  0
LINE
  8
0
  6
CONTINUOUS
 10
60.974651
 20
265.258789
 11
174.974655
 21
265.258789
  0
LINE
  8
0
  6
CONTINUOUS
 10
166.974655
 20
339.258728
 11
166.974655
 21
326.258759
  0
ARC
  8
0
  6
CONTINUOUS
 10
168.974655
 20
339.258759
 40
2.000000
 50
90.000000
 51
180.000000
  0
ARC
  8
0
  6
CONTINUOUS
 10
168.974655
 20
267.258789
 40
2.000000
 50
180.000000
 51
270.000000
  0
LINE
  8
0
  6
CONTINUOUS
 10
101.974640
 20
326.258759
 11
166.974655
 21
326.258759
  0
LINE
  8
0
  6
CONTINUOUS
 10
101.974648
 20
280.258759
 11
166.974655
 21
280.258759
  0
LINE
  8
0
  6
CONTINUOUS
 10
166.974655
 20
280.258759
 11
166.974655
 21
267.258759
  0
ARC
  8
0
  6
CONTINUOUS
 10
206.144165
 20
303.258759
 40
15.000000
 50
130.747620
 51
229.252380
  0
LINE
  8
0
  6
CONTINUOUS
 10
218.106354
 20
333.364746
 11
196.353241
 21
314.622650
  0
LINE
  8
0
  6
CONTINUOUS
 10
218.106354
 20
273.152771
 11
196.353241
 21
291.894867
  0
ARC
  8
0
  6
CONTINUOUS
 10
216.474533
 20
335.258728
 40
2.500000
 50
-49.252373
 51
0.000000
  0
ARC
  8
0
  6
CONTINUOUS
 10
216.474533
 20
345.209503
 40
2.500000
 50
-88.000000
 51
0.000000
  0
ARC
  8
0
  6
CONTINUOUS
 10
216.474533
 20
271.258789
 40
2.500000
 50
0.000000
 51
49.252373
  0
ARC
  8
0
  6
CONTINUOUS
 10
216.474533
 20
261.308014
 40
2.500000
 50
0.000000
 51
88.000000
  0
LINE
  8
0
  6
CONTINUOUS
 10
60.974651
 20
341.258728
 11
60.974651
 21
328.258728
  0
LINE
  8
0
  6
CONTINUOUS
 10
60.974651
 20
341.258728
 11
51.474651
 21
341.258728
  0
LINE
  8
0
  6
CONTINUOUS
 10
60.974651
 20
265.258728
 11
51.474651
 21
265.258728
  0
LINE
  8
0
  6
CONTINUOUS
 10
51.974651
 20
280.258728
 11
51.474651
 21
280.258728
  0
LINE
  8
0
  6
CONTINUOUS
 10
51.974651
 20
326.258728
 11
51.474651
 21
326.258728
  0
LINE
  8
0
  6
CONTINUOUS
 10
60.974651
 20
278.258728
 11
60.974651
 21
265.258728
  0
LINE
  8
0
  6
CONTINUOUS
 10
51.474651
 20
263.258728
 11
51.474651
 21
295.758728
  0
LINE
  8
0
  6
CONTINUOUS
 10
7.474653
 20
343.258728
 11
51.474651
 21
343.258728
  0
LINE
  8
0
  6
CONTINUOUS
 10
7.474653
 20
263.258728
 11
51.474651
 21
263.258728
  0
LINE
  8
0
  6
CONTINUOUS
 10
2.474653
 20
268.258728
 11
2.474653
 21
338.258728
  0
ARC
  8
0
  6
CONTINUOUS
 10
7.474653
 20
338.258728
 40
5.000000
 50
90.000000
 51
180.000000
  0
ARC
  8
0
  6
CONTINUOUS
 10
7.474653
 20
268.258728
 40
5.000000
 50
180.000000
 51
270.000000
  0
LINE
  8
0
  6
CONTINUOUS
 10
4.974653
 20
327.258728
 11
51.474651
 21
327.258728
  0
LINE
  8
0
  6
CONTINUOUS
 10
4.974653
 20
277.258728
 11
51.474651
 21
277.258728
  0
LINE
  8
0
  6
CONTINUOUS
 10
51.474529
 20
88.583740
 11
60.974529
 21
88.583740
  0
LINE
  8
0
  6
CONTINUOUS
 10
51.474529
 20
12.583740
 11
60.974529
 21
12.583740
  0
LINE
  8
0
  6
CONTINUOUS
 10
51.474529
 20
10.583740
 11
51.474529
 21
90.583740
  0
LINE
  8
0
  6
CONTINUOUS
 10
51.474529
 20
80.832741
 11
60.974529
 21
80.832741
  0
LINE
  8
0
  6
CONTINUOUS
 10
51.474529
 20
20.334740
 11
60.974529
 21
20.334740
  0
LINE
  8
0
  6
CONTINUOUS
 10
7.474531
 20
90.583740
 11
51.474529
 21
90.583740
  0
LINE
  8
0
  6
CONTINUOUS
 10
7.474531
 20
10.583740
 11
51.474529
 21
10.583740
  0
LINE
  8
0
  6
CONTINUOUS
 10
2.474531
 20
15.583740
 11
2.474531
 21
85.583740
  0
ARC
  8
0
  6
CONTINUOUS
 10
7.474531
 20
85.583740
 40
5.000000
 50
90.000000
 51
180.000000
  0
ARC
  8
0
  6
CONTINUOUS
 10
7.474531
 20
15.583740
 40
5.000000
 50
180.000000
 51
270.000000
  0
LINE
  8
0
  6
CONTINUOUS
 10
4.974531
 20
76.583740
 11
51.474529
 21
76.583740
  0
LINE
  8
0
  6
CONTINUOUS
 10
4.974531
 20
26.583740
 11
51.474529
 21
26.583740
  0
LINE
  8
0
  6
CONTINUOUS
 10
60.974529
 20
12.583760
 11
60.974529
 21
88.583740
  0
LINE
  8
0
  6
CONTINUOUS
 10
50.974651
 20
310.758728
 11
51.974651
 21
310.758728
  0
ARC
  8
0
  6
CONTINUOUS
 10
50.974674
 20
309.758728
 40
1.000000
 50
90.000000
 51
180.000000
  0
LINE
  8
0
  6
CONTINUOUS
 10
46.474667
 20
307.258728
 11
46.474667
 21
299.258728
  0
LINE
  8
0
  6
CONTINUOUS
 10
46.474667
 20
307.258728
 11
49.974667
 21
308.758728
  0
LINE
  8
0
  6
CONTINUOUS
 10
46.474651
 20
299.258728
 11
49.974651
 21
297.758728
  0
LINE
  8
0
  6
CONTINUOUS
 10
49.974667
 20
309.758728
 11
49.974667
 21
296.758728
  0
LINE
  8
0
  6
CONTINUOUS
 10
50.974651
 20
295.758728
 11
51.974651
 21
295.758728
  0
ARC
  8
0
  6
CONTINUOUS
 10
50.974674
 20
296.758728
 40
1.000000
 50
-180.000000
 51
-90.000000
  0
LINE
  8
0
  6
CONTINUOUS
 10
51.974651
 20
280.258728
 11
51.974651
 21
326.258728
  0
LINE
  8
0
  6
CONTINUOUS
 10
53.974651
 20
328.258728
 11
51.974651
 21
326.258728
  0
LINE
  8
0
  6
CONTINUOUS
 10
53.974651
 20
328.258728
 11
99.974640
 21
328.258728
  0
LINE
  8
0
  6
CONTINUOUS
 10
94.474655
 20
323.758728
 11
94.474655
 21
328.258728
  0
ARC
  8
0
  6
CONTINUOUS
 10
97.474655
 20
323.758728
 40
3.000000
 50
180.000000
 51
270.000000
  0
LINE
  8
0
  6
CONTINUOUS
 10
97.474655
 20
320.758728
 11
101.974640
 21
320.758728
  0
CIRCLE
  8
0
  6
CONTINUOUS
 10
98.474655
 20
324.758728
 40
2.250000
  0
LINE
  8
0
  6
CONTINUOUS
 10
101.974648
 20
280.258728
 11
101.974640
 21
326.258728
  0
LINE
  8
0
  6
CONTINUOUS
 10
99.974640
 20
328.258728
 11
101.974640
 21
326.258728
  0
LINE
  8
0
  6
CONTINUOUS
 10
99.974648
 20
278.258728
 11
101.974648
 21
280.258728
  0
LINE
  8
0
  6
CONTINUOUS
 10
99.974648
 20
278.258728
 11
53.974651
 21
278.258728
  0
LINE
  8
0
  6
CONTINUOUS
 10
51.974651
 20
280.258728
 11
53.974651
 21
278.258728
  0
LINE
  8
0
  6
CONTINUOUS
 10
56.474651
 20
285.758728
 11
51.974663
 21
285.758728
  0
CIRCLE
  8
0
  6
CONTINUOUS
 10
55.474651
 20
281.758728
 40
2.250000
  0
ARC
  8
0
  6
CONTINUOUS
 10
56.474651
 20
282.758728
 40
3.000000
 50
0.000000
 51
90.000000
  0
LINE
  8
0
  6
CONTINUOUS
 10
59.474651
 20
282.758728
 11
59.474651
 21
278.258728
  0
LINE
  8
0
  6
CENTER
 10
76.974655
 20
270.792969
 11
76.974655
 21
334.924988
  0
LINE
  8
0
  6
CONTINUOUS
 10
54.388870
 20
327.258728
 11
52.974659
 21
325.844513
  0
LINE
  8
0
  6
CONTINUOUS
 10
52.974659
 20
285.758728
 11
52.974659
 21
325.844513
  0
LINE
  8
0
  6
CONTINUOUS
 10
94.474655
 20
327.258728
 11
54.388870
 21
327.258728
  0
LINE
  8
0
  6
CONTINUOUS
 10
100.974648
 20
320.758728
 11
100.974648
 21
280.672943
  0
LINE
  8
0
  6
CONTINUOUS
 10
59.474651
 20
279.258728
 11
99.560432
 21
279.258728
  0
LINE
  8
0
  6
CONTINUOUS
 10
99.560432
 20
279.258728
 11
100.974648
 21
280.672943
  0
LINE
  8
0
  6
CONTINUOUS
 10
51.474651
 20
310.758728
 11
51.474651
 21
343.258728
  0
LINE
  8
0
  6
CONTINUOUS
 10
53.474529
 20
90.083763
 11
99.974533
 21
90.083763
  0
LINE
  8
0
  6
CONTINUOUS
 10
101.974518
 20
120.083763
 11
101.974533
 21
92.083763
  0
LINE
  8
0
  6
CONTINUOUS
 10
51.974529
 20
120.083763
 11
51.974529
 21
92.083763
  0
LINE
  8
0
  6
CONTINUOUS
 10
49.974529
 20
102.083763
 11
101.974533
 21
102.083763
  0
LINE
  8
0
  6
CONTINUOUS
 10
99.974533
 20
90.083763
 11
101.974533
 21
92.083763
  0
LINE
  8
0
  6
CONTINUOUS
 10
51.974529
 20
92.083763
 11
53.974529
 21
90.083763
  0
LINE
  8
0
  6
CONTINUOUS
 10
51.974529
 20
92.083763
 11
101.974533
 21
92.083763
  0
LINE
  8
0
  6
CONTINUOUS
 10
52.974529
 20
121.083763
 11
100.974518
 21
121.083763
  0
LINE
  8
0
  6
CONTINUOUS
 10
100.974518
 20
121.083763
 11
101.974518
 21
120.083763
  0
LINE
  8
0
  6
CONTINUOUS
 10
52.974529
 20
121.083763
 11
51.974529
 21
120.083763
  0
LINE
  8
0
  6
CONTINUOUS
 10
51.974529
 20
120.083763
 11
101.974518
 21
120.083763
  0
LINE
  8
0
  6
CENTER
 10
44.030773
 20
111.583763
 11
56.105782
 21
111.583763
  0
LINE
  8
0
  6
CONTINUOUS
 10
49.974545
 20
118.083763
 11
49.974529
 21
102.083763
  0
LINE
  8
0
  6
CONTINUOUS
 10
50.974529
 20
119.083763
 11
51.974529
 21
119.083763
  0
ARC
  8
0
  6
CONTINUOUS
 10
50.974552
 20
118.083763
 40
1.000000
 50
90.000000
 51
180.000000
  0
LINE
  8
0
  6
CONTINUOUS
 10
46.474545
 20
115.583763
 11
46.474545
 21
107.583763
  0
LINE
  8
0
  6
CONTINUOUS
 10
46.474545
 20
115.583763
 11
49.974545
 21
117.083763
  0
LINE
  8
0
  6
CONTINUOUS
 10
46.474529
 20
107.583763
 11
49.974529
 21
106.083763
  0
LINE
  8
0
  6
CENTER
 10
76.974533
 20
85.390007
 11
76.974533
 21
126.471260
  0
LINE
  8
0
  6
CONTINUOUS
 10
53.474529
 20
90.083763
 11
53.474529
 21
88.583763
  0
LINE
  8
0
  6
CONTINUOUS
 10
99.474533
 20
90.083763
 11
99.474533
 21
88.583763
  0
LINE
  8
0
  6
CENTER
 10
336.724609
 20
260.452515
 11
336.724609
 21
241.618118
  0
LINE
  8
0
  6
DASHED
 10
331.224609
 20
257.258759
 11
331.224609
 21
245.258759
  0
LINE
  8
0
  6
DASHED
 10
342.224609
 20
257.258759
 11
342.224609
 21
245.258759
  0
LINE
  8
0
  6
DASHED
 10
252.224457
 20
257.258759
 11
252.224457
 21
245.258759
  0
LINE
  8
0
  6
CENTER
 10
246.724457
 20
260.452515
 11
246.724457
 21
241.618118
  0
LINE
  8
0
  6
DASHED
 10
241.224457
 20
257.258759
 11
241.224457
 21
245.258759
  0
LINE
  8
0
  6
CONTINUOUS
 10
174.974533
 20
41.183762
 11
218.974533
 21
41.183762
  0
LINE
  8
0
  6
CONTINUOUS
 10
174.974533
 20
30.983761
 11
218.974533
 21
30.983761
  0
TEXT
  8
0
 10
-8.000000
 20
-15.000000
 40
4.000000
 41
1.000000
  1
HFM-22R-300~450-S60T
 50
0.000000
  0
ENDSEC
  0
EOF
