  0
SECTION
  2
HEADER
  9
$CLAYER
  8
1
  9
$LTSCALE
 40
3.0
  0
ENDSEC
  0
SECTION
  2
TABLES
  0
TABLE
  2
LTYPE
 70
     4
  0
LTYPE
  2
CONTINUOUS
  3
solid line
 70
    64
 72
    65
 73
     0
 40
0.0
  0
LTYPE
  2
DASHED
  3
__ __ __ __ __ __ __ __ __ __ __ __ __ __ __
 70
    64
 72
    65
 73
     2
 40
0.75
 49
0.5
 49
-0.25
  0
LTYPE
  2
CENTER
  3
____ _ ____ _ ____ _ ____ _ ____ _ ____ _ ____
 70
    64
 72
    65
 73
     4
 40
2.0
 49
1.25
 49
-0.25
 49
0.25
 49
-0.25
  0
LTYPE
  2
PHANTOM
  3
_____ _ _ _____ _ _ _____ _ _ _____ _ _ ____
 70
    64
 72
    65
 73
     6
 40
2.5
 49
1.25
 49
-0.25
 49
0.25
 49
-0.25
 49
0.25
 49
-0.25
  0
ENDTAB
  0
TABLE
  2
LAYER
 70
     1
  0
LAYER
  2
0
 70
    64
 62
     7
  6
CONTINUOUS
  0
ENDTAB
  0
TABLE
  2
STYLE
 70
     1
  0
STYLE
  2
STANDARD
 70
     0
 40
0.000000
 41
1.000000
 50
0.000000
 71
     0
 42
3.000000
  3
txt
  4
BIGFONT
  0
ENDTAB
  0
ENDSEC
  0
SECTION
  2
BLOCKS
  0
ENDSEC
  0
SECTION
  2
ENTITIES
  0
LINE
  8
0
  6
CENTER
 10
314.475128
 20
296.323761
 11
-14.179343
 21
296.323761
  0
LINE
  8
0
  6
CONTINUOUS
 10
190.489532
 20
239.073761
 11
187.989532
 21
239.073761
  0
LINE
  8
0
  6
CONTINUOUS
 10
192.506927
 20
353.573761
 11
187.989532
 21
353.573761
  0
LINE
  8
0
  6
CONTINUOUS
 10
195.239532
 20
239.073761
 11
187.989532
 21
239.073761
  0
LINE
  8
0
  6
CONTINUOUS
 10
196.693756
 20
264.323761
 11
187.989532
 21
264.323761
  0
LINE
  8
0
  6
CONTINUOUS
 10
195.256134
 20
248.823761
 11
187.989532
 21
248.823761
  0
LINE
  8
0
  6
CONTINUOUS
 10
193.349930
 20
343.823761
 11
187.989532
 21
343.823761
  0
LINE
  8
0
  6
CONTINUOUS
 10
187.989532
 20
328.323761
 11
304.778320
 21
328.323761
  0
LINE
  8
0
  6
CONTINUOUS
 10
193.506729
 20
352.591248
 11
193.844604
 21
333.236481
  0
ARC
  8
0
  6
CONTINUOUS
 10
192.506836
 20
352.573761
 40
1.000000
 50
1.000700
 51
90.000000
  0
ARC
  8
0
  6
CONTINUOUS
 10
198.843933
 20
333.323761
 40
5.000000
 50
-178.999802
 51
-90.000000
  0
LINE
  8
0
  6
CONTINUOUS
 10
187.989532
 20
353.823761
 11
187.989532
 21
238.823761
  0
LINE
  8
0
  6
CONTINUOUS
 10
309.739532
 20
238.323761
 11
195.739532
 21
238.323761
  0
LINE
  8
0
  6
CONTINUOUS
 10
232.739532
 20
328.323761
 11
232.739532
 21
251.126053
  0
LINE
  8
0
  6
CONTINUOUS
 10
272.739532
 20
328.323761
 11
272.739532
 21
251.126053
  0
LINE
  8
0
  6
CONTINUOUS
 10
306.277832
 20
326.863068
 11
308.261536
 21
251.126053
  0
ARC
  8
0
  6
CONTINUOUS
 10
304.778229
 20
326.823761
 40
1.500000
 50
1.500200
 51
90.000000
  0
LINE
  8
0
  6
CONTINUOUS
 10
196.739532
 20
250.323761
 11
308.451019
 21
250.323761
  0
LINE
  8
0
  6
CONTINUOUS
 10
195.739532
 20
249.323761
 11
195.739532
 21
238.323761
  0
LINE
  8
0
  6
CONTINUOUS
 10
309.739532
 20
238.323761
 11
309.450745
 21
249.349960
  0
ARC
  8
0
  6
CONTINUOUS
 10
308.451019
 20
249.323761
 40
1.000000
 50
1.500100
 51
90.000000
  0
ARC
  8
0
  6
CONTINUOUS
 10
309.260925
 20
251.152267
 40
1.000000
 50
-178.499603
 51
-113.891197
  0
ARC
  8
0
  6
CONTINUOUS
 10
195.239532
 20
238.573761
 40
0.500000
 50
0.000000
 51
90.000000
  0
LINE
  8
0
  6
CENTER
 10
110.254997
 20
54.648762
 11
219.933334
 21
54.648762
  0
LINE
  8
0
  6
CENTER
 10
252.739532
 20
150.230026
 11
252.739532
 21
-17.507500
  0
LINE
  8
0
  6
CENTER
 10
197.147507
 20
85.148758
 11
317.808411
 21
85.148758
  0
LINE
  8
0
  6
CONTINUOUS
 10
202.739456
 20
89.509460
 11
202.739456
 21
44.788071
  0
LINE
  8
0
  6
CONTINUOUS
 10
302.739624
 20
89.509422
 11
302.739624
 21
44.788071
  0
ARC
  8
0
  6
CONTINUOUS
 10
252.739532
 20
67.148773
 40
60.000000
 50
48.189621
 51
131.810394
  0
ARC
  8
0
  6
CONTINUOUS
 10
252.739532
 20
67.148773
 40
60.000000
 50
228.189697
 51
311.810303
  0
ARC
  8
0
  6
CONTINUOUS
 10
272.739624
 20
89.509422
 40
30.000000
 50
0.000000
 51
48.189629
  0
CIRCLE
  8
0
  6
CONTINUOUS
 10
252.739532
 20
85.148758
 40
27.500000
  0
ARC
  8
0
  6
CONTINUOUS
 10
252.739532
 20
85.148758
 40
31.750000
 50
7.552697
 51
172.447403
  0
ARC
  8
0
  6
CONTINUOUS
 10
235.989532
 20
43.648766
 40
20.600000
 50
172.447403
 51
270.000000
  0
ARC
  8
0
  6
CONTINUOUS
 10
269.489532
 20
43.648766
 40
20.600000
 50
-90.000000
 51
7.552700
  0
LINE
  8
0
  6
CONTINUOUS
 10
284.214203
 20
89.321922
 11
289.910797
 21
46.356392
  0
LINE
  8
0
  6
CONTINUOUS
 10
215.568130
 20
46.356354
 11
221.264954
 21
89.321861
  0
LINE
  8
0
  6
CONTINUOUS
 10
235.989532
 20
23.048759
 11
269.489532
 21
23.048759
  0
ARC
  8
0
  6
CONTINUOUS
 10
235.989532
 20
43.648766
 40
19.000000
 50
172.447601
 51
270.000000
  0
ARC
  8
0
  6
CONTINUOUS
 10
269.489532
 20
43.648766
 40
19.000000
 50
-90.000000
 51
7.552700
  0
ARC
  8
0
  6
CONTINUOUS
 10
252.739532
 20
85.148758
 40
30.150000
 50
-187.552597
 51
7.552697
  0
LINE
  8
0
  6
CONTINUOUS
 10
217.154327
 20
46.146057
 11
222.851135
 21
89.111580
  0
LINE
  8
0
  6
CONTINUOUS
 10
282.628021
 20
89.111603
 11
288.324799
 21
46.146091
  0
LINE
  8
0
  6
CONTINUOUS
 10
235.989532
 20
24.648760
 11
269.489532
 21
24.648760
  0
LINE
  8
0
  6
CONTINUOUS
 10
242.443130
 20
32.148762
 11
238.282730
 21
32.148762
  0
LINE
  8
0
  6
CONTINUOUS
 10
244.739532
 20
39.117516
 11
244.739532
 21
32.148762
  0
LINE
  8
0
  6
CONTINUOUS
 10
248.739532
 20
41.648766
 11
248.739532
 21
44.148766
  0
LINE
  8
0
  6
CONTINUOUS
 10
256.739532
 20
41.648766
 11
256.739532
 21
44.148766
  0
LINE
  8
0
  6
CONTINUOUS
 10
251.958328
 20
42.680016
 11
251.958328
 21
33.461262
  0
LINE
  8
0
  6
CONTINUOUS
 10
253.458328
 20
42.680016
 11
253.458328
 21
33.461262
  0
LINE
  8
0
  6
CONTINUOUS
 10
261.333344
 20
42.680016
 11
261.333344
 21
33.398762
  0
LINE
  8
0
  6
CONTINUOUS
 10
262.708344
 20
37.758137
 11
262.708344
 21
33.398762
  0
LINE
  8
0
  6
CONTINUOUS
 10
242.841553
 20
42.555016
 11
238.986526
 21
42.555016
  0
LINE
  8
0
  6
CONTINUOUS
 10
238.986526
 20
42.555016
 11
238.083328
 21
41.435017
  0
LINE
  8
0
  6
CONTINUOUS
 10
238.191956
 20
44.148766
 11
236.739532
 21
42.289009
  0
LINE
  8
0
  6
CONTINUOUS
 10
238.083328
 20
34.521702
 11
239.000931
 21
33.555000
  0
LINE
  8
0
  6
CONTINUOUS
 10
236.739532
 20
33.705940
 11
238.282730
 21
32.148762
  0
LINE
  8
0
  6
CONTINUOUS
 10
236.739532
 20
42.289009
 11
236.739532
 21
33.705940
  0
LINE
  8
0
  6
CONTINUOUS
 10
238.083328
 20
41.435017
 11
238.083328
 21
34.521702
  0
LINE
  8
0
  6
CONTINUOUS
 10
243.583328
 20
41.837914
 11
242.826355
 21
42.555016
  0
LINE
  8
0
  6
CONTINUOUS
 10
243.571335
 20
44.148766
 11
244.739532
 21
42.852268
  0
LINE
  8
0
  6
CONTINUOUS
 10
243.583328
 20
41.648766
 11
244.739532
 21
41.648766
  0
LINE
  8
0
  6
CONTINUOUS
 10
238.191956
 20
44.148766
 11
243.571335
 21
44.148766
  0
LINE
  8
0
  6
CONTINUOUS
 10
241.489532
 20
39.117516
 11
244.739532
 21
39.117516
  0
LINE
  8
0
  6
CONTINUOUS
 10
243.583328
 20
37.805016
 11
241.489532
 21
37.805016
  0
LINE
  8
0
  6
CONTINUOUS
 10
241.083328
 20
33.555000
 11
239.000931
 21
33.555000
  0
LINE
  8
0
  6
CONTINUOUS
 10
243.583328
 20
36.555016
 11
243.583328
 21
37.555016
  0
ARC
  8
0
  6
CONTINUOUS
 10
241.083328
 20
36.055008
 40
2.500000
 50
-89.999786
 51
0.000109
  0
LINE
  8
0
  6
CONTINUOUS
 10
243.583328
 20
33.105320
 11
243.583328
 21
32.148762
  0
LINE
  8
0
  6
CONTINUOUS
 10
244.739532
 20
42.852268
 11
244.739532
 21
41.648766
  0
LINE
  8
0
  6
CONTINUOUS
 10
243.583328
 20
37.805016
 11
243.583328
 21
36.055016
  0
LINE
  8
0
  6
CONTINUOUS
 10
241.489532
 20
39.117516
 11
241.489532
 21
37.805016
  0
LINE
  8
0
  6
CONTINUOUS
 10
243.583328
 20
32.148762
 11
244.739532
 21
32.148762
  0
LINE
  8
0
  6
CONTINUOUS
 10
243.583328
 20
33.105320
 11
242.443130
 21
32.148762
  0
LINE
  8
0
  6
CONTINUOUS
 10
253.458328
 20
33.461262
 11
253.958328
 21
33.461262
  0
LINE
  8
0
  6
CONTINUOUS
 10
251.364532
 20
33.461262
 11
251.364532
 21
32.148762
  0
LINE
  8
0
  6
CONTINUOUS
 10
253.958328
 20
33.461262
 11
253.958328
 21
32.148762
  0
LINE
  8
0
  6
CONTINUOUS
 10
255.905136
 20
41.648766
 11
256.739532
 21
41.648766
  0
LINE
  8
0
  6
CONTINUOUS
 10
248.739532
 20
41.648766
 11
249.627533
 21
41.648766
  0
LINE
  8
0
  6
CONTINUOUS
 10
248.739532
 20
44.148766
 11
256.739532
 21
44.148766
  0
LINE
  8
0
  6
CONTINUOUS
 10
251.364532
 20
32.148762
 11
253.958328
 21
32.148762
  0
LINE
  8
0
  6
CONTINUOUS
 10
251.364532
 20
33.461262
 11
251.958328
 21
33.461262
  0
ARC
  8
0
  6
CONTINUOUS
 10
265.536316
 20
40.945637
 40
3.203126
 50
-73.981873
 51
90.003510
  0
ARC
  8
0
  6
CONTINUOUS
 10
265.536316
 20
40.945637
 40
1.954124
 50
-82.585274
 51
62.411850
  0
LINE
  8
0
  6
CONTINUOUS
 10
260.739532
 20
44.148766
 11
265.536316
 21
44.148766
  0
LINE
  8
0
  6
CONTINUOUS
 10
265.788544
 20
39.007851
 11
262.708344
 21
39.007851
  0
LINE
  8
0
  6
CONTINUOUS
 10
260.739532
 20
44.148766
 11
260.739532
 21
42.680016
  0
LINE
  8
0
  6
CONTINUOUS
 10
262.708344
 20
42.680016
 11
262.708344
 21
39.007851
  0
LINE
  8
0
  6
CONTINUOUS
 10
266.420319
 20
37.866875
 11
268.402740
 21
33.398762
  0
LINE
  8
0
  6
CONTINUOUS
 10
265.268738
 20
37.758137
 11
267.144928
 21
33.398762
  0
LINE
  8
0
  6
CONTINUOUS
 10
260.739532
 20
33.398762
 11
261.333344
 21
33.398762
  0
LINE
  8
0
  6
CONTINUOUS
 10
262.708344
 20
33.398762
 11
263.255127
 21
33.398762
  0
LINE
  8
0
  6
CONTINUOUS
 10
263.255127
 20
32.148762
 11
260.739532
 21
32.148762
  0
LINE
  8
0
  6
CONTINUOUS
 10
266.895721
 20
33.398762
 11
267.144928
 21
33.398762
  0
LINE
  8
0
  6
CONTINUOUS
 10
266.895721
 20
32.148762
 11
268.739532
 21
32.148762
  0
LINE
  8
0
  6
CONTINUOUS
 10
266.895721
 20
33.398762
 11
266.895721
 21
32.148762
  0
LINE
  8
0
  6
CONTINUOUS
 10
263.255127
 20
33.398762
 11
263.255127
 21
32.148762
  0
LINE
  8
0
  6
CONTINUOUS
 10
260.739532
 20
33.398762
 11
260.739532
 21
32.148762
  0
LINE
  8
0
  6
CONTINUOUS
 10
250.057327
 20
42.680016
 11
249.627533
 21
41.648766
  0
LINE
  8
0
  6
CONTINUOUS
 10
255.542755
 20
42.680016
 11
255.905136
 21
41.648766
  0
LINE
  8
0
  6
CONTINUOUS
 10
253.458328
 20
42.680016
 11
255.542755
 21
42.680016
  0
LINE
  8
0
  6
CONTINUOUS
 10
251.958328
 20
42.680016
 11
250.057327
 21
42.680016
  0
LINE
  8
0
  6
CONTINUOUS
 10
262.708344
 20
37.758137
 11
265.268738
 21
37.758137
  0
LINE
  8
0
  6
CONTINUOUS
 10
260.739532
 20
42.680016
 11
261.333344
 21
42.680016
  0
LINE
  8
0
  6
CONTINUOUS
 10
262.708344
 20
42.680016
 11
266.441345
 21
42.677589
  0
LINE
  8
0
  6
CONTINUOUS
 10
243.583328
 20
41.837914
 11
243.583328
 21
41.648766
  0
ARC
  8
0
  6
CONTINUOUS
 10
232.739532
 20
89.509460
 40
30.000000
 50
131.810394
 51
180.000000
  0
ARC
  8
0
  6
CONTINUOUS
 10
232.739532
 20
44.788071
 40
30.000000
 50
180.000000
 51
228.189697
  0
LINE
  8
0
  6
CONTINUOUS
 10
187.989548
 20
111.898743
 11
195.739456
 21
111.898743
  0
LINE
  8
0
  6
CONTINUOUS
 10
193.553909
 20
-2.601260
 11
187.989548
 21
-2.601260
  0
LINE
  8
0
  6
CONTINUOUS
 10
194.536331
 20
102.148743
 11
187.989548
 21
102.148743
  0
LINE
  8
0
  6
CONTINUOUS
 10
187.989548
 20
7.148740
 11
195.739456
 21
7.148740
  0
LINE
  8
0
  6
CONTINUOUS
 10
194.536331
 20
86.608780
 11
187.989548
 21
86.608780
  0
LINE
  8
0
  6
CONTINUOUS
 10
194.536331
 20
22.688780
 11
187.989548
 21
22.688780
  0
LINE
  8
0
  6
CENTER
 10
199.092575
 20
127.148758
 11
216.389526
 21
127.148758
  0
LINE
  8
0
  6
CENTER
 10
289.177216
 20
127.148758
 11
313.758423
 21
127.148758
  0
LINE
  8
0
  6
CENTER
 10
197.946487
 20
7.148740
 11
216.558136
 21
7.148740
  0
LINE
  8
0
  6
CENTER
 10
288.614624
 20
7.148740
 11
313.420807
 21
7.148740
  0
LINE
  8
0
  6
CENTER
 10
297.739624
 20
136.308167
 11
297.739624
 21
118.167503
  0
LINE
  8
0
  6
CENTER
 10
207.739456
 20
136.055038
 11
207.739456
 21
118.589363
  0
LINE
  8
0
  6
CENTER
 10
207.739456
 20
16.326860
 11
207.739456
 21
-10.082480
  0
LINE
  8
0
  6
CENTER
 10
297.739624
 20
16.495640
 11
297.739624
 21
-9.407500
  0
CIRCLE
  8
0
  6
CONTINUOUS
 10
297.739624
 20
127.148758
 40
5.500000
  0
CIRCLE
  8
0
  6
CONTINUOUS
 10
207.739456
 20
127.148758
 40
5.500000
  0
CIRCLE
  8
0
  6
CONTINUOUS
 10
207.739456
 20
7.148740
 40
5.500000
  0
CIRCLE
  8
0
  6
CONTINUOUS
 10
297.739624
 20
7.148740
 40
5.500000
  0
ARC
  8
0
  6
CONTINUOUS
 10
297.739624
 20
127.148758
 40
12.000000
 50
0.000000
 51
90.000000
  0
ARC
  8
0
  6
CONTINUOUS
 10
207.739456
 20
127.148758
 40
12.000000
 50
90.000000
 51
180.000000
  0
ARC
  8
0
  6
CONTINUOUS
 10
207.739456
 20
7.148740
 40
12.000000
 50
180.000000
 51
270.000000
  0
ARC
  8
0
  6
CONTINUOUS
 10
297.739624
 20
7.148740
 40
12.000000
 50
-90.000000
 51
0.000000
  0
LINE
  8
0
  6
CONTINUOUS
 10
297.739624
 20
139.148758
 11
207.739456
 21
139.148758
  0
LINE
  8
0
  6
CONTINUOUS
 10
207.739532
 20
-4.851260
 11
297.739624
 21
-4.851260
  0
LINE
  8
0
  6
CONTINUOUS
 10
309.739624
 20
127.148758
 11
309.739624
 21
7.148740
  0
LINE
  8
0
  6
CONTINUOUS
 10
195.739456
 20
127.148720
 11
195.739456
 21
7.148720
  0
LINE
  8
0
  6
CONTINUOUS
 10
280.739624
 20
0.148740
 11
224.739532
 21
0.148740
  0
LINE
  8
0
  6
CONTINUOUS
 10
224.739532
 20
134.148758
 11
280.739624
 21
134.148758
  0
LINE
  8
0
  6
CONTINUOUS
 10
304.739624
 20
110.148743
 11
304.739624
 21
24.148760
  0
LINE
  8
0
  6
CONTINUOUS
 10
200.739456
 20
110.148743
 11
200.739456
 21
24.148760
  0
ARC
  8
0
  6
CONTINUOUS
 10
297.739624
 20
127.148758
 40
11.000000
 50
180.000000
 51
270.000000
  0
ARC
  8
0
  6
CONTINUOUS
 10
207.739456
 20
127.148758
 40
11.000000
 50
-90.000000
 51
0.000000
  0
ARC
  8
0
  6
CONTINUOUS
 10
207.739456
 20
7.148740
 40
11.000000
 50
0.000000
 51
90.000000
  0
ARC
  8
0
  6
CONTINUOUS
 10
297.739624
 20
7.148740
 40
11.000000
 50
90.000000
 51
180.000000
  0
LINE
  8
0
  6
CONTINUOUS
 10
206.739456
 20
18.148741
 11
207.739456
 21
18.148741
  0
LINE
  8
0
  6
CONTINUOUS
 10
218.739532
 20
6.148740
 11
218.739532
 21
7.148740
  0
ARC
  8
0
  6
CONTINUOUS
 10
206.739456
 20
24.148760
 40
6.000000
 50
180.000000
 51
270.000000
  0
ARC
  8
0
  6
CONTINUOUS
 10
224.739532
 20
6.148740
 40
6.000000
 50
180.000000
 51
270.000000
  0
LINE
  8
0
  6
CONTINUOUS
 10
298.739624
 20
18.148741
 11
297.739624
 21
18.148741
  0
LINE
  8
0
  6
CONTINUOUS
 10
286.739624
 20
6.148740
 11
286.739624
 21
7.148720
  0
ARC
  8
0
  6
CONTINUOUS
 10
298.739624
 20
24.148760
 40
6.000000
 50
-90.000000
 51
0.000000
  0
ARC
  8
0
  6
CONTINUOUS
 10
280.739624
 20
6.148740
 40
6.000000
 50
-90.000000
 51
0.000000
  0
LINE
  8
0
  6
CONTINUOUS
 10
298.739624
 20
116.148743
 11
297.739624
 21
116.148743
  0
LINE
  8
0
  6
CONTINUOUS
 10
286.739624
 20
128.148758
 11
286.739624
 21
127.148720
  0
ARC
  8
0
  6
CONTINUOUS
 10
280.739624
 20
128.148758
 40
6.000000
 50
0.000000
 51
90.000000
  0
ARC
  8
0
  6
CONTINUOUS
 10
298.739624
 20
110.148743
 40
6.000000
 50
0.000000
 51
90.000000
  0
LINE
  8
0
  6
CONTINUOUS
 10
206.739456
 20
116.148743
 11
207.739456
 21
116.148743
  0
LINE
  8
0
  6
CONTINUOUS
 10
218.739532
 20
128.148758
 11
218.739532
 21
127.148758
  0
ARC
  8
0
  6
CONTINUOUS
 10
224.739532
 20
128.148819
 40
6.000000
 50
90.000000
 51
180.000000
  0
ARC
  8
0
  6
CONTINUOUS
 10
206.739487
 20
110.148804
 40
6.000000
 50
90.000000
 51
180.000000
  0
LINE
  8
0
  6
CONTINUOUS
 10
194.551666
 20
-1.667760
 11
195.102112
 21
6.588660
  0
ARC
  8
0
  6
CONTINUOUS
 10
195.700806
 20
6.548760
 40
0.600000
 50
90.000000
 51
176.186096
  0
ARC
  8
0
  6
CONTINUOUS
 10
193.553909
 20
-1.601260
 40
1.000000
 50
270.000000
 51
356.185791
  0
ARC
  8
0
  6
CONTINUOUS
 10
272.739624
 20
44.788086
 40
30.000000
 50
-48.189449
 51
0.000000
  0
LINE
  8
0
  6
CONTINUOUS
 10
260.239532
 20
82.148758
 11
260.239532
 21
88.148743
  0
LINE
  8
0
  6
CONTINUOUS
 10
266.239532
 20
82.148720
 11
266.239532
 21
88.148720
  0
LINE
  8
0
  6
CONTINUOUS
 10
266.239532
 20
82.148720
 11
260.239532
 21
82.148758
  0
LINE
  8
0
  6
CONTINUOUS
 10
266.239532
 20
88.148720
 11
260.239532
 21
88.148743
  0
ARC
  8
0
  6
CONTINUOUS
 10
252.739532
 20
85.148758
 40
11.000000
 50
-344.173401
 51
-15.826600
  0
LINE
  8
0
  6
CONTINUOUS
 10
187.989548
 20
112.148758
 11
187.989548
 21
-2.851240
  0
LINE
  8
0
  6
CENTER
 10
475.733368
 20
-22.397461
 11
475.733368
 21
148.346725
  0
LINE
  8
0
  6
CENTER
 10
403.766754
 20
54.648762
 11
541.993164
 21
54.648762
  0
LINE
  8
0
  6
CENTER
 10
372.733551
 20
85.148758
 11
533.407349
 21
85.148758
  0
LINE
  8
0
  6
CONTINUOUS
 10
417.733551
 20
74.148758
 11
417.733551
 21
-4.851260
  0
LINE
  8
0
  6
CONTINUOUS
 10
429.733551
 20
115.398743
 11
429.733551
 21
137.148758
  0
LINE
  8
0
  6
CONTINUOUS
 10
427.815369
 20
139.148758
 11
417.733551
 21
139.148758
  0
LINE
  8
0
  6
CONTINUOUS
 10
427.815369
 20
-4.851220
 11
417.733551
 21
-4.851220
  0
LINE
  8
0
  6
CONTINUOUS
 10
507.733368
 20
5.631440
 11
507.733368
 21
128.666077
  0
LINE
  8
0
  6
CONTINUOUS
 10
506.751160
 20
129.665939
 11
431.698761
 21
130.975647
  0
LINE
  8
0
  6
CONTINUOUS
 10
506.751160
 20
4.631620
 11
431.698761
 21
3.321300
  0
LINE
  8
0
  6
CONTINUOUS
 10
434.290161
 20
107.148743
 11
506.666168
 21
107.148743
  0
LINE
  8
0
  6
CONTINUOUS
 10
431.642548
 20
27.148760
 11
506.343170
 21
27.148760
  0
LINE
  8
0
  6
CONTINUOUS
 10
430.230164
 20
-2.998260
 11
431.339355
 21
1.141580
  0
LINE
  8
0
  6
CONTINUOUS
 10
430.230164
 20
137.295837
 11
431.339569
 21
133.155319
  0
ARC
  8
0
  6
CONTINUOUS
 10
434.237366
 20
133.931839
 40
3.000000
 50
195.000702
 51
269.000488
  0
ARC
  8
0
  6
CONTINUOUS
 10
427.733551
 20
137.148758
 40
2.000000
 50
0.000000
 51
90.000000
  0
ARC
  8
0
  6
CONTINUOUS
 10
431.733551
 20
132.975357
 40
2.000000
 50
180.000000
 51
269.000610
  0
ARC
  8
0
  6
CONTINUOUS
 10
434.237152
 20
0.365140
 40
3.000000
 50
91.000526
 51
165.000305
  0
ARC
  8
0
  6
CONTINUOUS
 10
431.733551
 20
1.321620
 40
2.000000
 50
91.000633
 51
180.000000
  0
ARC
  8
0
  6
CONTINUOUS
 10
427.733551
 20
-2.851220
 40
2.000000
 50
-90.000000
 51
0.000000
  0
ARC
  8
0
  6
CONTINUOUS
 10
506.733368
 20
128.666077
 40
1.000000
 50
0.000000
 51
89.000359
  0
ARC
  8
0
  6
CONTINUOUS
 10
506.733368
 20
5.631440
 40
1.000000
 50
-88.999573
 51
0.000000
  0
LINE
  8
0
  6
CENTER
 10
412.239746
 20
127.148758
 11
434.876373
 21
127.148758
  0
LINE
  8
0
  6
CENTER
 10
412.239746
 20
7.148740
 11
434.876373
 21
7.148740
  0
LINE
  8
0
  6
DASHED
 10
417.733551
 20
132.648758
 11
429.733551
 21
132.648758
  0
LINE
  8
0
  6
DASHED
 10
417.733551
 20
121.648758
 11
429.733551
 21
121.648758
  0
LINE
  8
0
  6
DASHED
 10
417.733551
 20
12.648740
 11
429.733551
 21
12.648740
  0
LINE
  8
0
  6
DASHED
 10
417.733551
 20
1.648740
 11
429.733551
 21
1.648740
  0
LINE
  8
0
  6
CONTINUOUS
 10
523.733337
 20
59.955914
 11
523.733337
 21
110.341599
  0
LINE
  8
0
  6
CONTINUOUS
 10
513.733337
 20
26.953600
 11
513.733337
 21
87.218742
  0
LINE
  8
0
  6
CONTINUOUS
 10
521.503784
 20
113.241043
 11
509.963562
 21
116.306442
  0
LINE
  8
0
  6
CONTINUOUS
 10
521.503784
 20
57.056461
 11
515.963135
 21
55.584805
  0
LINE
  8
0
  6
CONTINUOUS
 10
511.506561
 20
24.054920
 11
509.960571
 21
23.642620
  0
ARC
  8
0
  6
CONTINUOUS
 10
520.733337
 20
110.341599
 40
3.000000
 50
0.000000
 51
75.124413
  0
ARC
  8
0
  6
CONTINUOUS
 10
520.733337
 20
59.955914
 40
3.000000
 50
-75.124207
 51
0.000000
  0
ARC
  8
0
  6
CONTINUOUS
 10
510.733368
 20
26.953600
 40
3.000000
 50
-75.068420
 51
0.000000
  0
ARC
  8
0
  6
CONTINUOUS
 10
510.733368
 20
119.205917
 40
3.000000
 50
180.000000
 51
255.124603
  0
ARC
  8
0
  6
CONTINUOUS
 10
516.733337
 20
52.685368
 40
3.000000
 50
104.876099
 51
180.000000
  0
ARC
  8
0
  6
CONTINUOUS
 10
510.733368
 20
20.743919
 40
3.000000
 50
104.931801
 51
180.000000
  0
LINE
  8
0
  6
CONTINUOUS
 10
523.233337
 20
12.148740
 11
523.233337
 21
21.200100
  0
LINE
  8
0
  6
CONTINUOUS
 10
518.233337
 20
7.148740
 11
509.182373
 21
7.148740
  0
ARC
  8
0
  6
CONTINUOUS
 10
475.733368
 20
54.648762
 40
57.250000
 50
-32.501888
 51
33.025517
  0
ARC
  8
0
  6
CONTINUOUS
 10
475.733368
 20
54.648762
 40
57.250000
 50
243.004898
 51
298.995514
  0
ARC
  8
0
  6
CONTINUOUS
 10
518.233337
 20
12.148740
 40
5.000000
 50
-90.000000
 51
0.000000
  0
ARC
  8
0
  6
CONTINUOUS
 10
528.233337
 20
21.200100
 40
5.000000
 50
147.498093
 51
180.000000
  0
ARC
  8
0
  6
CONTINUOUS
 10
509.182373
 20
2.148740
 40
5.000000
 50
90.000000
 51
106.842003
  0
LINE
  8
0
  6
CONTINUOUS
 10
427.733551
 20
59.955910
 11
427.733551
 21
110.341599
  0
LINE
  8
0
  6
CONTINUOUS
 10
429.963562
 20
57.056454
 11
432.764771
 21
56.312366
  0
LINE
  8
0
  6
CONTINUOUS
 10
429.963562
 20
113.241043
 11
431.787170
 21
113.725479
  0
ARC
  8
0
  6
CONTINUOUS
 10
430.733765
 20
110.341599
 40
3.000000
 50
104.876099
 51
180.000000
  0
ARC
  8
0
  6
CONTINUOUS
 10
430.733551
 20
59.955929
 40
3.000000
 50
180.000000
 51
255.124603
  0
LINE
  8
0
  6
CONTINUOUS
 10
435.233551
 20
104.898743
 11
436.733551
 21
98.648743
  0
LINE
  8
0
  6
CONTINUOUS
 10
436.733551
 20
98.648743
 11
435.733551
 21
93.148743
  0
LINE
  8
0
  6
CONTINUOUS
 10
435.733551
 20
93.148743
 11
437.983551
 21
87.398743
  0
LINE
  8
0
  6
CONTINUOUS
 10
437.983551
 20
87.398743
 11
436.233551
 21
81.648758
  0
LINE
  8
0
  6
CONTINUOUS
 10
436.233551
 20
81.648758
 11
434.233551
 21
76.648758
  0
LINE
  8
0
  6
CONTINUOUS
 10
434.233551
 20
76.648758
 11
434.733551
 21
67.898758
  0
LINE
  8
0
  6
CONTINUOUS
 10
434.733551
 20
67.898758
 11
433.483551
 21
63.398762
  0
LINE
  8
0
  6
CONTINUOUS
 10
433.483551
 20
63.398762
 11
433.483551
 21
58.648762
  0
LINE
  8
0
  6
CONTINUOUS
 10
433.483551
 20
58.648762
 11
431.483551
 21
52.148762
  0
LINE
  8
0
  6
CONTINUOUS
 10
431.483551
 20
52.148762
 11
431.733551
 21
48.148762
  0
LINE
  8
0
  6
CONTINUOUS
 10
431.733551
 20
48.148762
 11
430.733551
 21
43.773762
  0
LINE
  8
0
  6
CONTINUOUS
 10
430.733551
 20
43.773762
 11
427.233551
 21
41.148762
  0
LINE
  8
0
  6
CONTINUOUS
 10
427.233551
 20
41.148762
 11
424.608551
 21
37.898762
  0
LINE
  8
0
  6
CONTINUOUS
 10
424.608551
 20
37.898762
 11
421.733551
 21
36.148762
  0
LINE
  8
0
  6
CONTINUOUS
 10
421.733551
 20
36.148762
 11
419.358551
 21
34.023762
  0
LINE
  8
0
  6
CONTINUOUS
 10
419.358551
 20
34.023762
 11
417.733551
 21
33.652340
  0
LINE
  8
0
  6
CONTINUOUS
 10
427.608551
 20
117.023743
 11
424.108551
 21
117.898743
  0
LINE
  8
0
  6
CONTINUOUS
 10
424.108551
 20
117.898743
 11
420.733551
 21
118.523743
  0
LINE
  8
0
  6
CONTINUOUS
 10
420.733551
 20
118.523743
 11
417.733551
 21
119.523758
  0
LINE
  8
0
  6
CONTINUOUS
 10
417.733551
 20
139.148758
 11
417.733551
 21
96.148743
  0
LINE
  8
0
  6
CONTINUOUS
 10
429.733551
 20
-2.851220
 11
429.733551
 21
43.023762
  0
LINE
  8
0
  6
CONTINUOUS
 10
427.608551
 20
117.023743
 11
429.733551
 21
115.398743
  0
LINE
  8
0
  6
CONTINUOUS
 10
429.733551
 20
115.398743
 11
433.108551
 21
112.648743
  0
LINE
  8
0
  6
CONTINUOUS
 10
433.108551
 20
112.648743
 11
433.608551
 21
108.773743
  0
LINE
  8
0
  6
CONTINUOUS
 10
433.608551
 20
108.773743
 11
435.233551
 21
104.898743
  0
LINE
  8
0
  6
CONTINUOUS
 10
424.733551
 20
74.148758
 11
424.733551
 21
38.053520
  0
LINE
  8
0
  6
CONTINUOUS
 10
424.733551
 20
117.742523
 11
424.733551
 21
96.148743
  0
LINE
  8
0
  6
CONTINUOUS
 10
385.733765
 20
74.148766
 11
385.733765
 21
96.148743
  0
LINE
  8
0
  6
CONTINUOUS
 10
425.733765
 20
96.148743
 11
385.733765
 21
96.148743
  0
LINE
  8
0
  6
CONTINUOUS
 10
425.733765
 20
74.148766
 11
385.733765
 21
74.148766
  0
LINE
  8
0
  6
CONTINUOUS
 10
425.733765
 20
97.648743
 11
425.733765
 21
72.648766
  0
LINE
  8
0
  6
CONTINUOUS
 10
427.733765
 20
97.648743
 11
425.733765
 21
97.648743
  0
LINE
  8
0
  6
CONTINUOUS
 10
427.733765
 20
72.648766
 11
425.733765
 21
72.648766
  0
ARC
  8
0
  6
CONTINUOUS
 10
417.733765
 20
85.148758
 40
3.000000
 50
-90.000000
 51
90.000000
  0
LINE
  8
0
  6
CONTINUOUS
 10
417.733765
 20
88.148743
 11
385.733765
 21
88.148743
  0
LINE
  8
0
  6
CONTINUOUS
 10
417.733765
 20
82.148758
 11
385.733765
 21
82.148758
  0
ARC
  8
0
  6
CONTINUOUS
 10
427.815369
 20
136.648758
 40
2.500000
 50
15.000760
 51
90.000000
  0
ARC
  8
0
  6
CONTINUOUS
 10
427.815369
 20
-2.351220
 40
2.500000
 50
270.000000
 51
345.000214
  0
ARC
  8
0
  6
CONTINUOUS
 10
475.733368
 20
54.648762
 40
57.499821
 50
303.815704
 51
303.996307
  0
ARC
  8
0
  6
CONTINUOUS
 10
475.733368
 20
54.648762
 40
57.500000
 50
242.540298
 51
299.460602
  0
ARC
  8
0
  6
CONTINUOUS
 10
475.733368
 20
54.648762
 40
57.500000
 50
-33.996769
 51
33.406792
  0
ARC
  8
0
  6
CONTINUOUS
 10
475.733368
 20
54.648762
 40
57.500000
 50
303.815613
 51
303.997314
  0
LINE
  8
0
  6
CONTINUOUS
 10
199.201233
 20
326.863037
 11
198.998520
 21
319.123749
  0
ARC
  8
0
  6
CONTINUOUS
 10
200.700714
 20
326.823761
 40
1.500000
 50
90.000000
 51
178.499649
  0
ARC
  8
0
  6
CONTINUOUS
 10
196.739532
 20
249.323761
 40
1.000000
 50
90.000000
 51
180.000000
  0
ARC
  8
0
  6
CONTINUOUS
 10
196.220566
 20
251.255264
 40
1.000000
 50
285.039185
 51
358.499664
  0
LINE
  8
0
  6
CENTER
 10
252.739532
 20
355.299072
 11
252.739532
 21
196.099808
  0
LINE
  8
0
  6
CONTINUOUS
 10
227.546692
 20
344.323761
 11
277.932373
 21
344.323761
  0
LINE
  8
0
  6
CONTINUOUS
 10
282.895782
 20
334.323761
 11
286.182617
 21
334.323761
  0
ARC
  8
0
  6
CONTINUOUS
 10
277.932373
 20
341.323761
 40
3.000000
 50
-345.124329
 51
-270.000000
  0
LINE
  8
0
  6
CONTINUOUS
 10
289.082092
 20
332.093933
 11
289.491241
 21
330.553589
  0
ARC
  8
0
  6
CONTINUOUS
 10
286.182617
 20
331.323761
 40
3.000000
 50
-345.124329
 51
-270.000000
  0
ARC
  8
0
  6
CONTINUOUS
 10
292.390686
 20
331.323761
 40
3.000000
 50
-165.124313
 51
-90.000000
  0
LINE
  8
0
  6
CONTINUOUS
 10
282.895782
 20
334.323761
 11
280.831818
 21
342.093933
  0
LINE
  8
0
  6
CONTINUOUS
 10
216.396988
 20
332.093933
 11
215.987823
 21
330.553589
  0
ARC
  8
0
  6
CONTINUOUS
 10
219.296432
 20
331.323761
 40
3.000000
 50
90.000000
 51
165.124313
  0
ARC
  8
0
  6
CONTINUOUS
 10
213.088379
 20
331.323761
 40
3.000000
 50
-90.000000
 51
-14.875682
  0
LINE
  8
0
  6
CONTINUOUS
 10
222.583282
 20
334.323761
 11
219.296432
 21
334.323761
  0
ARC
  8
0
  6
CONTINUOUS
 10
227.546692
 20
341.323761
 40
3.000000
 50
90.000000
 51
165.124313
  0
LINE
  8
0
  6
CONTINUOUS
 10
222.583282
 20
334.323761
 11
224.647232
 21
342.093933
  0
LINE
  8
0
  6
CONTINUOUS
 10
241.739532
 20
206.323761
 11
266.239532
 21
206.323761
  0
LINE
  8
0
  6
CONTINUOUS
 10
241.739532
 20
238.323761
 11
241.739532
 21
206.323761
  0
LINE
  8
0
  6
CONTINUOUS
 10
266.239532
 20
238.323761
 11
266.239532
 21
206.323761
  0
LINE
  8
0
  6
CONTINUOUS
 10
263.322540
 20
206.323761
 11
263.322540
 21
238.323761
  0
ARC
  8
0
  6
CONTINUOUS
 10
137.555115
 20
297.917450
 40
65.000000
 50
-22.042076
 51
19.041388
  0
LINE
  8
0
  6
CONTINUOUS
 10
197.804169
 20
273.523773
 11
197.220230
 21
251.229080
  0
LINE
  8
0
  6
CONTINUOUS
 10
21.989531
 20
5.648780
 11
21.989531
 21
81.648758
  0
LINE
  8
0
  6
CONTINUOUS
 10
21.989531
 20
81.648743
 11
135.989532
 21
81.648743
  0
LINE
  8
0
  6
CONTINUOUS
 10
21.989531
 20
5.648780
 11
135.989532
 21
5.648780
  0
LINE
  8
0
  6
CONTINUOUS
 10
21.989531
 20
73.897743
 11
127.989532
 21
73.897743
  0
LINE
  8
0
  6
CONTINUOUS
 10
21.989531
 20
13.399780
 11
127.989532
 21
13.399780
  0
LINE
  8
0
  6
CONTINUOUS
 10
127.989532
 20
79.648743
 11
127.989532
 21
7.648760
  0
ARC
  8
0
  6
CONTINUOUS
 10
129.989532
 20
79.648758
 40
2.000000
 50
90.000000
 51
180.000000
  0
ARC
  8
0
  6
CONTINUOUS
 10
129.989532
 20
7.648780
 40
2.000000
 50
180.000000
 51
270.000000
  0
LINE
  8
0
  6
CONTINUOUS
 10
1.489531
 20
11.648760
 11
1.489531
 21
75.648758
  0
LINE
  8
0
  6
CONTINUOUS
 10
5.453611
 20
81.648758
 11
21.989531
 21
81.648758
  0
LINE
  8
0
  6
CONTINUOUS
 10
5.453627
 20
5.648760
 11
21.989531
 21
5.648760
  0
LINE
  8
0
  6
CONTINUOUS
 10
1.989531
 20
8.648760
 11
1.989531
 21
78.648758
  0
LINE
  8
0
  6
CONTINUOUS
 10
1.489531
 20
75.648758
 11
1.989531
 21
76.148758
  0
LINE
  8
0
  6
CONTINUOUS
 10
1.489531
 20
11.648760
 11
1.989531
 21
11.148760
  0
LINE
  8
0
  6
CONTINUOUS
 10
2.855544
 20
80.148743
 11
1.989531
 21
78.648758
  0
ARC
  8
0
  6
CONTINUOUS
 10
5.453627
 20
78.648781
 40
3.000000
 50
90.000000
 51
150.000397
  0
LINE
  8
0
  6
CONTINUOUS
 10
2.855544
 20
7.148780
 11
1.989531
 21
8.648760
  0
ARC
  8
0
  6
CONTINUOUS
 10
5.453627
 20
8.648760
 40
3.000000
 50
-150.000397
 51
-90.000000
  0
LINE
  8
0
  6
CONTINUOUS
 10
3.571165
 20
73.897766
 11
21.989531
 21
73.897766
  0
LINE
  8
0
  6
CONTINUOUS
 10
21.989531
 20
13.399760
 11
3.571165
 21
13.399760
  0
LINE
  8
0
  6
CONTINUOUS
 10
177.576782
 20
83.101021
 11
135.989532
 21
81.648758
  0
LINE
  8
0
  6
CONTINUOUS
 10
187.989532
 20
3.832880
 11
135.989532
 21
5.648760
  0
LINE
  8
0
  6
CONTINUOUS
 10
179.989532
 20
111.148758
 11
179.989532
 21
84.148758
  0
LINE
  8
0
  6
CONTINUOUS
 10
180.989532
 20
112.148758
 11
187.989548
 21
112.148758
  0
LINE
  8
0
  6
CONTINUOUS
 10
182.489532
 20
-2.851240
 11
187.989532
 21
-2.851240
  0
LINE
  8
0
  6
CONTINUOUS
 10
179.989532
 20
84.648758
 11
179.989532
 21
13.736104
  0
LINE
  8
0
  6
CONTINUOUS
 10
135.989532
 20
81.648758
 11
135.989532
 21
5.648760
  0
LINE
  8
0
  6
CONTINUOUS
 10
178.576401
 20
94.966560
 11
152.632980
 21
82.442154
  0
ARC
  8
0
  6
CONTINUOUS
 10
180.989532
 20
111.148758
 40
1.000000
 50
90.000000
 51
180.000000
  0
ARC
  8
0
  6
CONTINUOUS
 10
177.489532
 20
97.217941
 40
2.500000
 50
-64.230675
 51
0.000000
  0
ARC
  8
0
  6
CONTINUOUS
 10
177.489532
 20
85.599495
 40
2.500000
 50
-88.000000
 51
0.000000
  0
ARC
  8
0
  6
CONTINUOUS
 10
151.546097
 20
84.693527
 40
2.500000
 50
272.000000
 51
295.769318
  0
LINE
  8
0
  6
CONTINUOUS
 10
181.114609
 20
11.494760
 11
187.989532
 21
11.494760
  0
LINE
  8
0
  6
CONTINUOUS
 10
179.989532
 20
-0.351240
 11
179.989532
 21
1.698024
  0
ARC
  8
0
  6
CONTINUOUS
 10
182.489532
 20
-0.351240
 40
2.500000
 50
180.000000
 51
270.000000
  0
ARC
  8
0
  6
CONTINUOUS
 10
177.489532
 20
1.698024
 40
2.500000
 50
0.000000
 51
88.000000
  0
LINE
  8
0
  6
CENTER
 10
-10.585469
 20
43.648762
 11
220.739532
 21
43.648762
  0
LINE
  8
0
  6
CONTINUOUS
 10
182.489532
 20
238.823761
 11
187.989532
 21
238.823761
  0
LINE
  8
0
  6
CONTINUOUS
 10
182.489532
 20
353.823761
 11
187.989532
 21
353.823761
  0
LINE
  8
0
  6
CONTINUOUS
 10
179.989532
 20
241.323761
 11
179.989532
 21
351.323761
  0
LINE
  8
0
  6
CONTINUOUS
 10
135.989532
 20
334.323761
 11
135.989532
 21
258.323761
  0
LINE
  8
0
  6
CONTINUOUS
 10
177.576782
 20
335.776031
 11
135.989532
 21
334.323761
  0
LINE
  8
0
  6
CONTINUOUS
 10
177.576782
 20
256.871490
 11
135.989532
 21
258.323761
  0
ARC
  8
0
  6
CONTINUOUS
 10
182.489532
 20
351.323761
 40
2.500000
 50
90.000000
 51
180.000000
  0
ARC
  8
0
  6
CONTINUOUS
 10
182.489532
 20
241.323761
 40
2.500000
 50
180.000000
 51
270.000000
  0
LINE
  8
0
  6
CONTINUOUS
 10
135.989532
 20
334.323761
 11
135.989532
 21
258.323761
  0
LINE
  8
0
  6
CONTINUOUS
 10
21.989653
 20
258.323792
 11
21.989653
 21
271.323730
  0
LINE
  8
0
  6
CONTINUOUS
 10
21.989653
 20
334.323730
 11
135.989655
 21
334.323730
  0
LINE
  8
0
  6
CONTINUOUS
 10
21.989653
 20
258.323792
 11
135.989655
 21
258.323792
  0
LINE
  8
0
  6
CONTINUOUS
 10
127.989655
 20
332.323730
 11
127.989655
 21
319.323761
  0
ARC
  8
0
  6
CONTINUOUS
 10
129.989655
 20
332.323761
 40
2.000000
 50
90.000000
 51
180.000000
  0
ARC
  8
0
  6
CONTINUOUS
 10
129.989655
 20
260.323792
 40
2.000000
 50
180.000000
 51
270.000000
  0
LINE
  8
0
  6
CONTINUOUS
 10
1.489653
 20
264.323761
 11
1.489653
 21
328.323761
  0
LINE
  8
0
  6
CONTINUOUS
 10
5.453733
 20
334.323761
 11
21.989653
 21
334.323761
  0
LINE
  8
0
  6
CONTINUOUS
 10
5.453753
 20
258.323761
 11
21.989653
 21
258.323761
  0
LINE
  8
0
  6
CONTINUOUS
 10
1.989653
 20
261.323761
 11
1.989653
 21
331.323761
  0
LINE
  8
0
  6
CONTINUOUS
 10
1.489653
 20
328.323761
 11
1.989653
 21
328.823761
  0
LINE
  8
0
  6
CONTINUOUS
 10
1.489653
 20
264.323761
 11
1.989653
 21
263.823761
  0
LINE
  8
0
  6
CONTINUOUS
 10
2.855673
 20
332.823730
 11
1.989653
 21
331.323761
  0
ARC
  8
0
  6
CONTINUOUS
 10
5.453753
 20
331.323792
 40
3.000000
 50
90.000000
 51
150.000397
  0
LINE
  8
0
  6
CONTINUOUS
 10
2.855673
 20
259.823792
 11
1.989653
 21
261.323761
  0
ARC
  8
0
  6
CONTINUOUS
 10
5.453753
 20
261.323761
 40
3.000000
 50
-150.000397
 51
-90.000000
  0
LINE
  8
0
  6
CONTINUOUS
 10
62.989643
 20
319.323761
 11
127.989655
 21
319.323761
  0
LINE
  8
0
  6
CONTINUOUS
 10
12.989653
 20
319.323761
 11
3.571283
 21
319.323761
  0
LINE
  8
0
  6
CONTINUOUS
 10
62.989647
 20
273.323761
 11
127.989655
 21
273.323761
  0
LINE
  8
0
  6
CONTINUOUS
 10
12.989653
 20
273.323761
 11
3.571283
 21
273.323761
  0
LINE
  8
0
  6
CONTINUOUS
 10
127.989655
 20
273.323761
 11
127.989655
 21
260.323761
  0
LINE
  8
0
  6
CONTINUOUS
 10
21.989653
 20
321.323730
 11
21.989653
 21
334.323761
  0
ARC
  8
0
  6
CONTINUOUS
 10
167.159164
 20
296.323761
 40
15.000000
 50
130.747620
 51
229.252380
  0
LINE
  8
0
  6
CONTINUOUS
 10
179.121353
 20
326.429749
 11
157.368240
 21
307.687653
  0
LINE
  8
0
  6
CONTINUOUS
 10
179.121353
 20
266.217773
 11
157.368240
 21
284.959869
  0
ARC
  8
0
  6
CONTINUOUS
 10
177.489532
 20
328.323730
 40
2.500000
 50
-49.252373
 51
0.000000
  0
ARC
  8
0
  6
CONTINUOUS
 10
177.489532
 20
338.274506
 40
2.500000
 50
-88.000000
 51
0.000000
  0
ARC
  8
0
  6
CONTINUOUS
 10
177.489532
 20
264.323792
 40
2.500000
 50
0.000000
 51
49.252373
  0
ARC
  8
0
  6
CONTINUOUS
 10
177.489532
 20
254.373032
 40
2.500000
 50
0.000000
 51
88.000000
  0
LINE
  8
0
  6
CONTINUOUS
 10
12.989653
 20
273.323730
 11
12.989653
 21
319.323730
  0
LINE
  8
0
  6
CONTINUOUS
 10
14.989653
 20
321.323730
 11
12.989653
 21
319.323730
  0
LINE
  8
0
  6
CONTINUOUS
 10
14.989653
 20
321.323730
 11
60.989643
 21
321.323730
  0
LINE
  8
0
  6
CONTINUOUS
 10
55.489655
 20
316.823730
 11
55.489655
 21
321.323730
  0
ARC
  8
0
  6
CONTINUOUS
 10
58.489655
 20
316.823730
 40
3.000000
 50
180.000000
 51
270.000000
  0
LINE
  8
0
  6
CONTINUOUS
 10
58.489655
 20
313.823730
 11
62.989643
 21
313.823730
  0
CIRCLE
  8
0
  6
CONTINUOUS
 10
59.489655
 20
317.823730
 40
2.250000
  0
LINE
  8
0
  6
CONTINUOUS
 10
62.989647
 20
273.323730
 11
62.989643
 21
319.323730
  0
LINE
  8
0
  6
CONTINUOUS
 10
60.989643
 20
321.323730
 11
62.989643
 21
319.323730
  0
LINE
  8
0
  6
CONTINUOUS
 10
60.989647
 20
271.323730
 11
62.989647
 21
273.323730
  0
LINE
  8
0
  6
CONTINUOUS
 10
60.989647
 20
271.323730
 11
14.989653
 21
271.323730
  0
LINE
  8
0
  6
CONTINUOUS
 10
12.989653
 20
273.323730
 11
14.989653
 21
271.323730
  0
LINE
  8
0
  6
CONTINUOUS
 10
17.489653
 20
278.823730
 11
12.989663
 21
278.823730
  0
CIRCLE
  8
0
  6
CONTINUOUS
 10
16.489653
 20
274.823730
 40
2.250000
  0
ARC
  8
0
  6
CONTINUOUS
 10
17.489653
 20
275.823730
 40
3.000000
 50
0.000000
 51
90.000000
  0
LINE
  8
0
  6
CONTINUOUS
 10
20.489653
 20
275.823730
 11
20.489653
 21
271.323730
  0
LINE
  8
0
  6
CENTER
 10
37.989655
 20
263.857971
 11
37.989655
 21
327.989990
  0
LINE
  8
0
  6
CONTINUOUS
 10
13.989659
 20
278.823730
 11
13.989659
 21
313.823730
  0
LINE
  8
0
  6
CONTINUOUS
 10
55.489655
 20
320.323730
 11
20.489653
 21
320.323730
  0
LINE
  8
0
  6
CONTINUOUS
 10
61.989647
 20
313.823730
 11
61.989647
 21
278.823730
  0
LINE
  8
0
  6
CONTINUOUS
 10
20.489653
 20
272.323730
 11
55.489655
 21
272.323730
  0
LINE
  8
0
  6
CONTINUOUS
 10
17.489653
 20
313.823730
 11
12.989653
 21
313.823730
  0
ARC
  8
0
  6
CONTINUOUS
 10
17.489653
 20
316.823730
 40
3.000000
 50
-90.000000
 51
0.000000
  0
LINE
  8
0
  6
CONTINUOUS
 10
20.489653
 20
316.823730
 11
20.489653
 21
321.323730
  0
CIRCLE
  8
0
  6
CONTINUOUS
 10
16.489653
 20
317.823730
 40
2.250000
  0
ARC
  8
0
  6
CONTINUOUS
 10
58.489655
 20
275.823730
 40
3.000000
 50
90.000000
 51
180.000000
  0
LINE
  8
0
  6
CONTINUOUS
 10
55.489655
 20
275.823730
 11
55.489655
 21
271.323761
  0
LINE
  8
0
  6
CONTINUOUS
 10
58.489655
 20
278.823730
 11
62.989655
 21
278.823730
  0
CIRCLE
  8
0
  6
CONTINUOUS
 10
59.489655
 20
274.823730
 40
2.250000
  0
LINE
  8
0
  6
CONTINUOUS
 10
14.489531
 20
83.148758
 11
60.989532
 21
83.148758
  0
LINE
  8
0
  6
CONTINUOUS
 10
62.989510
 20
127.148758
 11
62.989532
 21
85.148758
  0
LINE
  8
0
  6
CONTINUOUS
 10
12.989531
 20
127.148758
 11
12.989531
 21
85.148758
  0
LINE
  8
0
  6
CONTINUOUS
 10
12.989531
 20
95.148758
 11
62.989532
 21
95.148758
  0
LINE
  8
0
  6
CONTINUOUS
 10
60.989532
 20
83.148758
 11
62.989532
 21
85.148758
  0
LINE
  8
0
  6
CONTINUOUS
 10
12.989531
 20
85.148758
 11
14.989531
 21
83.148758
  0
LINE
  8
0
  6
CONTINUOUS
 10
12.989531
 20
85.148758
 11
62.989532
 21
85.148758
  0
LINE
  8
0
  6
CONTINUOUS
 10
12.989531
 20
96.148758
 11
62.989510
 21
96.148758
  0
LINE
  8
0
  6
CONTINUOUS
 10
13.989531
 20
128.148758
 11
61.989510
 21
128.148758
  0
LINE
  8
0
  6
CONTINUOUS
 10
61.989510
 20
128.148758
 11
62.989510
 21
127.148758
  0
LINE
  8
0
  6
CONTINUOUS
 10
13.989531
 20
128.148758
 11
12.989531
 21
127.148758
  0
LINE
  8
0
  6
CONTINUOUS
 10
12.989531
 20
127.148758
 11
62.989510
 21
127.148758
  0
LINE
  8
0
  6
CENTER
 10
37.989532
 20
76.759247
 11
37.989532
 21
134.451263
  0
LINE
  8
0
  6
CENTER
 10
10.614531
 20
111.148758
 11
15.239531
 21
111.148758
  0
LINE
  8
0
  6
CONTINUOUS
 10
14.489531
 20
83.148758
 11
14.489531
 21
81.648758
  0
LINE
  8
0
  6
CONTINUOUS
 10
60.489532
 20
83.148758
 11
60.489532
 21
81.648758
  0
LINE
  8
0
  6
CONTINUOUS
 10
12.114531
 20
121.648758
 11
14.114531
 21
121.648758
  0
LINE
  8
0
  6
CONTINUOUS
 10
12.114531
 20
100.648758
 11
14.114531
 21
100.648758
  0
LINE
  8
0
  6
CENTER
 10
207.739456
 20
255.566254
 11
207.739456
 21
234.399994
  0
LINE
  8
0
  6
DASHED
 10
213.239456
 20
250.323761
 11
213.239456
 21
238.323761
  0
LINE
  8
0
  6
DASHED
 10
202.239456
 20
250.323761
 11
202.239456
 21
238.323761
  0
LINE
  8
0
  6
DASHED
 10
292.239624
 20
250.323761
 11
292.239624
 21
238.323761
  0
LINE
  8
0
  6
CENTER
 10
297.739624
 20
255.566254
 11
297.739624
 21
234.399994
  0
LINE
  8
0
  6
DASHED
 10
303.239624
 20
250.323761
 11
303.239624
 21
238.323761
  0
LINE
  8
0
  6
CONTINUOUS
 10
135.989532
 20
34.248760
 11
179.989532
 21
34.248760
  0
LINE
  8
0
  6
CONTINUOUS
 10
135.989532
 20
24.048759
 11
179.989532
 21
24.048759
  0
TEXT
  8
0
 10
-14.000000
 20
-22.000000
 40
4.000000
 41
1.000000
  1
HFM-22R-300~900-T25WK
 50
0.000000
  0
ENDSEC
  0
EOF
