  0
SECTION
  2
HEADER
  9
$CLAYER
  8
1
  9
$LTSCALE
 40
3.0
  0
ENDSEC
  0
SECTION
  2
TABLES
  0
TABLE
  2
LTYPE
 70
     4
  0
LTYPE
  2
CONTINUOUS
  3
solid line
 70
    64
 72
    65
 73
     0
 40
0.0
  0
LTYPE
  2
DASHED
  3
__ __ __ __ __ __ __ __ __ __ __ __ __ __ __
 70
    64
 72
    65
 73
     2
 40
0.75
 49
0.5
 49
-0.25
  0
LTYPE
  2
CENTER
  3
____ _ ____ _ ____ _ ____ _ ____ _ ____ _ ____
 70
    64
 72
    65
 73
     4
 40
2.0
 49
1.25
 49
-0.25
 49
0.25
 49
-0.25
  0
LTYPE
  2
PHANTOM
  3
_____ _ _ _____ _ _ _____ _ _ _____ _ _ ____
 70
    64
 72
    65
 73
     6
 40
2.5
 49
1.25
 49
-0.25
 49
0.25
 49
-0.25
 49
0.25
 49
-0.25
  0
ENDTAB
  0
TABLE
  2
LAYER
 70
     1
  0
LAYER
  2
0
 70
    64
 62
     7
  6
CONTINUOUS
  0
ENDTAB
  0
TABLE
  2
STYLE
 70
     1
  0
STYLE
  2
STANDARD
 70
     0
 40
0.000000
 41
1.000000
 50
0.000000
 71
     0
 42
3.000000
  3
txt
  4
BIGFONT
  0
ENDTAB
  0
ENDSEC
  0
SECTION
  2
BLOCKS
  0
ENDSEC
  0
SECTION
  2
ENTITIES
  0
LINE
  8
0
  6
CENTER
 10
325.830139
 20
311.418762
 11
-2.824343
 21
311.418762
  0
LINE
  8
0
  6
CONTINUOUS
 10
201.844528
 20
254.168762
 11
199.344528
 21
254.168762
  0
LINE
  8
0
  6
CONTINUOUS
 10
203.861938
 20
368.668762
 11
199.344528
 21
368.668762
  0
LINE
  8
0
  6
CONTINUOUS
 10
206.594528
 20
254.168762
 11
199.344528
 21
254.168762
  0
LINE
  8
0
  6
CONTINUOUS
 10
208.048752
 20
279.418762
 11
199.344528
 21
279.418762
  0
LINE
  8
0
  6
CONTINUOUS
 10
206.611130
 20
263.918762
 11
199.344528
 21
263.918762
  0
LINE
  8
0
  6
CONTINUOUS
 10
204.704926
 20
358.918762
 11
199.344528
 21
358.918762
  0
LINE
  8
0
  6
CONTINUOUS
 10
199.344528
 20
343.418762
 11
316.133331
 21
343.418762
  0
LINE
  8
0
  6
CONTINUOUS
 10
204.861725
 20
367.686249
 11
205.199615
 21
348.331482
  0
ARC
  8
0
  6
CONTINUOUS
 10
203.861832
 20
367.668762
 40
1.000000
 50
1.000700
 51
90.000000
  0
ARC
  8
0
  6
CONTINUOUS
 10
210.198929
 20
348.418762
 40
5.000000
 50
-178.999802
 51
-90.000000
  0
LINE
  8
0
  6
CONTINUOUS
 10
199.344528
 20
368.918762
 11
199.344528
 21
253.918762
  0
LINE
  8
0
  6
CONTINUOUS
 10
321.094543
 20
253.418762
 11
207.094528
 21
253.418762
  0
LINE
  8
0
  6
CONTINUOUS
 10
244.094528
 20
343.418762
 11
244.094528
 21
266.221069
  0
LINE
  8
0
  6
CONTINUOUS
 10
284.094543
 20
343.418762
 11
284.094543
 21
266.221069
  0
LINE
  8
0
  6
CONTINUOUS
 10
317.632843
 20
341.958069
 11
319.616516
 21
266.221069
  0
ARC
  8
0
  6
CONTINUOUS
 10
316.133240
 20
341.918762
 40
1.500000
 50
1.500200
 51
90.000000
  0
LINE
  8
0
  6
CONTINUOUS
 10
208.094528
 20
265.418762
 11
319.806030
 21
265.418762
  0
LINE
  8
0
  6
CONTINUOUS
 10
207.094528
 20
264.418762
 11
207.094528
 21
253.418762
  0
LINE
  8
0
  6
CONTINUOUS
 10
321.094543
 20
253.418762
 11
320.805725
 21
264.444946
  0
ARC
  8
0
  6
CONTINUOUS
 10
319.806030
 20
264.418762
 40
1.000000
 50
1.500100
 51
90.000000
  0
ARC
  8
0
  6
CONTINUOUS
 10
320.615936
 20
266.247253
 40
1.000000
 50
-178.499603
 51
-113.891197
  0
ARC
  8
0
  6
CONTINUOUS
 10
206.594528
 20
253.668762
 40
0.500000
 50
0.000000
 51
90.000000
  0
LINE
  8
0
  6
CENTER
 10
124.121246
 20
69.743759
 11
231.288330
 21
69.743759
  0
LINE
  8
0
  6
CENTER
 10
264.094543
 20
165.325027
 11
264.094543
 21
-2.412500
  0
LINE
  8
0
  6
CENTER
 10
208.502502
 20
100.243759
 11
329.163422
 21
100.243759
  0
LINE
  8
0
  6
CONTINUOUS
 10
214.094452
 20
104.604462
 11
214.094452
 21
59.883072
  0
LINE
  8
0
  6
CONTINUOUS
 10
314.094604
 20
104.604424
 11
314.094604
 21
59.883072
  0
ARC
  8
0
  6
CONTINUOUS
 10
264.094543
 20
82.243774
 40
60.000000
 50
48.189621
 51
131.810394
  0
ARC
  8
0
  6
CONTINUOUS
 10
264.094543
 20
82.243774
 40
60.000000
 50
228.189697
 51
311.810303
  0
ARC
  8
0
  6
CONTINUOUS
 10
284.094604
 20
104.604424
 40
30.000000
 50
0.000000
 51
48.189629
  0
CIRCLE
  8
0
  6
CONTINUOUS
 10
264.094543
 20
100.243759
 40
27.500000
  0
ARC
  8
0
  6
CONTINUOUS
 10
264.094543
 20
100.243759
 40
31.750000
 50
7.552697
 51
172.447403
  0
ARC
  8
0
  6
CONTINUOUS
 10
247.344528
 20
58.743763
 40
20.600000
 50
172.447403
 51
270.000000
  0
ARC
  8
0
  6
CONTINUOUS
 10
280.844543
 20
58.743763
 40
20.600000
 50
-90.000000
 51
7.552700
  0
LINE
  8
0
  6
CONTINUOUS
 10
295.569214
 20
104.416924
 11
301.265808
 21
61.451389
  0
LINE
  8
0
  6
CONTINUOUS
 10
226.923126
 20
61.451351
 11
232.619949
 21
104.416862
  0
LINE
  8
0
  6
CONTINUOUS
 10
247.344528
 20
38.143761
 11
280.844543
 21
38.143761
  0
ARC
  8
0
  6
CONTINUOUS
 10
247.344528
 20
58.743763
 40
19.000000
 50
172.447601
 51
270.000000
  0
ARC
  8
0
  6
CONTINUOUS
 10
280.844543
 20
58.743763
 40
19.000000
 50
-90.000000
 51
7.552700
  0
ARC
  8
0
  6
CONTINUOUS
 10
264.094543
 20
100.243759
 40
30.150000
 50
-187.552597
 51
7.552697
  0
LINE
  8
0
  6
CONTINUOUS
 10
228.509338
 20
61.241055
 11
234.206131
 21
104.206581
  0
LINE
  8
0
  6
CONTINUOUS
 10
293.983002
 20
104.206596
 11
299.679810
 21
61.241089
  0
LINE
  8
0
  6
CONTINUOUS
 10
247.344528
 20
39.743759
 11
280.844543
 21
39.743759
  0
LINE
  8
0
  6
CONTINUOUS
 10
253.798126
 20
47.243759
 11
249.637726
 21
47.243759
  0
LINE
  8
0
  6
CONTINUOUS
 10
256.094543
 20
54.212513
 11
256.094543
 21
47.243759
  0
LINE
  8
0
  6
CONTINUOUS
 10
260.094543
 20
56.743763
 11
260.094543
 21
59.243763
  0
LINE
  8
0
  6
CONTINUOUS
 10
268.094543
 20
56.743763
 11
268.094543
 21
59.243763
  0
LINE
  8
0
  6
CONTINUOUS
 10
263.313324
 20
57.775013
 11
263.313324
 21
48.556259
  0
LINE
  8
0
  6
CONTINUOUS
 10
264.813324
 20
57.775013
 11
264.813324
 21
48.556259
  0
LINE
  8
0
  6
CONTINUOUS
 10
272.688324
 20
57.775013
 11
272.688324
 21
48.493759
  0
LINE
  8
0
  6
CONTINUOUS
 10
274.063324
 20
52.853138
 11
274.063324
 21
48.493759
  0
LINE
  8
0
  6
CONTINUOUS
 10
254.196548
 20
57.650013
 11
250.341537
 21
57.650013
  0
LINE
  8
0
  6
CONTINUOUS
 10
250.341537
 20
57.650013
 11
249.438324
 21
56.530018
  0
LINE
  8
0
  6
CONTINUOUS
 10
249.546951
 20
59.243763
 11
248.094528
 21
57.384007
  0
LINE
  8
0
  6
CONTINUOUS
 10
249.438324
 20
49.616699
 11
250.355927
 21
48.650002
  0
LINE
  8
0
  6
CONTINUOUS
 10
248.094528
 20
48.800941
 11
249.637726
 21
47.243759
  0
LINE
  8
0
  6
CONTINUOUS
 10
248.094528
 20
57.384007
 11
248.094528
 21
48.800941
  0
LINE
  8
0
  6
CONTINUOUS
 10
249.438324
 20
56.530018
 11
249.438324
 21
49.616699
  0
LINE
  8
0
  6
CONTINUOUS
 10
254.938324
 20
56.932911
 11
254.181351
 21
57.650013
  0
LINE
  8
0
  6
CONTINUOUS
 10
254.926331
 20
59.243763
 11
256.094543
 21
57.947269
  0
LINE
  8
0
  6
CONTINUOUS
 10
254.938324
 20
56.743763
 11
256.094543
 21
56.743763
  0
LINE
  8
0
  6
CONTINUOUS
 10
249.546951
 20
59.243763
 11
254.926331
 21
59.243763
  0
LINE
  8
0
  6
CONTINUOUS
 10
252.844528
 20
54.212513
 11
256.094543
 21
54.212513
  0
LINE
  8
0
  6
CONTINUOUS
 10
254.938324
 20
52.900017
 11
252.844528
 21
52.900017
  0
LINE
  8
0
  6
CONTINUOUS
 10
252.438324
 20
48.650002
 11
250.355927
 21
48.650002
  0
LINE
  8
0
  6
CONTINUOUS
 10
254.938324
 20
51.650017
 11
254.938324
 21
52.650017
  0
ARC
  8
0
  6
CONTINUOUS
 10
252.438324
 20
51.150009
 40
2.500000
 50
-89.999786
 51
0.000109
  0
LINE
  8
0
  6
CONTINUOUS
 10
254.938324
 20
48.200321
 11
254.938324
 21
47.243759
  0
LINE
  8
0
  6
CONTINUOUS
 10
256.094543
 20
57.947269
 11
256.094543
 21
56.743763
  0
LINE
  8
0
  6
CONTINUOUS
 10
254.938324
 20
52.900017
 11
254.938324
 21
51.150017
  0
LINE
  8
0
  6
CONTINUOUS
 10
252.844528
 20
54.212513
 11
252.844528
 21
52.900017
  0
LINE
  8
0
  6
CONTINUOUS
 10
254.938324
 20
47.243759
 11
256.094543
 21
47.243759
  0
LINE
  8
0
  6
CONTINUOUS
 10
254.938324
 20
48.200321
 11
253.798126
 21
47.243759
  0
LINE
  8
0
  6
CONTINUOUS
 10
264.813324
 20
48.556259
 11
265.313324
 21
48.556259
  0
LINE
  8
0
  6
CONTINUOUS
 10
262.719543
 20
48.556259
 11
262.719543
 21
47.243759
  0
LINE
  8
0
  6
CONTINUOUS
 10
265.313324
 20
48.556259
 11
265.313324
 21
47.243759
  0
LINE
  8
0
  6
CONTINUOUS
 10
267.260132
 20
56.743763
 11
268.094543
 21
56.743763
  0
LINE
  8
0
  6
CONTINUOUS
 10
260.094543
 20
56.743763
 11
260.982544
 21
56.743763
  0
LINE
  8
0
  6
CONTINUOUS
 10
260.094543
 20
59.243763
 11
268.094543
 21
59.243763
  0
LINE
  8
0
  6
CONTINUOUS
 10
262.719543
 20
47.243759
 11
265.313324
 21
47.243759
  0
LINE
  8
0
  6
CONTINUOUS
 10
262.719543
 20
48.556259
 11
263.313324
 21
48.556259
  0
ARC
  8
0
  6
CONTINUOUS
 10
276.891327
 20
56.040638
 40
3.203126
 50
-73.981873
 51
90.003510
  0
ARC
  8
0
  6
CONTINUOUS
 10
276.891327
 20
56.040638
 40
1.954124
 50
-82.585274
 51
62.411850
  0
LINE
  8
0
  6
CONTINUOUS
 10
272.094543
 20
59.243763
 11
276.891327
 21
59.243763
  0
LINE
  8
0
  6
CONTINUOUS
 10
277.143524
 20
54.102852
 11
274.063324
 21
54.102852
  0
LINE
  8
0
  6
CONTINUOUS
 10
272.094543
 20
59.243763
 11
272.094543
 21
57.775013
  0
LINE
  8
0
  6
CONTINUOUS
 10
274.063324
 20
57.775013
 11
274.063324
 21
54.102852
  0
LINE
  8
0
  6
CONTINUOUS
 10
277.775330
 20
52.961872
 11
279.757751
 21
48.493759
  0
LINE
  8
0
  6
CONTINUOUS
 10
276.623749
 20
52.853138
 11
278.499939
 21
48.493759
  0
LINE
  8
0
  6
CONTINUOUS
 10
272.094543
 20
48.493759
 11
272.688324
 21
48.493759
  0
LINE
  8
0
  6
CONTINUOUS
 10
274.063324
 20
48.493759
 11
274.610138
 21
48.493759
  0
LINE
  8
0
  6
CONTINUOUS
 10
274.610138
 20
47.243759
 11
272.094543
 21
47.243759
  0
LINE
  8
0
  6
CONTINUOUS
 10
278.250732
 20
48.493759
 11
278.499939
 21
48.493759
  0
LINE
  8
0
  6
CONTINUOUS
 10
278.250732
 20
47.243759
 11
280.094543
 21
47.243759
  0
LINE
  8
0
  6
CONTINUOUS
 10
278.250732
 20
48.493759
 11
278.250732
 21
47.243759
  0
LINE
  8
0
  6
CONTINUOUS
 10
274.610138
 20
48.493759
 11
274.610138
 21
47.243759
  0
LINE
  8
0
  6
CONTINUOUS
 10
272.094543
 20
48.493759
 11
272.094543
 21
47.243759
  0
LINE
  8
0
  6
CONTINUOUS
 10
261.412323
 20
57.775013
 11
260.982544
 21
56.743763
  0
LINE
  8
0
  6
CONTINUOUS
 10
266.897766
 20
57.775013
 11
267.260132
 21
56.743763
  0
LINE
  8
0
  6
CONTINUOUS
 10
264.813324
 20
57.775013
 11
266.897766
 21
57.775013
  0
LINE
  8
0
  6
CONTINUOUS
 10
263.313324
 20
57.775013
 11
261.412323
 21
57.775013
  0
LINE
  8
0
  6
CONTINUOUS
 10
274.063324
 20
52.853138
 11
276.623749
 21
52.853138
  0
LINE
  8
0
  6
CONTINUOUS
 10
272.094543
 20
57.775013
 11
272.688324
 21
57.775013
  0
LINE
  8
0
  6
CONTINUOUS
 10
274.063324
 20
57.775013
 11
277.796326
 21
57.772587
  0
LINE
  8
0
  6
CONTINUOUS
 10
254.938324
 20
56.932911
 11
254.938324
 21
56.743763
  0
ARC
  8
0
  6
CONTINUOUS
 10
244.094528
 20
104.604462
 40
30.000000
 50
131.810394
 51
180.000000
  0
ARC
  8
0
  6
CONTINUOUS
 10
244.094528
 20
59.883072
 40
30.000000
 50
180.000000
 51
228.189697
  0
LINE
  8
0
  6
CONTINUOUS
 10
199.344543
 20
126.993736
 11
207.094452
 21
126.993736
  0
LINE
  8
0
  6
CONTINUOUS
 10
204.908905
 20
12.493740
 11
199.344543
 21
12.493740
  0
LINE
  8
0
  6
CONTINUOUS
 10
205.891327
 20
117.243736
 11
199.344543
 21
117.243736
  0
LINE
  8
0
  6
CONTINUOUS
 10
199.344543
 20
22.243740
 11
207.094452
 21
22.243740
  0
LINE
  8
0
  6
CONTINUOUS
 10
205.891327
 20
101.703781
 11
199.344543
 21
101.703781
  0
LINE
  8
0
  6
CONTINUOUS
 10
205.891327
 20
37.783779
 11
199.344543
 21
37.783779
  0
LINE
  8
0
  6
CENTER
 10
210.447571
 20
142.243759
 11
227.744537
 21
142.243759
  0
LINE
  8
0
  6
CENTER
 10
300.532196
 20
142.243759
 11
325.113403
 21
142.243759
  0
LINE
  8
0
  6
CENTER
 10
209.301498
 20
22.243740
 11
227.913132
 21
22.243740
  0
LINE
  8
0
  6
CENTER
 10
299.969604
 20
22.243740
 11
324.775818
 21
22.243740
  0
LINE
  8
0
  6
CENTER
 10
309.094604
 20
151.403152
 11
309.094604
 21
133.262497
  0
LINE
  8
0
  6
CENTER
 10
219.094452
 20
151.150040
 11
219.094452
 21
133.684357
  0
LINE
  8
0
  6
CENTER
 10
219.094452
 20
31.421860
 11
219.094452
 21
5.012520
  0
LINE
  8
0
  6
CENTER
 10
309.094604
 20
31.590639
 11
309.094604
 21
5.687500
  0
CIRCLE
  8
0
  6
CONTINUOUS
 10
309.094604
 20
142.243759
 40
5.500000
  0
CIRCLE
  8
0
  6
CONTINUOUS
 10
219.094452
 20
142.243759
 40
5.500000
  0
CIRCLE
  8
0
  6
CONTINUOUS
 10
219.094452
 20
22.243740
 40
5.500000
  0
CIRCLE
  8
0
  6
CONTINUOUS
 10
309.094604
 20
22.243740
 40
5.500000
  0
ARC
  8
0
  6
CONTINUOUS
 10
309.094604
 20
142.243759
 40
12.000000
 50
0.000000
 51
90.000000
  0
ARC
  8
0
  6
CONTINUOUS
 10
219.094452
 20
142.243759
 40
12.000000
 50
90.000000
 51
180.000000
  0
ARC
  8
0
  6
CONTINUOUS
 10
219.094452
 20
22.243740
 40
12.000000
 50
180.000000
 51
270.000000
  0
ARC
  8
0
  6
CONTINUOUS
 10
309.094604
 20
22.243740
 40
12.000000
 50
-90.000000
 51
0.000000
  0
LINE
  8
0
  6
CONTINUOUS
 10
309.094604
 20
154.243759
 11
219.094452
 21
154.243759
  0
LINE
  8
0
  6
CONTINUOUS
 10
219.094528
 20
10.243740
 11
309.094604
 21
10.243740
  0
LINE
  8
0
  6
CONTINUOUS
 10
321.094604
 20
142.243759
 11
321.094604
 21
22.243740
  0
LINE
  8
0
  6
CONTINUOUS
 10
207.094452
 20
142.243713
 11
207.094452
 21
22.243719
  0
LINE
  8
0
  6
CONTINUOUS
 10
292.094604
 20
15.243740
 11
236.094528
 21
15.243740
  0
LINE
  8
0
  6
CONTINUOUS
 10
236.094528
 20
149.243759
 11
292.094604
 21
149.243759
  0
LINE
  8
0
  6
CONTINUOUS
 10
316.094604
 20
125.243736
 11
316.094604
 21
39.243759
  0
LINE
  8
0
  6
CONTINUOUS
 10
212.094452
 20
125.243736
 11
212.094452
 21
39.243759
  0
ARC
  8
0
  6
CONTINUOUS
 10
309.094604
 20
142.243759
 40
11.000000
 50
180.000000
 51
270.000000
  0
ARC
  8
0
  6
CONTINUOUS
 10
219.094452
 20
142.243759
 40
11.000000
 50
-90.000000
 51
0.000000
  0
ARC
  8
0
  6
CONTINUOUS
 10
219.094452
 20
22.243740
 40
11.000000
 50
0.000000
 51
90.000000
  0
ARC
  8
0
  6
CONTINUOUS
 10
309.094604
 20
22.243740
 40
11.000000
 50
90.000000
 51
180.000000
  0
LINE
  8
0
  6
CONTINUOUS
 10
218.094452
 20
33.243740
 11
219.094452
 21
33.243740
  0
LINE
  8
0
  6
CONTINUOUS
 10
230.094528
 20
21.243740
 11
230.094528
 21
22.243740
  0
ARC
  8
0
  6
CONTINUOUS
 10
218.094452
 20
39.243759
 40
6.000000
 50
180.000000
 51
270.000000
  0
ARC
  8
0
  6
CONTINUOUS
 10
236.094528
 20
21.243740
 40
6.000000
 50
180.000000
 51
270.000000
  0
LINE
  8
0
  6
CONTINUOUS
 10
310.094604
 20
33.243740
 11
309.094604
 21
33.243740
  0
LINE
  8
0
  6
CONTINUOUS
 10
298.094604
 20
21.243740
 11
298.094604
 21
22.243719
  0
ARC
  8
0
  6
CONTINUOUS
 10
310.094604
 20
39.243759
 40
6.000000
 50
-90.000000
 51
0.000000
  0
ARC
  8
0
  6
CONTINUOUS
 10
292.094604
 20
21.243740
 40
6.000000
 50
-90.000000
 51
0.000000
  0
LINE
  8
0
  6
CONTINUOUS
 10
310.094604
 20
131.243744
 11
309.094604
 21
131.243744
  0
LINE
  8
0
  6
CONTINUOUS
 10
298.094604
 20
143.243759
 11
298.094604
 21
142.243713
  0
ARC
  8
0
  6
CONTINUOUS
 10
292.094604
 20
143.243759
 40
6.000000
 50
0.000000
 51
90.000000
  0
ARC
  8
0
  6
CONTINUOUS
 10
310.094604
 20
125.243736
 40
6.000000
 50
0.000000
 51
90.000000
  0
LINE
  8
0
  6
CONTINUOUS
 10
218.094452
 20
131.243744
 11
219.094452
 21
131.243744
  0
LINE
  8
0
  6
CONTINUOUS
 10
230.094528
 20
143.243759
 11
230.094528
 21
142.243759
  0
ARC
  8
0
  6
CONTINUOUS
 10
236.094528
 20
143.243820
 40
6.000000
 50
90.000000
 51
180.000000
  0
ARC
  8
0
  6
CONTINUOUS
 10
218.094498
 20
125.243797
 40
6.000000
 50
90.000000
 51
180.000000
  0
LINE
  8
0
  6
CONTINUOUS
 10
205.906677
 20
13.427240
 11
206.457108
 21
21.683661
  0
ARC
  8
0
  6
CONTINUOUS
 10
207.055817
 20
21.643761
 40
0.600000
 50
90.000000
 51
176.186096
  0
ARC
  8
0
  6
CONTINUOUS
 10
204.908905
 20
13.493740
 40
1.000000
 50
270.000000
 51
356.185791
  0
ARC
  8
0
  6
CONTINUOUS
 10
284.094604
 20
59.883087
 40
30.000000
 50
-48.189449
 51
0.000000
  0
LINE
  8
0
  6
CONTINUOUS
 10
271.594543
 20
97.243759
 11
271.594543
 21
103.243736
  0
LINE
  8
0
  6
CONTINUOUS
 10
277.594543
 20
97.243721
 11
277.594543
 21
103.243721
  0
LINE
  8
0
  6
CONTINUOUS
 10
277.594543
 20
97.243721
 11
271.594543
 21
97.243759
  0
LINE
  8
0
  6
CONTINUOUS
 10
277.594543
 20
103.243721
 11
271.594543
 21
103.243736
  0
ARC
  8
0
  6
CONTINUOUS
 10
264.094543
 20
100.243759
 40
11.000000
 50
-344.173401
 51
-15.826600
  0
LINE
  8
0
  6
CONTINUOUS
 10
199.344543
 20
127.243759
 11
199.344543
 21
12.243760
  0
LINE
  8
0
  6
CENTER
 10
487.088348
 20
-7.302460
 11
487.088348
 21
163.441727
  0
LINE
  8
0
  6
CENTER
 10
415.121765
 20
69.743759
 11
553.348145
 21
69.743759
  0
LINE
  8
0
  6
CENTER
 10
384.088562
 20
100.243759
 11
544.762329
 21
100.243759
  0
LINE
  8
0
  6
CONTINUOUS
 10
429.088562
 20
89.243759
 11
429.088562
 21
10.243740
  0
LINE
  8
0
  6
CONTINUOUS
 10
441.088562
 20
130.493744
 11
441.088562
 21
152.243759
  0
LINE
  8
0
  6
CONTINUOUS
 10
439.170349
 20
154.243759
 11
429.088562
 21
154.243759
  0
LINE
  8
0
  6
CONTINUOUS
 10
439.170349
 20
10.243780
 11
429.088562
 21
10.243780
  0
LINE
  8
0
  6
CONTINUOUS
 10
519.088379
 20
20.726440
 11
519.088379
 21
143.761078
  0
LINE
  8
0
  6
CONTINUOUS
 10
518.106140
 20
144.760941
 11
443.053772
 21
146.070633
  0
LINE
  8
0
  6
CONTINUOUS
 10
518.106140
 20
19.726620
 11
443.053772
 21
18.416300
  0
LINE
  8
0
  6
CONTINUOUS
 10
445.645172
 20
122.243736
 11
518.021179
 21
122.243736
  0
LINE
  8
0
  6
CONTINUOUS
 10
442.997559
 20
42.243759
 11
517.698181
 21
42.243759
  0
LINE
  8
0
  6
CONTINUOUS
 10
441.585175
 20
12.096740
 11
442.694366
 21
16.236580
  0
LINE
  8
0
  6
CONTINUOUS
 10
441.585175
 20
152.390839
 11
442.694550
 21
148.250320
  0
ARC
  8
0
  6
CONTINUOUS
 10
445.592346
 20
149.026840
 40
3.000000
 50
195.000702
 51
269.000488
  0
ARC
  8
0
  6
CONTINUOUS
 10
439.088562
 20
152.243759
 40
2.000000
 50
0.000000
 51
90.000000
  0
ARC
  8
0
  6
CONTINUOUS
 10
443.088562
 20
148.070358
 40
2.000000
 50
180.000000
 51
269.000610
  0
ARC
  8
0
  6
CONTINUOUS
 10
445.592163
 20
15.460140
 40
3.000000
 50
91.000526
 51
165.000305
  0
ARC
  8
0
  6
CONTINUOUS
 10
443.088562
 20
16.416620
 40
2.000000
 50
91.000633
 51
180.000000
  0
ARC
  8
0
  6
CONTINUOUS
 10
439.088562
 20
12.243780
 40
2.000000
 50
-90.000000
 51
0.000000
  0
ARC
  8
0
  6
CONTINUOUS
 10
518.088379
 20
143.761078
 40
1.000000
 50
0.000000
 51
89.000359
  0
ARC
  8
0
  6
CONTINUOUS
 10
518.088379
 20
20.726440
 40
1.000000
 50
-88.999573
 51
0.000000
  0
LINE
  8
0
  6
CENTER
 10
423.594757
 20
142.243759
 11
446.231354
 21
142.243759
  0
LINE
  8
0
  6
CENTER
 10
423.594757
 20
22.243740
 11
446.231354
 21
22.243740
  0
LINE
  8
0
  6
DASHED
 10
429.088562
 20
147.743759
 11
441.088562
 21
147.743759
  0
LINE
  8
0
  6
DASHED
 10
429.088562
 20
136.743759
 11
441.088562
 21
136.743759
  0
LINE
  8
0
  6
DASHED
 10
429.088562
 20
27.743740
 11
441.088562
 21
27.743740
  0
LINE
  8
0
  6
DASHED
 10
429.088562
 20
16.743740
 11
441.088562
 21
16.743740
  0
LINE
  8
0
  6
CONTINUOUS
 10
535.088379
 20
75.050911
 11
535.088379
 21
125.436600
  0
LINE
  8
0
  6
CONTINUOUS
 10
525.088379
 20
42.048599
 11
525.088379
 21
102.313744
  0
LINE
  8
0
  6
CONTINUOUS
 10
532.858765
 20
128.336044
 11
521.318542
 21
131.401443
  0
LINE
  8
0
  6
CONTINUOUS
 10
532.858765
 20
72.151459
 11
527.318176
 21
70.679802
  0
LINE
  8
0
  6
CONTINUOUS
 10
522.861572
 20
39.149921
 11
521.315552
 21
38.737621
  0
ARC
  8
0
  6
CONTINUOUS
 10
532.088379
 20
125.436600
 40
3.000000
 50
0.000000
 51
75.124413
  0
ARC
  8
0
  6
CONTINUOUS
 10
532.088379
 20
75.050911
 40
3.000000
 50
-75.124207
 51
0.000000
  0
ARC
  8
0
  6
CONTINUOUS
 10
522.088379
 20
42.048599
 40
3.000000
 50
-75.068420
 51
0.000000
  0
ARC
  8
0
  6
CONTINUOUS
 10
522.088379
 20
134.300919
 40
3.000000
 50
180.000000
 51
255.124603
  0
ARC
  8
0
  6
CONTINUOUS
 10
528.088379
 20
67.780365
 40
3.000000
 50
104.876099
 51
180.000000
  0
ARC
  8
0
  6
CONTINUOUS
 10
522.088379
 20
35.838921
 40
3.000000
 50
104.931801
 51
180.000000
  0
LINE
  8
0
  6
CONTINUOUS
 10
534.588379
 20
27.243740
 11
534.588379
 21
36.295101
  0
LINE
  8
0
  6
CONTINUOUS
 10
529.588379
 20
22.243740
 11
520.537354
 21
22.243740
  0
ARC
  8
0
  6
CONTINUOUS
 10
487.088348
 20
69.743759
 40
57.250000
 50
-32.501888
 51
33.025517
  0
ARC
  8
0
  6
CONTINUOUS
 10
487.088348
 20
69.743759
 40
57.250000
 50
243.004898
 51
298.995514
  0
ARC
  8
0
  6
CONTINUOUS
 10
529.588379
 20
27.243740
 40
5.000000
 50
-90.000000
 51
0.000000
  0
ARC
  8
0
  6
CONTINUOUS
 10
539.588379
 20
36.295101
 40
5.000000
 50
147.498093
 51
180.000000
  0
ARC
  8
0
  6
CONTINUOUS
 10
520.537354
 20
17.243740
 40
5.000000
 50
90.000000
 51
106.842003
  0
LINE
  8
0
  6
CONTINUOUS
 10
439.088562
 20
75.050911
 11
439.088562
 21
125.436600
  0
LINE
  8
0
  6
CONTINUOUS
 10
441.318573
 20
72.151451
 11
444.119751
 21
71.407364
  0
LINE
  8
0
  6
CONTINUOUS
 10
441.318573
 20
128.336044
 11
443.142151
 21
128.820480
  0
ARC
  8
0
  6
CONTINUOUS
 10
442.088776
 20
125.436600
 40
3.000000
 50
104.876099
 51
180.000000
  0
ARC
  8
0
  6
CONTINUOUS
 10
442.088562
 20
75.050926
 40
3.000000
 50
180.000000
 51
255.124603
  0
LINE
  8
0
  6
CONTINUOUS
 10
446.588562
 20
119.993736
 11
448.088562
 21
113.743736
  0
LINE
  8
0
  6
CONTINUOUS
 10
448.088562
 20
113.743736
 11
447.088562
 21
108.243736
  0
LINE
  8
0
  6
CONTINUOUS
 10
447.088562
 20
108.243736
 11
449.338562
 21
102.493736
  0
LINE
  8
0
  6
CONTINUOUS
 10
449.338562
 20
102.493736
 11
447.588562
 21
96.743759
  0
LINE
  8
0
  6
CONTINUOUS
 10
447.588562
 20
96.743759
 11
445.588562
 21
91.743759
  0
LINE
  8
0
  6
CONTINUOUS
 10
445.588562
 20
91.743759
 11
446.088562
 21
82.993759
  0
LINE
  8
0
  6
CONTINUOUS
 10
446.088562
 20
82.993759
 11
444.838562
 21
78.493759
  0
LINE
  8
0
  6
CONTINUOUS
 10
444.838562
 20
78.493759
 11
444.838562
 21
73.743759
  0
LINE
  8
0
  6
CONTINUOUS
 10
444.838562
 20
73.743759
 11
442.838562
 21
67.243759
  0
LINE
  8
0
  6
CONTINUOUS
 10
442.838562
 20
67.243759
 11
443.088562
 21
63.243759
  0
LINE
  8
0
  6
CONTINUOUS
 10
443.088562
 20
63.243759
 11
442.088562
 21
58.868759
  0
LINE
  8
0
  6
CONTINUOUS
 10
442.088562
 20
58.868759
 11
438.588562
 21
56.243759
  0
LINE
  8
0
  6
CONTINUOUS
 10
438.588562
 20
56.243759
 11
435.963562
 21
52.993763
  0
LINE
  8
0
  6
CONTINUOUS
 10
435.963562
 20
52.993763
 11
433.088562
 21
51.243763
  0
LINE
  8
0
  6
CONTINUOUS
 10
433.088562
 20
51.243763
 11
430.713562
 21
49.118759
  0
LINE
  8
0
  6
CONTINUOUS
 10
430.713562
 20
49.118759
 11
429.088562
 21
48.747341
  0
LINE
  8
0
  6
CONTINUOUS
 10
438.963562
 20
132.118744
 11
435.463562
 21
132.993744
  0
LINE
  8
0
  6
CONTINUOUS
 10
435.463562
 20
132.993744
 11
432.088562
 21
133.618744
  0
LINE
  8
0
  6
CONTINUOUS
 10
432.088562
 20
133.618744
 11
429.088562
 21
134.618759
  0
LINE
  8
0
  6
CONTINUOUS
 10
429.088562
 20
154.243759
 11
429.088562
 21
111.243736
  0
LINE
  8
0
  6
CONTINUOUS
 10
441.088562
 20
12.243780
 11
441.088562
 21
58.118759
  0
LINE
  8
0
  6
CONTINUOUS
 10
438.963562
 20
132.118744
 11
441.088562
 21
130.493744
  0
LINE
  8
0
  6
CONTINUOUS
 10
441.088562
 20
130.493744
 11
444.463562
 21
127.743736
  0
LINE
  8
0
  6
CONTINUOUS
 10
444.463562
 20
127.743736
 11
444.963562
 21
123.868736
  0
LINE
  8
0
  6
CONTINUOUS
 10
444.963562
 20
123.868736
 11
446.588562
 21
119.993736
  0
LINE
  8
0
  6
CONTINUOUS
 10
436.088562
 20
89.243759
 11
436.088562
 21
53.148521
  0
LINE
  8
0
  6
CONTINUOUS
 10
436.088562
 20
132.837524
 11
436.088562
 21
111.243736
  0
LINE
  8
0
  6
CONTINUOUS
 10
397.088776
 20
89.243759
 11
397.088776
 21
111.243736
  0
LINE
  8
0
  6
CONTINUOUS
 10
437.088776
 20
111.243736
 11
397.088776
 21
111.243736
  0
LINE
  8
0
  6
CONTINUOUS
 10
437.088776
 20
89.243759
 11
397.088776
 21
89.243759
  0
LINE
  8
0
  6
CONTINUOUS
 10
437.088776
 20
112.743736
 11
437.088776
 21
87.743759
  0
LINE
  8
0
  6
CONTINUOUS
 10
439.088776
 20
112.743736
 11
437.088776
 21
112.743736
  0
LINE
  8
0
  6
CONTINUOUS
 10
439.088776
 20
87.743759
 11
437.088776
 21
87.743759
  0
ARC
  8
0
  6
CONTINUOUS
 10
429.088776
 20
100.243759
 40
3.000000
 50
-90.000000
 51
90.000000
  0
LINE
  8
0
  6
CONTINUOUS
 10
429.088776
 20
103.243736
 11
397.088776
 21
103.243736
  0
LINE
  8
0
  6
CONTINUOUS
 10
429.088776
 20
97.243759
 11
397.088776
 21
97.243759
  0
ARC
  8
0
  6
CONTINUOUS
 10
439.170349
 20
151.743759
 40
2.500000
 50
15.000760
 51
90.000000
  0
ARC
  8
0
  6
CONTINUOUS
 10
439.170349
 20
12.743780
 40
2.500000
 50
270.000000
 51
345.000214
  0
ARC
  8
0
  6
CONTINUOUS
 10
487.088348
 20
69.743759
 40
57.499821
 50
303.815704
 51
303.996307
  0
ARC
  8
0
  6
CONTINUOUS
 10
487.088348
 20
69.743759
 40
57.500000
 50
242.540298
 51
299.460602
  0
ARC
  8
0
  6
CONTINUOUS
 10
487.088348
 20
69.743759
 40
57.500000
 50
-33.996769
 51
33.406792
  0
ARC
  8
0
  6
CONTINUOUS
 10
487.088348
 20
69.743759
 40
57.500000
 50
303.815613
 51
303.997314
  0
LINE
  8
0
  6
CONTINUOUS
 10
210.556229
 20
341.958038
 11
210.353531
 21
334.218750
  0
ARC
  8
0
  6
CONTINUOUS
 10
212.055710
 20
341.918762
 40
1.500000
 50
90.000000
 51
178.499649
  0
ARC
  8
0
  6
CONTINUOUS
 10
208.094528
 20
264.418762
 40
1.000000
 50
90.000000
 51
180.000000
  0
ARC
  8
0
  6
CONTINUOUS
 10
207.575577
 20
266.350250
 40
1.000000
 50
285.039185
 51
358.499664
  0
LINE
  8
0
  6
CENTER
 10
264.094543
 20
370.394073
 11
264.094543
 21
211.194809
  0
LINE
  8
0
  6
CONTINUOUS
 10
238.901688
 20
359.418762
 11
289.287384
 21
359.418762
  0
LINE
  8
0
  6
CONTINUOUS
 10
294.250793
 20
349.418762
 11
297.537628
 21
349.418762
  0
ARC
  8
0
  6
CONTINUOUS
 10
289.287384
 20
356.418762
 40
3.000000
 50
-345.124329
 51
-270.000000
  0
LINE
  8
0
  6
CONTINUOUS
 10
300.437073
 20
347.188934
 11
300.846222
 21
345.648590
  0
ARC
  8
0
  6
CONTINUOUS
 10
297.537628
 20
346.418762
 40
3.000000
 50
-345.124329
 51
-270.000000
  0
ARC
  8
0
  6
CONTINUOUS
 10
303.745697
 20
346.418762
 40
3.000000
 50
-165.124313
 51
-90.000000
  0
LINE
  8
0
  6
CONTINUOUS
 10
294.250793
 20
349.418762
 11
292.186829
 21
357.188934
  0
LINE
  8
0
  6
CONTINUOUS
 10
227.751984
 20
347.188934
 11
227.342834
 21
345.648590
  0
ARC
  8
0
  6
CONTINUOUS
 10
230.651443
 20
346.418762
 40
3.000000
 50
90.000000
 51
165.124313
  0
ARC
  8
0
  6
CONTINUOUS
 10
224.443375
 20
346.418762
 40
3.000000
 50
-90.000000
 51
-14.875682
  0
LINE
  8
0
  6
CONTINUOUS
 10
233.938278
 20
349.418762
 11
230.651443
 21
349.418762
  0
ARC
  8
0
  6
CONTINUOUS
 10
238.901688
 20
356.418762
 40
3.000000
 50
90.000000
 51
165.124313
  0
LINE
  8
0
  6
CONTINUOUS
 10
233.938278
 20
349.418762
 11
236.002228
 21
357.188934
  0
LINE
  8
0
  6
CONTINUOUS
 10
253.094528
 20
221.418762
 11
277.594543
 21
221.418762
  0
LINE
  8
0
  6
CONTINUOUS
 10
253.094528
 20
253.418762
 11
253.094528
 21
221.418762
  0
LINE
  8
0
  6
CONTINUOUS
 10
277.594543
 20
253.418762
 11
277.594543
 21
221.418762
  0
LINE
  8
0
  6
CONTINUOUS
 10
274.677551
 20
221.418762
 11
274.677551
 21
253.418762
  0
ARC
  8
0
  6
CONTINUOUS
 10
148.910110
 20
313.012451
 40
65.000000
 50
-22.042076
 51
19.041388
  0
LINE
  8
0
  6
CONTINUOUS
 10
209.159164
 20
288.618774
 11
208.575226
 21
266.324066
  0
LINE
  8
0
  6
CONTINUOUS
 10
33.344532
 20
20.743780
 11
33.344532
 21
96.743759
  0
LINE
  8
0
  6
CONTINUOUS
 10
33.344532
 20
96.743736
 11
147.344528
 21
96.743736
  0
LINE
  8
0
  6
CONTINUOUS
 10
33.344532
 20
20.743780
 11
147.344528
 21
20.743780
  0
LINE
  8
0
  6
CONTINUOUS
 10
33.344532
 20
88.992737
 11
139.344528
 21
88.992737
  0
LINE
  8
0
  6
CONTINUOUS
 10
33.344532
 20
28.494780
 11
139.344528
 21
28.494780
  0
LINE
  8
0
  6
CONTINUOUS
 10
139.344528
 20
94.743736
 11
139.344528
 21
22.743759
  0
ARC
  8
0
  6
CONTINUOUS
 10
141.344528
 20
94.743759
 40
2.000000
 50
90.000000
 51
180.000000
  0
ARC
  8
0
  6
CONTINUOUS
 10
141.344528
 20
22.743780
 40
2.000000
 50
180.000000
 51
270.000000
  0
LINE
  8
0
  6
CONTINUOUS
 10
12.844531
 20
26.743759
 11
12.844531
 21
90.743759
  0
LINE
  8
0
  6
CONTINUOUS
 10
16.808611
 20
96.743759
 11
33.344532
 21
96.743759
  0
LINE
  8
0
  6
CONTINUOUS
 10
16.808626
 20
20.743759
 11
33.344532
 21
20.743759
  0
LINE
  8
0
  6
CONTINUOUS
 10
13.344531
 20
23.743759
 11
13.344531
 21
93.743759
  0
LINE
  8
0
  6
CONTINUOUS
 10
12.844531
 20
90.743759
 11
13.344531
 21
91.243759
  0
LINE
  8
0
  6
CONTINUOUS
 10
12.844531
 20
26.743759
 11
13.344531
 21
26.243759
  0
LINE
  8
0
  6
CONTINUOUS
 10
14.210544
 20
95.243736
 11
13.344531
 21
93.743759
  0
ARC
  8
0
  6
CONTINUOUS
 10
16.808626
 20
93.743782
 40
3.000000
 50
90.000000
 51
150.000397
  0
LINE
  8
0
  6
CONTINUOUS
 10
14.210544
 20
22.243780
 11
13.344531
 21
23.743759
  0
ARC
  8
0
  6
CONTINUOUS
 10
16.808626
 20
23.743759
 40
3.000000
 50
-150.000397
 51
-90.000000
  0
LINE
  8
0
  6
CONTINUOUS
 10
14.926165
 20
88.992767
 11
33.344532
 21
88.992767
  0
LINE
  8
0
  6
CONTINUOUS
 10
33.344532
 20
28.494761
 11
14.926165
 21
28.494761
  0
LINE
  8
0
  6
CONTINUOUS
 10
188.931778
 20
98.196022
 11
147.344528
 21
96.743759
  0
LINE
  8
0
  6
CONTINUOUS
 10
199.344528
 20
18.927879
 11
147.344528
 21
20.743759
  0
LINE
  8
0
  6
CONTINUOUS
 10
191.344528
 20
126.243759
 11
191.344528
 21
99.243759
  0
LINE
  8
0
  6
CONTINUOUS
 10
192.344528
 20
127.243759
 11
199.344543
 21
127.243759
  0
LINE
  8
0
  6
CONTINUOUS
 10
193.844528
 20
12.243760
 11
199.344528
 21
12.243760
  0
LINE
  8
0
  6
CONTINUOUS
 10
191.344528
 20
99.743759
 11
191.344528
 21
28.831104
  0
LINE
  8
0
  6
CONTINUOUS
 10
147.344528
 20
96.743759
 11
147.344528
 21
20.743759
  0
LINE
  8
0
  6
CONTINUOUS
 10
189.931396
 20
110.061562
 11
163.987976
 21
97.537155
  0
ARC
  8
0
  6
CONTINUOUS
 10
192.344528
 20
126.243759
 40
1.000000
 50
90.000000
 51
180.000000
  0
ARC
  8
0
  6
CONTINUOUS
 10
188.844528
 20
112.312943
 40
2.500000
 50
-64.230675
 51
0.000000
  0
ARC
  8
0
  6
CONTINUOUS
 10
188.844528
 20
100.694496
 40
2.500000
 50
-88.000000
 51
0.000000
  0
ARC
  8
0
  6
CONTINUOUS
 10
162.901108
 20
99.788528
 40
2.500000
 50
272.000000
 51
295.769318
  0
LINE
  8
0
  6
CONTINUOUS
 10
192.469604
 20
26.589760
 11
199.344528
 21
26.589760
  0
LINE
  8
0
  6
CONTINUOUS
 10
191.344528
 20
14.743760
 11
191.344528
 21
16.793024
  0
ARC
  8
0
  6
CONTINUOUS
 10
193.844528
 20
14.743760
 40
2.500000
 50
180.000000
 51
270.000000
  0
ARC
  8
0
  6
CONTINUOUS
 10
188.844528
 20
16.793024
 40
2.500000
 50
0.000000
 51
88.000000
  0
LINE
  8
0
  6
CENTER
 10
0.769531
 20
58.743759
 11
232.094528
 21
58.743759
  0
LINE
  8
0
  6
CONTINUOUS
 10
193.844528
 20
253.918762
 11
199.344528
 21
253.918762
  0
LINE
  8
0
  6
CONTINUOUS
 10
193.844528
 20
368.918762
 11
199.344528
 21
368.918762
  0
LINE
  8
0
  6
CONTINUOUS
 10
191.344528
 20
256.418762
 11
191.344528
 21
366.418762
  0
LINE
  8
0
  6
CONTINUOUS
 10
147.344528
 20
349.418762
 11
147.344528
 21
273.418762
  0
LINE
  8
0
  6
CONTINUOUS
 10
188.931778
 20
350.871033
 11
147.344528
 21
349.418762
  0
LINE
  8
0
  6
CONTINUOUS
 10
188.931778
 20
271.966492
 11
147.344528
 21
273.418762
  0
ARC
  8
0
  6
CONTINUOUS
 10
193.844528
 20
366.418762
 40
2.500000
 50
90.000000
 51
180.000000
  0
ARC
  8
0
  6
CONTINUOUS
 10
193.844528
 20
256.418762
 40
2.500000
 50
180.000000
 51
270.000000
  0
LINE
  8
0
  6
CONTINUOUS
 10
147.344528
 20
349.418762
 11
147.344528
 21
273.418762
  0
LINE
  8
0
  6
CONTINUOUS
 10
33.344654
 20
273.418793
 11
33.344654
 21
286.418732
  0
LINE
  8
0
  6
CONTINUOUS
 10
33.344654
 20
349.418732
 11
147.344650
 21
349.418732
  0
LINE
  8
0
  6
CONTINUOUS
 10
33.344654
 20
273.418793
 11
147.344650
 21
273.418793
  0
LINE
  8
0
  6
CONTINUOUS
 10
139.344650
 20
347.418732
 11
139.344650
 21
334.418762
  0
ARC
  8
0
  6
CONTINUOUS
 10
141.344650
 20
347.418762
 40
2.000000
 50
90.000000
 51
180.000000
  0
ARC
  8
0
  6
CONTINUOUS
 10
141.344650
 20
275.418793
 40
2.000000
 50
180.000000
 51
270.000000
  0
LINE
  8
0
  6
CONTINUOUS
 10
12.844653
 20
279.418762
 11
12.844653
 21
343.418762
  0
LINE
  8
0
  6
CONTINUOUS
 10
16.808733
 20
349.418762
 11
33.344654
 21
349.418762
  0
LINE
  8
0
  6
CONTINUOUS
 10
16.808752
 20
273.418762
 11
33.344654
 21
273.418762
  0
LINE
  8
0
  6
CONTINUOUS
 10
13.344653
 20
276.418762
 11
13.344653
 21
346.418762
  0
LINE
  8
0
  6
CONTINUOUS
 10
12.844653
 20
343.418762
 11
13.344653
 21
343.918762
  0
LINE
  8
0
  6
CONTINUOUS
 10
12.844653
 20
279.418762
 11
13.344653
 21
278.918762
  0
LINE
  8
0
  6
CONTINUOUS
 10
14.210673
 20
347.918732
 11
13.344653
 21
346.418762
  0
ARC
  8
0
  6
CONTINUOUS
 10
16.808752
 20
346.418793
 40
3.000000
 50
90.000000
 51
150.000397
  0
LINE
  8
0
  6
CONTINUOUS
 10
14.210673
 20
274.918793
 11
13.344653
 21
276.418762
  0
ARC
  8
0
  6
CONTINUOUS
 10
16.808752
 20
276.418762
 40
3.000000
 50
-150.000397
 51
-90.000000
  0
LINE
  8
0
  6
CONTINUOUS
 10
74.344643
 20
334.418762
 11
139.344650
 21
334.418762
  0
LINE
  8
0
  6
CONTINUOUS
 10
24.344652
 20
334.418762
 11
14.926283
 21
334.418762
  0
LINE
  8
0
  6
CONTINUOUS
 10
74.344650
 20
288.418762
 11
139.344650
 21
288.418762
  0
LINE
  8
0
  6
CONTINUOUS
 10
24.344652
 20
288.418762
 11
14.926283
 21
288.418762
  0
LINE
  8
0
  6
CONTINUOUS
 10
139.344650
 20
288.418762
 11
139.344650
 21
275.418762
  0
LINE
  8
0
  6
CONTINUOUS
 10
33.344654
 20
336.418732
 11
33.344654
 21
349.418762
  0
ARC
  8
0
  6
CONTINUOUS
 10
178.514160
 20
311.418762
 40
15.000000
 50
130.747620
 51
229.252380
  0
LINE
  8
0
  6
CONTINUOUS
 10
190.476349
 20
341.524750
 11
168.723236
 21
322.782654
  0
LINE
  8
0
  6
CONTINUOUS
 10
190.476349
 20
281.312775
 11
168.723236
 21
300.054871
  0
ARC
  8
0
  6
CONTINUOUS
 10
188.844528
 20
343.418732
 40
2.500000
 50
-49.252373
 51
0.000000
  0
ARC
  8
0
  6
CONTINUOUS
 10
188.844528
 20
353.369507
 40
2.500000
 50
-88.000000
 51
0.000000
  0
ARC
  8
0
  6
CONTINUOUS
 10
188.844528
 20
279.418793
 40
2.500000
 50
0.000000
 51
49.252373
  0
ARC
  8
0
  6
CONTINUOUS
 10
188.844528
 20
269.468018
 40
2.500000
 50
0.000000
 51
88.000000
  0
LINE
  8
0
  6
CONTINUOUS
 10
23.344652
 20
318.918732
 11
24.344652
 21
318.918732
  0
ARC
  8
0
  6
CONTINUOUS
 10
23.344673
 20
317.918732
 40
1.000000
 50
90.000000
 51
180.000000
  0
LINE
  8
0
  6
CONTINUOUS
 10
18.844667
 20
315.418732
 11
18.844667
 21
307.418732
  0
LINE
  8
0
  6
CONTINUOUS
 10
18.844667
 20
315.418732
 11
22.344667
 21
316.918732
  0
LINE
  8
0
  6
CONTINUOUS
 10
18.844652
 20
307.418732
 11
22.344652
 21
305.918732
  0
LINE
  8
0
  6
CONTINUOUS
 10
22.344667
 20
317.918732
 11
22.344667
 21
304.918732
  0
LINE
  8
0
  6
CONTINUOUS
 10
23.344652
 20
303.918732
 11
24.344652
 21
303.918732
  0
ARC
  8
0
  6
CONTINUOUS
 10
23.344673
 20
304.918732
 40
1.000000
 50
-180.000000
 51
-90.000000
  0
LINE
  8
0
  6
CONTINUOUS
 10
24.344652
 20
288.418732
 11
24.344652
 21
334.418732
  0
LINE
  8
0
  6
CONTINUOUS
 10
26.344652
 20
336.418732
 11
24.344652
 21
334.418732
  0
LINE
  8
0
  6
CONTINUOUS
 10
26.344652
 20
336.418732
 11
72.344643
 21
336.418732
  0
LINE
  8
0
  6
CONTINUOUS
 10
66.844650
 20
331.918732
 11
66.844650
 21
336.418732
  0
ARC
  8
0
  6
CONTINUOUS
 10
69.844650
 20
331.918732
 40
3.000000
 50
180.000000
 51
270.000000
  0
LINE
  8
0
  6
CONTINUOUS
 10
69.844650
 20
328.918732
 11
74.344643
 21
328.918732
  0
CIRCLE
  8
0
  6
CONTINUOUS
 10
70.844650
 20
332.918732
 40
2.250000
  0
LINE
  8
0
  6
CONTINUOUS
 10
74.344650
 20
288.418732
 11
74.344643
 21
334.418732
  0
LINE
  8
0
  6
CONTINUOUS
 10
72.344643
 20
336.418732
 11
74.344643
 21
334.418732
  0
LINE
  8
0
  6
CONTINUOUS
 10
72.344650
 20
286.418732
 11
74.344650
 21
288.418732
  0
LINE
  8
0
  6
CONTINUOUS
 10
72.344650
 20
286.418732
 11
26.344652
 21
286.418732
  0
LINE
  8
0
  6
CONTINUOUS
 10
24.344652
 20
288.418732
 11
26.344652
 21
286.418732
  0
LINE
  8
0
  6
CONTINUOUS
 10
28.844652
 20
293.918732
 11
24.344664
 21
293.918732
  0
CIRCLE
  8
0
  6
CONTINUOUS
 10
27.844652
 20
289.918732
 40
2.250000
  0
ARC
  8
0
  6
CONTINUOUS
 10
28.844652
 20
290.918732
 40
3.000000
 50
0.000000
 51
90.000000
  0
LINE
  8
0
  6
CONTINUOUS
 10
31.844652
 20
290.918732
 11
31.844652
 21
286.418732
  0
LINE
  8
0
  6
CENTER
 10
49.344654
 20
278.952972
 11
49.344654
 21
343.084991
  0
LINE
  8
0
  6
CONTINUOUS
 10
26.758871
 20
335.418732
 11
25.344660
 21
334.004517
  0
LINE
  8
0
  6
CONTINUOUS
 10
25.344660
 20
293.918732
 11
25.344660
 21
334.004517
  0
LINE
  8
0
  6
CONTINUOUS
 10
66.844650
 20
335.418732
 11
26.758871
 21
335.418732
  0
LINE
  8
0
  6
CONTINUOUS
 10
73.344650
 20
328.918732
 11
73.344650
 21
288.832947
  0
LINE
  8
0
  6
CONTINUOUS
 10
31.844652
 20
287.418732
 11
71.930435
 21
287.418732
  0
LINE
  8
0
  6
CONTINUOUS
 10
71.930435
 20
287.418732
 11
73.344650
 21
288.832947
  0
LINE
  8
0
  6
CONTINUOUS
 10
25.844530
 20
98.243759
 11
72.344528
 21
98.243759
  0
LINE
  8
0
  6
CONTINUOUS
 10
74.344521
 20
128.243759
 11
74.344528
 21
100.243759
  0
LINE
  8
0
  6
CONTINUOUS
 10
24.344530
 20
128.243759
 11
24.344530
 21
100.243759
  0
LINE
  8
0
  6
CONTINUOUS
 10
22.344530
 20
110.243759
 11
74.344528
 21
110.243759
  0
LINE
  8
0
  6
CONTINUOUS
 10
72.344528
 20
98.243759
 11
74.344528
 21
100.243759
  0
LINE
  8
0
  6
CONTINUOUS
 10
24.344530
 20
100.243759
 11
26.344530
 21
98.243759
  0
LINE
  8
0
  6
CONTINUOUS
 10
24.344530
 20
100.243759
 11
74.344528
 21
100.243759
  0
LINE
  8
0
  6
CONTINUOUS
 10
25.344530
 20
129.243759
 11
73.344521
 21
129.243759
  0
LINE
  8
0
  6
CONTINUOUS
 10
73.344521
 20
129.243759
 11
74.344521
 21
128.243759
  0
LINE
  8
0
  6
CONTINUOUS
 10
25.344530
 20
129.243759
 11
24.344530
 21
128.243759
  0
LINE
  8
0
  6
CONTINUOUS
 10
24.344530
 20
128.243759
 11
74.344521
 21
128.243759
  0
LINE
  8
0
  6
CENTER
 10
16.400776
 20
119.743759
 11
28.475780
 21
119.743759
  0
LINE
  8
0
  6
CONTINUOUS
 10
22.344545
 20
126.243759
 11
22.344530
 21
110.243759
  0
LINE
  8
0
  6
CONTINUOUS
 10
23.344530
 20
127.243759
 11
24.344530
 21
127.243759
  0
ARC
  8
0
  6
CONTINUOUS
 10
23.344551
 20
126.243759
 40
1.000000
 50
90.000000
 51
180.000000
  0
LINE
  8
0
  6
CONTINUOUS
 10
18.844545
 20
123.743759
 11
18.844545
 21
115.743759
  0
LINE
  8
0
  6
CONTINUOUS
 10
18.844545
 20
123.743759
 11
22.344545
 21
125.243759
  0
LINE
  8
0
  6
CONTINUOUS
 10
18.844530
 20
115.743759
 11
22.344530
 21
114.243759
  0
LINE
  8
0
  6
CENTER
 10
49.344532
 20
93.550011
 11
49.344532
 21
134.631256
  0
LINE
  8
0
  6
CONTINUOUS
 10
25.844530
 20
98.243759
 11
25.844530
 21
96.743759
  0
LINE
  8
0
  6
CONTINUOUS
 10
71.844528
 20
98.243759
 11
71.844528
 21
96.743759
  0
LINE
  8
0
  6
CENTER
 10
309.094604
 20
268.612488
 11
309.094604
 21
249.778122
  0
LINE
  8
0
  6
DASHED
 10
303.594604
 20
265.418762
 11
303.594604
 21
253.418762
  0
LINE
  8
0
  6
DASHED
 10
314.594604
 20
265.418762
 11
314.594604
 21
253.418762
  0
LINE
  8
0
  6
DASHED
 10
224.594452
 20
265.418762
 11
224.594452
 21
253.418762
  0
LINE
  8
0
  6
CENTER
 10
219.094452
 20
268.612488
 11
219.094452
 21
249.778122
  0
LINE
  8
0
  6
DASHED
 10
213.594452
 20
265.418762
 11
213.594452
 21
253.418762
  0
LINE
  8
0
  6
CONTINUOUS
 10
147.344528
 20
49.343761
 11
191.344528
 21
49.343761
  0
LINE
  8
0
  6
CONTINUOUS
 10
147.344528
 20
39.143761
 11
191.344528
 21
39.143761
  0
TEXT
  8
0
 10
-2.000000
 20
-7.000000
 40
4.000000
 41
1.000000
  1
HFM-22R-300~900-T25WT
 50
0.000000
  0
ENDSEC
  0
EOF
