  0
SECTION
  2
HEADER
  9
$CLAYER
  8
1
  9
$LTSCALE
 40
3.0
  0
ENDSEC
  0
SECTION
  2
TABLES
  0
TABLE
  2
LTYPE
 70
     4
  0
LTYPE
  2
CONTINUOUS
  3
solid line
 70
    64
 72
    65
 73
     0
 40
0.0
  0
LTYPE
  2
DASHED
  3
__ __ __ __ __ __ __ __ __ __ __ __ __ __ __
 70
    64
 72
    65
 73
     2
 40
0.75
 49
0.5
 49
-0.25
  0
LTYPE
  2
CENTER
  3
____ _ ____ _ ____ _ ____ _ ____ _ ____ _ ____
 70
    64
 72
    65
 73
     4
 40
2.0
 49
1.25
 49
-0.25
 49
0.25
 49
-0.25
  0
LTYPE
  2
PHANTOM
  3
_____ _ _ _____ _ _ _____ _ _ _____ _ _ ____
 70
    64
 72
    65
 73
     6
 40
2.5
 49
1.25
 49
-0.25
 49
0.25
 49
-0.25
 49
0.25
 49
-0.25
  0
ENDTAB
  0
TABLE
  2
LAYER
 70
     1
  0
LAYER
  2
0
 70
    64
 62
     7
  6
CONTINUOUS
  0
ENDTAB
  0
TABLE
  2
STYLE
 70
     1
  0
STYLE
  2
STANDARD
 70
     0
 40
0.000000
 41
1.000000
 50
0.000000
 71
     0
 42
3.000000
  3
txt
  4
BIGFONT
  0
ENDTAB
  0
ENDSEC
  0
SECTION
  2
BLOCKS
  0
ENDSEC
  0
SECTION
  2
ENTITIES
  0
LINE
  8
0
  6
CENTER
 10
353.415131
 20
300.868774
 11
-6.605000
 21
300.868774
  0
LINE
  8
0
  6
CONTINUOUS
 10
229.429535
 20
243.618759
 11
226.929535
 21
243.618759
  0
LINE
  8
0
  6
CONTINUOUS
 10
231.446930
 20
358.118774
 11
226.929535
 21
358.118774
  0
LINE
  8
0
  6
CONTINUOUS
 10
234.179535
 20
243.618759
 11
226.929535
 21
243.618759
  0
LINE
  8
0
  6
CONTINUOUS
 10
235.633743
 20
268.868774
 11
226.929535
 21
268.868774
  0
LINE
  8
0
  6
CONTINUOUS
 10
234.196136
 20
253.368759
 11
226.929535
 21
253.368759
  0
LINE
  8
0
  6
CONTINUOUS
 10
232.289932
 20
348.368774
 11
226.929535
 21
348.368774
  0
LINE
  8
0
  6
CONTINUOUS
 10
226.929535
 20
332.868774
 11
343.718323
 21
332.868774
  0
LINE
  8
0
  6
CONTINUOUS
 10
232.446732
 20
357.136261
 11
232.784607
 21
337.781494
  0
ARC
  8
0
  6
CONTINUOUS
 10
231.446838
 20
357.118774
 40
1.000000
 50
1.000700
 51
90.000000
  0
ARC
  8
0
  6
CONTINUOUS
 10
237.783936
 20
337.868774
 40
5.000000
 50
-178.999802
 51
-90.000000
  0
LINE
  8
0
  6
CONTINUOUS
 10
226.929535
 20
358.368774
 11
226.929535
 21
243.368759
  0
LINE
  8
0
  6
CONTINUOUS
 10
348.679535
 20
242.868759
 11
234.679535
 21
242.868759
  0
LINE
  8
0
  6
CONTINUOUS
 10
271.679535
 20
332.868774
 11
271.679535
 21
255.671066
  0
LINE
  8
0
  6
CONTINUOUS
 10
311.679535
 20
332.868774
 11
311.679535
 21
255.671066
  0
LINE
  8
0
  6
CONTINUOUS
 10
345.217834
 20
331.408051
 11
347.201538
 21
255.671066
  0
ARC
  8
0
  6
CONTINUOUS
 10
343.718231
 20
331.368774
 40
1.500000
 50
1.500200
 51
90.000000
  0
LINE
  8
0
  6
CONTINUOUS
 10
235.679535
 20
254.868759
 11
347.391022
 21
254.868759
  0
LINE
  8
0
  6
CONTINUOUS
 10
234.679535
 20
253.868759
 11
234.679535
 21
242.868759
  0
LINE
  8
0
  6
CONTINUOUS
 10
348.679535
 20
242.868759
 11
348.390717
 21
253.894958
  0
ARC
  8
0
  6
CONTINUOUS
 10
347.391022
 20
253.868759
 40
1.000000
 50
1.500100
 51
90.000000
  0
ARC
  8
0
  6
CONTINUOUS
 10
348.200928
 20
255.697266
 40
1.000000
 50
-178.499603
 51
-113.891197
  0
ARC
  8
0
  6
CONTINUOUS
 10
234.179535
 20
243.118759
 40
0.500000
 50
0.000000
 51
90.000000
  0
LINE
  8
0
  6
CENTER
 10
184.890625
 20
59.193760
 11
258.873322
 21
59.193760
  0
LINE
  8
0
  6
CENTER
 10
291.679535
 20
154.775024
 11
291.679535
 21
-12.962500
  0
LINE
  8
0
  6
CENTER
 10
236.087494
 20
89.693764
 11
356.748413
 21
89.693764
  0
LINE
  8
0
  6
CONTINUOUS
 10
241.679459
 20
94.054459
 11
241.679459
 21
49.333073
  0
LINE
  8
0
  6
CONTINUOUS
 10
341.679596
 20
94.054420
 11
341.679596
 21
49.333073
  0
ARC
  8
0
  6
CONTINUOUS
 10
291.679535
 20
71.693771
 40
60.000000
 50
48.189621
 51
131.810394
  0
ARC
  8
0
  6
CONTINUOUS
 10
291.679535
 20
71.693771
 40
60.000000
 50
228.189697
 51
311.810303
  0
ARC
  8
0
  6
CONTINUOUS
 10
311.679596
 20
94.054420
 40
30.000000
 50
0.000000
 51
48.189629
  0
CIRCLE
  8
0
  6
CONTINUOUS
 10
291.679535
 20
89.693764
 40
27.500000
  0
ARC
  8
0
  6
CONTINUOUS
 10
291.679535
 20
89.693764
 40
31.750000
 50
7.552697
 51
172.447403
  0
ARC
  8
0
  6
CONTINUOUS
 10
274.929535
 20
48.193764
 40
20.600000
 50
172.447403
 51
270.000000
  0
ARC
  8
0
  6
CONTINUOUS
 10
308.429535
 20
48.193764
 40
20.600000
 50
-90.000000
 51
7.552700
  0
LINE
  8
0
  6
CONTINUOUS
 10
323.154205
 20
93.866920
 11
328.850800
 21
50.901390
  0
LINE
  8
0
  6
CONTINUOUS
 10
254.508133
 20
50.901352
 11
260.204956
 21
93.866859
  0
LINE
  8
0
  6
CONTINUOUS
 10
274.929535
 20
27.593760
 11
308.429535
 21
27.593760
  0
ARC
  8
0
  6
CONTINUOUS
 10
274.929535
 20
48.193764
 40
19.000000
 50
172.447601
 51
270.000000
  0
ARC
  8
0
  6
CONTINUOUS
 10
308.429535
 20
48.193764
 40
19.000000
 50
-90.000000
 51
7.552700
  0
ARC
  8
0
  6
CONTINUOUS
 10
291.679535
 20
89.693764
 40
30.150000
 50
-187.552597
 51
7.552697
  0
LINE
  8
0
  6
CONTINUOUS
 10
256.094330
 20
50.691055
 11
261.791138
 21
93.656578
  0
LINE
  8
0
  6
CONTINUOUS
 10
321.568024
 20
93.656601
 11
327.264801
 21
50.691090
  0
LINE
  8
0
  6
CONTINUOUS
 10
274.929535
 20
29.193760
 11
308.429535
 21
29.193760
  0
LINE
  8
0
  6
CONTINUOUS
 10
281.383118
 20
36.693760
 11
277.222717
 21
36.693760
  0
LINE
  8
0
  6
CONTINUOUS
 10
283.679535
 20
43.662514
 11
283.679535
 21
36.693760
  0
LINE
  8
0
  6
CONTINUOUS
 10
287.679535
 20
46.193764
 11
287.679535
 21
48.693764
  0
LINE
  8
0
  6
CONTINUOUS
 10
295.679535
 20
46.193764
 11
295.679535
 21
48.693764
  0
LINE
  8
0
  6
CONTINUOUS
 10
290.898346
 20
47.225014
 11
290.898346
 21
38.006260
  0
LINE
  8
0
  6
CONTINUOUS
 10
292.398346
 20
47.225014
 11
292.398346
 21
38.006260
  0
LINE
  8
0
  6
CONTINUOUS
 10
300.273346
 20
47.225014
 11
300.273346
 21
37.943760
  0
LINE
  8
0
  6
CONTINUOUS
 10
301.648346
 20
42.303139
 11
301.648346
 21
37.943760
  0
LINE
  8
0
  6
CONTINUOUS
 10
281.781555
 20
47.100014
 11
277.926544
 21
47.100014
  0
LINE
  8
0
  6
CONTINUOUS
 10
277.926544
 20
47.100014
 11
277.023346
 21
45.980019
  0
LINE
  8
0
  6
CONTINUOUS
 10
277.131958
 20
48.693764
 11
275.679535
 21
46.834007
  0
LINE
  8
0
  6
CONTINUOUS
 10
277.023346
 20
39.066700
 11
277.940918
 21
38.099998
  0
LINE
  8
0
  6
CONTINUOUS
 10
275.679535
 20
38.250938
 11
277.222717
 21
36.693760
  0
LINE
  8
0
  6
CONTINUOUS
 10
275.679535
 20
46.834007
 11
275.679535
 21
38.250938
  0
LINE
  8
0
  6
CONTINUOUS
 10
277.023346
 20
45.980019
 11
277.023346
 21
39.066700
  0
LINE
  8
0
  6
CONTINUOUS
 10
282.523346
 20
46.382912
 11
281.766357
 21
47.100014
  0
LINE
  8
0
  6
CONTINUOUS
 10
282.511322
 20
48.693764
 11
283.679535
 21
47.397270
  0
LINE
  8
0
  6
CONTINUOUS
 10
282.523346
 20
46.193764
 11
283.679535
 21
46.193764
  0
LINE
  8
0
  6
CONTINUOUS
 10
277.131958
 20
48.693764
 11
282.511322
 21
48.693764
  0
LINE
  8
0
  6
CONTINUOUS
 10
280.429535
 20
43.662514
 11
283.679535
 21
43.662514
  0
LINE
  8
0
  6
CONTINUOUS
 10
282.523346
 20
42.350018
 11
280.429535
 21
42.350018
  0
LINE
  8
0
  6
CONTINUOUS
 10
280.023346
 20
38.099998
 11
277.940918
 21
38.099998
  0
LINE
  8
0
  6
CONTINUOUS
 10
282.523346
 20
41.100018
 11
282.523346
 21
42.100018
  0
ARC
  8
0
  6
CONTINUOUS
 10
280.023346
 20
40.600006
 40
2.500000
 50
-89.999786
 51
0.000109
  0
LINE
  8
0
  6
CONTINUOUS
 10
282.523346
 20
37.650318
 11
282.523346
 21
36.693760
  0
LINE
  8
0
  6
CONTINUOUS
 10
283.679535
 20
47.397270
 11
283.679535
 21
46.193764
  0
LINE
  8
0
  6
CONTINUOUS
 10
282.523346
 20
42.350018
 11
282.523346
 21
40.600018
  0
LINE
  8
0
  6
CONTINUOUS
 10
280.429535
 20
43.662514
 11
280.429535
 21
42.350018
  0
LINE
  8
0
  6
CONTINUOUS
 10
282.523346
 20
36.693760
 11
283.679535
 21
36.693760
  0
LINE
  8
0
  6
CONTINUOUS
 10
282.523346
 20
37.650318
 11
281.383118
 21
36.693760
  0
LINE
  8
0
  6
CONTINUOUS
 10
292.398346
 20
38.006260
 11
292.898346
 21
38.006260
  0
LINE
  8
0
  6
CONTINUOUS
 10
290.304535
 20
38.006260
 11
290.304535
 21
36.693760
  0
LINE
  8
0
  6
CONTINUOUS
 10
292.898346
 20
38.006260
 11
292.898346
 21
36.693760
  0
LINE
  8
0
  6
CONTINUOUS
 10
294.845123
 20
46.193764
 11
295.679535
 21
46.193764
  0
LINE
  8
0
  6
CONTINUOUS
 10
287.679535
 20
46.193764
 11
288.567535
 21
46.193764
  0
LINE
  8
0
  6
CONTINUOUS
 10
287.679535
 20
48.693764
 11
295.679535
 21
48.693764
  0
LINE
  8
0
  6
CONTINUOUS
 10
290.304535
 20
36.693760
 11
292.898346
 21
36.693760
  0
LINE
  8
0
  6
CONTINUOUS
 10
290.304535
 20
38.006260
 11
290.898346
 21
38.006260
  0
ARC
  8
0
  6
CONTINUOUS
 10
304.476318
 20
45.490639
 40
3.203126
 50
-73.981873
 51
90.003510
  0
ARC
  8
0
  6
CONTINUOUS
 10
304.476318
 20
45.490639
 40
1.954124
 50
-82.585274
 51
62.411850
  0
LINE
  8
0
  6
CONTINUOUS
 10
299.679535
 20
48.693764
 11
304.476318
 21
48.693764
  0
LINE
  8
0
  6
CONTINUOUS
 10
304.728546
 20
43.552849
 11
301.648346
 21
43.552849
  0
LINE
  8
0
  6
CONTINUOUS
 10
299.679535
 20
48.693764
 11
299.679535
 21
47.225014
  0
LINE
  8
0
  6
CONTINUOUS
 10
301.648346
 20
47.225014
 11
301.648346
 21
43.552849
  0
LINE
  8
0
  6
CONTINUOUS
 10
305.360321
 20
42.411873
 11
307.342743
 21
37.943760
  0
LINE
  8
0
  6
CONTINUOUS
 10
304.208740
 20
42.303139
 11
306.084930
 21
37.943760
  0
LINE
  8
0
  6
CONTINUOUS
 10
299.679535
 20
37.943760
 11
300.273346
 21
37.943760
  0
LINE
  8
0
  6
CONTINUOUS
 10
301.648346
 20
37.943760
 11
302.195129
 21
37.943760
  0
LINE
  8
0
  6
CONTINUOUS
 10
302.195129
 20
36.693760
 11
299.679535
 21
36.693760
  0
LINE
  8
0
  6
CONTINUOUS
 10
305.835724
 20
37.943760
 11
306.084930
 21
37.943760
  0
LINE
  8
0
  6
CONTINUOUS
 10
305.835724
 20
36.693760
 11
307.679535
 21
36.693760
  0
LINE
  8
0
  6
CONTINUOUS
 10
305.835724
 20
37.943760
 11
305.835724
 21
36.693760
  0
LINE
  8
0
  6
CONTINUOUS
 10
302.195129
 20
37.943760
 11
302.195129
 21
36.693760
  0
LINE
  8
0
  6
CONTINUOUS
 10
299.679535
 20
37.943760
 11
299.679535
 21
36.693760
  0
LINE
  8
0
  6
CONTINUOUS
 10
288.997345
 20
47.225014
 11
288.567535
 21
46.193764
  0
LINE
  8
0
  6
CONTINUOUS
 10
294.482758
 20
47.225014
 11
294.845123
 21
46.193764
  0
LINE
  8
0
  6
CONTINUOUS
 10
292.398346
 20
47.225014
 11
294.482758
 21
47.225014
  0
LINE
  8
0
  6
CONTINUOUS
 10
290.898346
 20
47.225014
 11
288.997345
 21
47.225014
  0
LINE
  8
0
  6
CONTINUOUS
 10
301.648346
 20
42.303139
 11
304.208740
 21
42.303139
  0
LINE
  8
0
  6
CONTINUOUS
 10
299.679535
 20
47.225014
 11
300.273346
 21
47.225014
  0
LINE
  8
0
  6
CONTINUOUS
 10
301.648346
 20
47.225014
 11
305.381317
 21
47.222588
  0
LINE
  8
0
  6
CONTINUOUS
 10
282.523346
 20
46.382912
 11
282.523346
 21
46.193764
  0
ARC
  8
0
  6
CONTINUOUS
 10
271.679535
 20
94.054459
 40
30.000000
 50
131.810394
 51
180.000000
  0
ARC
  8
0
  6
CONTINUOUS
 10
271.679535
 20
49.333073
 40
30.000000
 50
180.000000
 51
228.189697
  0
LINE
  8
0
  6
CONTINUOUS
 10
226.929550
 20
116.443741
 11
234.679459
 21
116.443741
  0
LINE
  8
0
  6
CONTINUOUS
 10
232.493912
 20
1.943740
 11
226.929550
 21
1.943740
  0
LINE
  8
0
  6
CONTINUOUS
 10
233.476334
 20
106.693741
 11
226.929550
 21
106.693741
  0
LINE
  8
0
  6
CONTINUOUS
 10
226.929550
 20
11.693740
 11
234.679459
 21
11.693740
  0
LINE
  8
0
  6
CONTINUOUS
 10
233.476334
 20
91.153778
 11
226.929550
 21
91.153778
  0
LINE
  8
0
  6
CONTINUOUS
 10
233.476334
 20
27.233780
 11
226.929550
 21
27.233780
  0
LINE
  8
0
  6
CENTER
 10
238.032578
 20
131.693756
 11
255.329529
 21
131.693756
  0
LINE
  8
0
  6
CENTER
 10
328.117218
 20
131.693756
 11
346.686890
 21
131.693756
  0
LINE
  8
0
  6
CENTER
 10
236.886490
 20
11.693740
 11
255.498138
 21
11.693740
  0
LINE
  8
0
  6
CENTER
 10
327.554596
 20
11.693740
 11
346.686890
 21
11.693740
  0
LINE
  8
0
  6
CENTER
 10
336.679596
 20
140.853165
 11
336.679596
 21
122.712502
  0
LINE
  8
0
  6
CENTER
 10
246.679459
 20
140.600037
 11
246.679459
 21
123.134361
  0
LINE
  8
0
  6
CENTER
 10
246.679459
 20
20.871861
 11
246.679459
 21
1.018125
  0
LINE
  8
0
  6
CENTER
 10
336.679596
 20
21.040640
 11
336.679596
 21
1.018125
  0
CIRCLE
  8
0
  6
CONTINUOUS
 10
336.679596
 20
131.693756
 40
5.500000
  0
CIRCLE
  8
0
  6
CONTINUOUS
 10
246.679459
 20
131.693756
 40
5.500000
  0
CIRCLE
  8
0
  6
CONTINUOUS
 10
246.679459
 20
11.693740
 40
5.500000
  0
CIRCLE
  8
0
  6
CONTINUOUS
 10
336.679596
 20
11.693740
 40
5.500000
  0
ARC
  8
0
  6
CONTINUOUS
 10
336.679596
 20
131.693756
 40
12.000000
 50
0.000000
 51
90.000000
  0
ARC
  8
0
  6
CONTINUOUS
 10
246.679459
 20
131.693756
 40
12.000000
 50
90.000000
 51
180.000000
  0
ARC
  8
0
  6
CONTINUOUS
 10
246.679459
 20
11.693740
 40
12.000000
 50
180.000000
 51
270.000000
  0
ARC
  8
0
  6
CONTINUOUS
 10
336.679596
 20
11.693740
 40
12.000000
 50
-90.000000
 51
0.000000
  0
LINE
  8
0
  6
CONTINUOUS
 10
336.679596
 20
143.693756
 11
246.679459
 21
143.693756
  0
LINE
  8
0
  6
CONTINUOUS
 10
246.679535
 20
-0.306260
 11
336.679596
 21
-0.306260
  0
LINE
  8
0
  6
CONTINUOUS
 10
348.679596
 20
131.693756
 11
348.679596
 21
11.693740
  0
LINE
  8
0
  6
CONTINUOUS
 10
234.679459
 20
131.693726
 11
234.679459
 21
11.693720
  0
LINE
  8
0
  6
CONTINUOUS
 10
319.679596
 20
4.693740
 11
263.679535
 21
4.693740
  0
LINE
  8
0
  6
CONTINUOUS
 10
263.679535
 20
138.693756
 11
319.679596
 21
138.693756
  0
LINE
  8
0
  6
CONTINUOUS
 10
343.679596
 20
114.693741
 11
343.679596
 21
28.693760
  0
LINE
  8
0
  6
CONTINUOUS
 10
239.679459
 20
114.693741
 11
239.679459
 21
28.693760
  0
ARC
  8
0
  6
CONTINUOUS
 10
336.679596
 20
131.693756
 40
11.000000
 50
180.000000
 51
270.000000
  0
ARC
  8
0
  6
CONTINUOUS
 10
246.679459
 20
131.693756
 40
11.000000
 50
-90.000000
 51
0.000000
  0
ARC
  8
0
  6
CONTINUOUS
 10
246.679459
 20
11.693740
 40
11.000000
 50
0.000000
 51
90.000000
  0
ARC
  8
0
  6
CONTINUOUS
 10
336.679596
 20
11.693740
 40
11.000000
 50
90.000000
 51
180.000000
  0
LINE
  8
0
  6
CONTINUOUS
 10
245.679459
 20
22.693741
 11
246.679459
 21
22.693741
  0
LINE
  8
0
  6
CONTINUOUS
 10
257.679535
 20
10.693740
 11
257.679535
 21
11.693740
  0
ARC
  8
0
  6
CONTINUOUS
 10
245.679459
 20
28.693760
 40
6.000000
 50
180.000000
 51
270.000000
  0
ARC
  8
0
  6
CONTINUOUS
 10
263.679535
 20
10.693740
 40
6.000000
 50
180.000000
 51
270.000000
  0
LINE
  8
0
  6
CONTINUOUS
 10
337.679596
 20
22.693741
 11
336.679596
 21
22.693741
  0
LINE
  8
0
  6
CONTINUOUS
 10
325.679596
 20
10.693740
 11
325.679596
 21
11.693720
  0
ARC
  8
0
  6
CONTINUOUS
 10
337.679596
 20
28.693760
 40
6.000000
 50
-90.000000
 51
0.000000
  0
ARC
  8
0
  6
CONTINUOUS
 10
319.679596
 20
10.693740
 40
6.000000
 50
-90.000000
 51
0.000000
  0
LINE
  8
0
  6
CONTINUOUS
 10
337.679596
 20
120.693741
 11
336.679596
 21
120.693741
  0
LINE
  8
0
  6
CONTINUOUS
 10
325.679596
 20
132.693756
 11
325.679596
 21
131.693726
  0
ARC
  8
0
  6
CONTINUOUS
 10
319.679596
 20
132.693756
 40
6.000000
 50
0.000000
 51
90.000000
  0
ARC
  8
0
  6
CONTINUOUS
 10
337.679596
 20
114.693741
 40
6.000000
 50
0.000000
 51
90.000000
  0
LINE
  8
0
  6
CONTINUOUS
 10
245.679459
 20
120.693741
 11
246.679459
 21
120.693741
  0
LINE
  8
0
  6
CONTINUOUS
 10
257.679535
 20
132.693756
 11
257.679535
 21
131.693756
  0
ARC
  8
0
  6
CONTINUOUS
 10
263.679535
 20
132.693817
 40
6.000000
 50
90.000000
 51
180.000000
  0
ARC
  8
0
  6
CONTINUOUS
 10
245.679489
 20
114.693802
 40
6.000000
 50
90.000000
 51
180.000000
  0
LINE
  8
0
  6
CONTINUOUS
 10
233.491669
 20
2.877240
 11
234.042114
 21
11.133660
  0
ARC
  8
0
  6
CONTINUOUS
 10
234.640808
 20
11.093760
 40
0.600000
 50
90.000000
 51
176.186096
  0
ARC
  8
0
  6
CONTINUOUS
 10
232.493912
 20
2.943740
 40
1.000000
 50
270.000000
 51
356.185791
  0
ARC
  8
0
  6
CONTINUOUS
 10
311.679596
 20
49.333084
 40
30.000000
 50
-48.189449
 51
0.000000
  0
LINE
  8
0
  6
CONTINUOUS
 10
299.179535
 20
86.693764
 11
299.179535
 21
92.693741
  0
LINE
  8
0
  6
CONTINUOUS
 10
305.179535
 20
86.693718
 11
305.179535
 21
92.693718
  0
LINE
  8
0
  6
CONTINUOUS
 10
305.179535
 20
86.693718
 11
299.179535
 21
86.693764
  0
LINE
  8
0
  6
CONTINUOUS
 10
305.179535
 20
92.693718
 11
299.179535
 21
92.693741
  0
ARC
  8
0
  6
CONTINUOUS
 10
291.679535
 20
89.693764
 40
11.000000
 50
-344.173401
 51
-15.826600
  0
LINE
  8
0
  6
CONTINUOUS
 10
226.929550
 20
116.693764
 11
226.929550
 21
1.693760
  0
LINE
  8
0
  6
CENTER
 10
514.673340
 20
-17.852461
 11
514.673340
 21
152.891724
  0
LINE
  8
0
  6
CENTER
 10
442.706757
 20
59.193760
 11
580.933167
 21
59.193760
  0
LINE
  8
0
  6
CENTER
 10
411.673553
 20
89.693764
 11
572.347351
 21
89.693764
  0
LINE
  8
0
  6
CONTINUOUS
 10
456.673553
 20
78.693764
 11
456.673553
 21
-0.306260
  0
LINE
  8
0
  6
CONTINUOUS
 10
468.673553
 20
119.943741
 11
468.673553
 21
141.693756
  0
LINE
  8
0
  6
CONTINUOUS
 10
466.755371
 20
143.693756
 11
456.673553
 21
143.693756
  0
LINE
  8
0
  6
CONTINUOUS
 10
466.755371
 20
-0.306220
 11
456.673553
 21
-0.306220
  0
LINE
  8
0
  6
CONTINUOUS
 10
546.673340
 20
10.176440
 11
546.673340
 21
133.211075
  0
LINE
  8
0
  6
CONTINUOUS
 10
545.691162
 20
134.210938
 11
470.638763
 21
135.520645
  0
LINE
  8
0
  6
CONTINUOUS
 10
545.691162
 20
9.176620
 11
470.638763
 21
7.866300
  0
LINE
  8
0
  6
CONTINUOUS
 10
473.230164
 20
111.693741
 11
545.606140
 21
111.693741
  0
LINE
  8
0
  6
CONTINUOUS
 10
470.582550
 20
31.693760
 11
545.283142
 21
31.693760
  0
LINE
  8
0
  6
CONTINUOUS
 10
469.170166
 20
1.546740
 11
470.279358
 21
5.686580
  0
LINE
  8
0
  6
CONTINUOUS
 10
469.170166
 20
141.840836
 11
470.279572
 21
137.700317
  0
ARC
  8
0
  6
CONTINUOUS
 10
473.177368
 20
138.476837
 40
3.000000
 50
195.000702
 51
269.000488
  0
ARC
  8
0
  6
CONTINUOUS
 10
466.673553
 20
141.693756
 40
2.000000
 50
0.000000
 51
90.000000
  0
ARC
  8
0
  6
CONTINUOUS
 10
470.673553
 20
137.520355
 40
2.000000
 50
180.000000
 51
269.000610
  0
ARC
  8
0
  6
CONTINUOUS
 10
473.177155
 20
4.910140
 40
3.000000
 50
91.000526
 51
165.000305
  0
ARC
  8
0
  6
CONTINUOUS
 10
470.673553
 20
5.866620
 40
2.000000
 50
91.000633
 51
180.000000
  0
ARC
  8
0
  6
CONTINUOUS
 10
466.673553
 20
1.693780
 40
2.000000
 50
-90.000000
 51
0.000000
  0
ARC
  8
0
  6
CONTINUOUS
 10
545.673340
 20
133.211075
 40
1.000000
 50
0.000000
 51
89.000359
  0
ARC
  8
0
  6
CONTINUOUS
 10
545.673340
 20
10.176440
 40
1.000000
 50
-88.999573
 51
0.000000
  0
LINE
  8
0
  6
CENTER
 10
451.179749
 20
131.693756
 11
473.816376
 21
131.693756
  0
LINE
  8
0
  6
CENTER
 10
451.179749
 20
11.693740
 11
473.816376
 21
11.693740
  0
LINE
  8
0
  6
DASHED
 10
456.673553
 20
137.193756
 11
468.673553
 21
137.193756
  0
LINE
  8
0
  6
DASHED
 10
456.673553
 20
126.193764
 11
468.673553
 21
126.193764
  0
LINE
  8
0
  6
DASHED
 10
456.673553
 20
17.193741
 11
468.673553
 21
17.193741
  0
LINE
  8
0
  6
DASHED
 10
456.673553
 20
6.193740
 11
468.673553
 21
6.193740
  0
LINE
  8
0
  6
CONTINUOUS
 10
562.673340
 20
64.500916
 11
562.673340
 21
114.886597
  0
LINE
  8
0
  6
CONTINUOUS
 10
552.673340
 20
31.498600
 11
552.673340
 21
91.763741
  0
LINE
  8
0
  6
CONTINUOUS
 10
560.443787
 20
117.786041
 11
548.903564
 21
120.851440
  0
LINE
  8
0
  6
CONTINUOUS
 10
560.443787
 20
61.601463
 11
554.903137
 21
60.129803
  0
LINE
  8
0
  6
CONTINUOUS
 10
550.446533
 20
28.599920
 11
548.900574
 21
28.187620
  0
ARC
  8
0
  6
CONTINUOUS
 10
559.673340
 20
114.886597
 40
3.000000
 50
0.000000
 51
75.124413
  0
ARC
  8
0
  6
CONTINUOUS
 10
559.673340
 20
64.500916
 40
3.000000
 50
-75.124207
 51
0.000000
  0
ARC
  8
0
  6
CONTINUOUS
 10
549.673340
 20
31.498600
 40
3.000000
 50
-75.068420
 51
0.000000
  0
ARC
  8
0
  6
CONTINUOUS
 10
549.673340
 20
123.750923
 40
3.000000
 50
180.000000
 51
255.124603
  0
ARC
  8
0
  6
CONTINUOUS
 10
555.673340
 20
57.230366
 40
3.000000
 50
104.876099
 51
180.000000
  0
ARC
  8
0
  6
CONTINUOUS
 10
549.673340
 20
25.288919
 40
3.000000
 50
104.931801
 51
180.000000
  0
LINE
  8
0
  6
CONTINUOUS
 10
562.173340
 20
16.693741
 11
562.173340
 21
25.745100
  0
LINE
  8
0
  6
CONTINUOUS
 10
557.173340
 20
11.693740
 11
548.122375
 21
11.693740
  0
ARC
  8
0
  6
CONTINUOUS
 10
514.673340
 20
59.193760
 40
57.250000
 50
-32.501888
 51
33.025517
  0
ARC
  8
0
  6
CONTINUOUS
 10
514.673340
 20
59.193760
 40
57.250000
 50
243.004898
 51
298.995514
  0
ARC
  8
0
  6
CONTINUOUS
 10
557.173340
 20
16.693741
 40
5.000000
 50
-90.000000
 51
0.000000
  0
ARC
  8
0
  6
CONTINUOUS
 10
567.173340
 20
25.745100
 40
5.000000
 50
147.498093
 51
180.000000
  0
ARC
  8
0
  6
CONTINUOUS
 10
548.122375
 20
6.693740
 40
5.000000
 50
90.000000
 51
106.842003
  0
LINE
  8
0
  6
CONTINUOUS
 10
466.673553
 20
64.500908
 11
466.673553
 21
114.886597
  0
LINE
  8
0
  6
CONTINUOUS
 10
468.903564
 20
61.601452
 11
471.704773
 21
60.857365
  0
LINE
  8
0
  6
CONTINUOUS
 10
468.903564
 20
117.786041
 11
470.727173
 21
118.270477
  0
ARC
  8
0
  6
CONTINUOUS
 10
469.673767
 20
114.886597
 40
3.000000
 50
104.876099
 51
180.000000
  0
ARC
  8
0
  6
CONTINUOUS
 10
469.673553
 20
64.500931
 40
3.000000
 50
180.000000
 51
255.124603
  0
LINE
  8
0
  6
CONTINUOUS
 10
474.173553
 20
109.443741
 11
475.673553
 21
103.193741
  0
LINE
  8
0
  6
CONTINUOUS
 10
475.673553
 20
103.193741
 11
474.673553
 21
97.693741
  0
LINE
  8
0
  6
CONTINUOUS
 10
474.673553
 20
97.693741
 11
476.923553
 21
91.943741
  0
LINE
  8
0
  6
CONTINUOUS
 10
476.923553
 20
91.943741
 11
475.173553
 21
86.193764
  0
LINE
  8
0
  6
CONTINUOUS
 10
475.173553
 20
86.193764
 11
473.173553
 21
81.193764
  0
LINE
  8
0
  6
CONTINUOUS
 10
473.173553
 20
81.193764
 11
473.673553
 21
72.443764
  0
LINE
  8
0
  6
CONTINUOUS
 10
473.673553
 20
72.443764
 11
472.423553
 21
67.943764
  0
LINE
  8
0
  6
CONTINUOUS
 10
472.423553
 20
67.943764
 11
472.423553
 21
63.193760
  0
LINE
  8
0
  6
CONTINUOUS
 10
472.423553
 20
63.193760
 11
470.423553
 21
56.693760
  0
LINE
  8
0
  6
CONTINUOUS
 10
470.423553
 20
56.693760
 11
470.673553
 21
52.693760
  0
LINE
  8
0
  6
CONTINUOUS
 10
470.673553
 20
52.693760
 11
469.673553
 21
48.318760
  0
LINE
  8
0
  6
CONTINUOUS
 10
469.673553
 20
48.318760
 11
466.173553
 21
45.693760
  0
LINE
  8
0
  6
CONTINUOUS
 10
466.173553
 20
45.693760
 11
463.548553
 21
42.443764
  0
LINE
  8
0
  6
CONTINUOUS
 10
463.548553
 20
42.443764
 11
460.673553
 21
40.693764
  0
LINE
  8
0
  6
CONTINUOUS
 10
460.673553
 20
40.693764
 11
458.298553
 21
38.568760
  0
LINE
  8
0
  6
CONTINUOUS
 10
458.298553
 20
38.568760
 11
456.673553
 21
38.197338
  0
LINE
  8
0
  6
CONTINUOUS
 10
466.548553
 20
121.568741
 11
463.048553
 21
122.443741
  0
LINE
  8
0
  6
CONTINUOUS
 10
463.048553
 20
122.443741
 11
459.673553
 21
123.068741
  0
LINE
  8
0
  6
CONTINUOUS
 10
459.673553
 20
123.068741
 11
456.673553
 21
124.068764
  0
LINE
  8
0
  6
CONTINUOUS
 10
456.673553
 20
143.693756
 11
456.673553
 21
100.693741
  0
LINE
  8
0
  6
CONTINUOUS
 10
468.673553
 20
1.693780
 11
468.673553
 21
47.568760
  0
LINE
  8
0
  6
CONTINUOUS
 10
466.548553
 20
121.568741
 11
468.673553
 21
119.943741
  0
LINE
  8
0
  6
CONTINUOUS
 10
468.673553
 20
119.943741
 11
472.048553
 21
117.193741
  0
LINE
  8
0
  6
CONTINUOUS
 10
472.048553
 20
117.193741
 11
472.548553
 21
113.318741
  0
LINE
  8
0
  6
CONTINUOUS
 10
472.548553
 20
113.318741
 11
474.173553
 21
109.443741
  0
LINE
  8
0
  6
CONTINUOUS
 10
463.673553
 20
78.693764
 11
463.673553
 21
42.598522
  0
LINE
  8
0
  6
CONTINUOUS
 10
463.673553
 20
122.287521
 11
463.673553
 21
100.693741
  0
LINE
  8
0
  6
CONTINUOUS
 10
424.673767
 20
78.693764
 11
424.673767
 21
100.693741
  0
LINE
  8
0
  6
CONTINUOUS
 10
464.673767
 20
100.693741
 11
424.673767
 21
100.693741
  0
LINE
  8
0
  6
CONTINUOUS
 10
464.673767
 20
78.693764
 11
424.673767
 21
78.693764
  0
LINE
  8
0
  6
CONTINUOUS
 10
464.673767
 20
102.193741
 11
464.673767
 21
77.193764
  0
LINE
  8
0
  6
CONTINUOUS
 10
466.673767
 20
102.193741
 11
464.673767
 21
102.193741
  0
LINE
  8
0
  6
CONTINUOUS
 10
466.673767
 20
77.193764
 11
464.673767
 21
77.193764
  0
ARC
  8
0
  6
CONTINUOUS
 10
456.673767
 20
89.693764
 40
3.000000
 50
-90.000000
 51
90.000000
  0
LINE
  8
0
  6
CONTINUOUS
 10
456.673767
 20
92.693741
 11
424.673767
 21
92.693741
  0
LINE
  8
0
  6
CONTINUOUS
 10
456.673767
 20
86.693764
 11
424.673767
 21
86.693764
  0
ARC
  8
0
  6
CONTINUOUS
 10
466.755371
 20
141.193756
 40
2.500000
 50
15.000760
 51
90.000000
  0
ARC
  8
0
  6
CONTINUOUS
 10
466.755371
 20
2.193780
 40
2.500000
 50
270.000000
 51
345.000214
  0
ARC
  8
0
  6
CONTINUOUS
 10
514.673340
 20
59.193760
 40
57.499821
 50
303.815704
 51
303.996307
  0
ARC
  8
0
  6
CONTINUOUS
 10
514.673340
 20
59.193760
 40
57.500000
 50
242.540298
 51
299.460602
  0
ARC
  8
0
  6
CONTINUOUS
 10
514.673340
 20
59.193760
 40
57.500000
 50
-33.996769
 51
33.406792
  0
ARC
  8
0
  6
CONTINUOUS
 10
514.673340
 20
59.193760
 40
57.500000
 50
303.815613
 51
303.997314
  0
LINE
  8
0
  6
CONTINUOUS
 10
238.141235
 20
331.408020
 11
237.938522
 21
323.668762
  0
ARC
  8
0
  6
CONTINUOUS
 10
239.640717
 20
331.368774
 40
1.500000
 50
90.000000
 51
178.499649
  0
ARC
  8
0
  6
CONTINUOUS
 10
235.679535
 20
253.868759
 40
1.000000
 50
90.000000
 51
180.000000
  0
ARC
  8
0
  6
CONTINUOUS
 10
235.160568
 20
255.800262
 40
1.000000
 50
285.039185
 51
358.499664
  0
LINE
  8
0
  6
CENTER
 10
291.679535
 20
359.844055
 11
291.679535
 21
200.644806
  0
LINE
  8
0
  6
CONTINUOUS
 10
266.486694
 20
348.868774
 11
316.872375
 21
348.868774
  0
LINE
  8
0
  6
CONTINUOUS
 10
321.835785
 20
338.868774
 11
325.122620
 21
338.868774
  0
ARC
  8
0
  6
CONTINUOUS
 10
316.872375
 20
345.868774
 40
3.000000
 50
-345.124329
 51
-270.000000
  0
LINE
  8
0
  6
CONTINUOUS
 10
328.022095
 20
336.638916
 11
328.431244
 21
335.098602
  0
ARC
  8
0
  6
CONTINUOUS
 10
325.122620
 20
335.868774
 40
3.000000
 50
-345.124329
 51
-270.000000
  0
ARC
  8
0
  6
CONTINUOUS
 10
331.330688
 20
335.868774
 40
3.000000
 50
-165.124313
 51
-90.000000
  0
LINE
  8
0
  6
CONTINUOUS
 10
321.835785
 20
338.868774
 11
319.771820
 21
346.638916
  0
LINE
  8
0
  6
CONTINUOUS
 10
255.336975
 20
336.638916
 11
254.927826
 21
335.098602
  0
ARC
  8
0
  6
CONTINUOUS
 10
258.236450
 20
335.868774
 40
3.000000
 50
90.000000
 51
165.124313
  0
ARC
  8
0
  6
CONTINUOUS
 10
252.028381
 20
335.868774
 40
3.000000
 50
-90.000000
 51
-14.875682
  0
LINE
  8
0
  6
CONTINUOUS
 10
261.523285
 20
338.868774
 11
258.236450
 21
338.868774
  0
ARC
  8
0
  6
CONTINUOUS
 10
266.486694
 20
345.868774
 40
3.000000
 50
90.000000
 51
165.124313
  0
LINE
  8
0
  6
CONTINUOUS
 10
261.523285
 20
338.868774
 11
263.587219
 21
346.638916
  0
LINE
  8
0
  6
CONTINUOUS
 10
280.679535
 20
210.868759
 11
305.179535
 21
210.868759
  0
LINE
  8
0
  6
CONTINUOUS
 10
280.679535
 20
242.868759
 11
280.679535
 21
210.868759
  0
LINE
  8
0
  6
CONTINUOUS
 10
305.179535
 20
242.868759
 11
305.179535
 21
210.868759
  0
LINE
  8
0
  6
CONTINUOUS
 10
302.262543
 20
210.868759
 11
302.262543
 21
242.868759
  0
ARC
  8
0
  6
CONTINUOUS
 10
176.495117
 20
302.462433
 40
65.000000
 50
-22.042076
 51
19.041388
  0
LINE
  8
0
  6
CONTINUOUS
 10
236.744171
 20
278.068756
 11
236.160233
 21
255.774078
  0
LINE
  8
0
  6
CONTINUOUS
 10
60.929531
 20
86.193741
 11
174.929535
 21
86.193741
  0
LINE
  8
0
  6
CONTINUOUS
 10
60.929531
 20
10.193780
 11
174.929535
 21
10.193780
  0
LINE
  8
0
  6
CONTINUOUS
 10
60.929531
 20
78.442741
 11
166.929535
 21
78.442741
  0
LINE
  8
0
  6
CONTINUOUS
 10
60.929531
 20
17.944780
 11
166.929535
 21
17.944780
  0
LINE
  8
0
  6
CONTINUOUS
 10
166.929535
 20
84.193741
 11
166.929535
 21
12.193760
  0
ARC
  8
0
  6
CONTINUOUS
 10
168.929535
 20
84.193764
 40
2.000000
 50
90.000000
 51
180.000000
  0
ARC
  8
0
  6
CONTINUOUS
 10
168.929535
 20
12.193780
 40
2.000000
 50
180.000000
 51
270.000000
  0
LINE
  8
0
  6
CONTINUOUS
 10
216.516785
 20
87.646019
 11
174.929535
 21
86.193764
  0
LINE
  8
0
  6
CONTINUOUS
 10
226.929535
 20
8.377880
 11
174.929535
 21
10.193760
  0
LINE
  8
0
  6
CONTINUOUS
 10
218.929535
 20
115.693764
 11
218.929535
 21
88.693764
  0
LINE
  8
0
  6
CONTINUOUS
 10
219.929535
 20
116.693764
 11
226.929550
 21
116.693764
  0
LINE
  8
0
  6
CONTINUOUS
 10
221.429535
 20
1.693760
 11
226.929535
 21
1.693760
  0
LINE
  8
0
  6
CONTINUOUS
 10
218.929535
 20
89.193764
 11
218.929535
 21
18.281103
  0
LINE
  8
0
  6
CONTINUOUS
 10
174.929535
 20
86.193764
 11
174.929535
 21
10.193760
  0
LINE
  8
0
  6
CONTINUOUS
 10
217.516403
 20
99.511566
 11
191.572968
 21
86.987152
  0
ARC
  8
0
  6
CONTINUOUS
 10
219.929535
 20
115.693764
 40
1.000000
 50
90.000000
 51
180.000000
  0
ARC
  8
0
  6
CONTINUOUS
 10
216.429535
 20
101.762939
 40
2.500000
 50
-64.230675
 51
0.000000
  0
ARC
  8
0
  6
CONTINUOUS
 10
216.429535
 20
90.144493
 40
2.500000
 50
-88.000000
 51
0.000000
  0
ARC
  8
0
  6
CONTINUOUS
 10
190.486099
 20
89.238533
 40
2.500000
 50
272.000000
 51
295.769318
  0
LINE
  8
0
  6
CONTINUOUS
 10
220.054611
 20
16.039761
 11
226.929535
 21
16.039761
  0
LINE
  8
0
  6
CONTINUOUS
 10
218.929535
 20
4.193760
 11
218.929535
 21
6.243024
  0
ARC
  8
0
  6
CONTINUOUS
 10
221.429535
 20
4.193760
 40
2.500000
 50
180.000000
 51
270.000000
  0
ARC
  8
0
  6
CONTINUOUS
 10
216.429535
 20
6.243024
 40
2.500000
 50
0.000000
 51
88.000000
  0
LINE
  8
0
  6
CENTER
 10
-8.070000
 20
48.193760
 11
259.679535
 21
48.193760
  0
LINE
  8
0
  6
CONTINUOUS
 10
221.429535
 20
243.368759
 11
226.929535
 21
243.368759
  0
LINE
  8
0
  6
CONTINUOUS
 10
221.429535
 20
358.368774
 11
226.929535
 21
358.368774
  0
LINE
  8
0
  6
CONTINUOUS
 10
218.929535
 20
245.868759
 11
218.929535
 21
355.868774
  0
LINE
  8
0
  6
CONTINUOUS
 10
174.929535
 20
338.868774
 11
174.929535
 21
262.868774
  0
LINE
  8
0
  6
CONTINUOUS
 10
216.516785
 20
340.321014
 11
174.929535
 21
338.868774
  0
LINE
  8
0
  6
CONTINUOUS
 10
216.516785
 20
261.416504
 11
174.929535
 21
262.868774
  0
ARC
  8
0
  6
CONTINUOUS
 10
221.429535
 20
355.868774
 40
2.500000
 50
90.000000
 51
180.000000
  0
ARC
  8
0
  6
CONTINUOUS
 10
221.429535
 20
245.868759
 40
2.500000
 50
180.000000
 51
270.000000
  0
LINE
  8
0
  6
CONTINUOUS
 10
174.929535
 20
338.868774
 11
174.929535
 21
262.868774
  0
LINE
  8
0
  6
CONTINUOUS
 10
60.929653
 20
338.868744
 11
174.929657
 21
338.868744
  0
LINE
  8
0
  6
CONTINUOUS
 10
60.929653
 20
262.868774
 11
174.929657
 21
262.868774
  0
LINE
  8
0
  6
CONTINUOUS
 10
166.929657
 20
336.868744
 11
166.929657
 21
323.868774
  0
ARC
  8
0
  6
CONTINUOUS
 10
168.929657
 20
336.868774
 40
2.000000
 50
90.000000
 51
180.000000
  0
ARC
  8
0
  6
CONTINUOUS
 10
168.929657
 20
264.868774
 40
2.000000
 50
180.000000
 51
270.000000
  0
LINE
  8
0
  6
CONTINUOUS
 10
60.929653
 20
323.868774
 11
166.929657
 21
323.868774
  0
LINE
  8
0
  6
CONTINUOUS
 10
60.929653
 20
277.868774
 11
166.929657
 21
277.868774
  0
LINE
  8
0
  6
CONTINUOUS
 10
166.929657
 20
277.868774
 11
166.929657
 21
264.868774
  0
ARC
  8
0
  6
CONTINUOUS
 10
206.099167
 20
300.868774
 40
15.000000
 50
130.747620
 51
229.252380
  0
LINE
  8
0
  6
CONTINUOUS
 10
218.061356
 20
330.974762
 11
196.308243
 21
312.232635
  0
LINE
  8
0
  6
CONTINUOUS
 10
218.061356
 20
270.762756
 11
196.308243
 21
289.504883
  0
ARC
  8
0
  6
CONTINUOUS
 10
216.429535
 20
332.868744
 40
2.500000
 50
-49.252373
 51
0.000000
  0
ARC
  8
0
  6
CONTINUOUS
 10
216.429535
 20
342.819489
 40
2.500000
 50
-88.000000
 51
0.000000
  0
ARC
  8
0
  6
CONTINUOUS
 10
216.429535
 20
268.868774
 40
2.500000
 50
0.000000
 51
49.252373
  0
ARC
  8
0
  6
CONTINUOUS
 10
216.429535
 20
258.918030
 40
2.500000
 50
0.000000
 51
88.000000
  0
LINE
  8
0
  6
CONTINUOUS
 10
60.929653
 20
338.868744
 11
60.929653
 21
307.734772
  0
LINE
  8
0
  6
CONTINUOUS
 10
60.929653
 20
338.868744
 11
51.429653
 21
338.868744
  0
LINE
  8
0
  6
CONTINUOUS
 10
60.929653
 20
262.868744
 11
51.429653
 21
262.868744
  0
LINE
  8
0
  6
CONTINUOUS
 10
60.929653
 20
277.868744
 11
51.429653
 21
277.868744
  0
LINE
  8
0
  6
CONTINUOUS
 10
60.929653
 20
323.868744
 11
51.429653
 21
323.868744
  0
LINE
  8
0
  6
CONTINUOUS
 10
54.429653
 20
294.868744
 11
54.429653
 21
306.868744
  0
LINE
  8
0
  6
CONTINUOUS
 10
61.429653
 20
294.868744
 11
61.429653
 21
306.868744
  0
LINE
  8
0
  6
CONTINUOUS
 10
55.429653
 20
307.868744
 11
60.429653
 21
307.868744
  0
LINE
  8
0
  6
CONTINUOUS
 10
60.429653
 20
293.868744
 11
55.429653
 21
293.868744
  0
ARC
  8
0
  6
CONTINUOUS
 10
60.429653
 20
306.868744
 40
1.000000
 50
0.000000
 51
90.000000
  0
ARC
  8
0
  6
CONTINUOUS
 10
55.429653
 20
306.868744
 40
1.000000
 50
90.000000
 51
180.000000
  0
ARC
  8
0
  6
CONTINUOUS
 10
55.429653
 20
294.868744
 40
1.000000
 50
180.000000
 51
270.000000
  0
ARC
  8
0
  6
CONTINUOUS
 10
60.429653
 20
294.868744
 40
1.000000
 50
-90.000000
 51
0.000000
  0
LINE
  8
0
  6
CONTINUOUS
 10
58.929653
 20
297.368744
 11
58.929653
 21
304.368744
  0
LINE
  8
0
  6
CONTINUOUS
 10
56.929653
 20
297.368744
 11
56.929653
 21
304.368744
  0
ARC
  8
0
  6
CONTINUOUS
 10
57.929653
 20
304.368744
 40
1.000000
 50
90.000000
 51
180.000000
  0
ARC
  8
0
  6
CONTINUOUS
 10
57.929653
 20
304.368744
 40
1.000000
 50
0.000000
 51
90.000000
  0
ARC
  8
0
  6
CONTINUOUS
 10
57.929653
 20
297.368744
 40
1.000000
 50
180.000000
 51
270.000000
  0
ARC
  8
0
  6
CONTINUOUS
 10
57.929653
 20
297.368744
 40
1.000000
 50
-90.000000
 51
0.000000
  0
LINE
  8
0
  6
CONTINUOUS
 10
60.929653
 20
294.002716
 11
60.929653
 21
262.868744
  0
LINE
  8
0
  6
CONTINUOUS
 10
51.429653
 20
260.868744
 11
51.429653
 21
340.868744
  0
LINE
  8
0
  6
CONTINUOUS
 10
7.429653
 20
340.868744
 11
51.429653
 21
340.868744
  0
LINE
  8
0
  6
CONTINUOUS
 10
7.429653
 20
260.868744
 11
51.429653
 21
260.868744
  0
LINE
  8
0
  6
CONTINUOUS
 10
2.429653
 20
265.868744
 11
2.429653
 21
335.868744
  0
ARC
  8
0
  6
CONTINUOUS
 10
7.429653
 20
335.868744
 40
5.000000
 50
90.000000
 51
180.000000
  0
ARC
  8
0
  6
CONTINUOUS
 10
7.429653
 20
265.868744
 40
5.000000
 50
180.000000
 51
270.000000
  0
LINE
  8
0
  6
CONTINUOUS
 10
4.929653
 20
324.868744
 11
51.429653
 21
324.868744
  0
LINE
  8
0
  6
CONTINUOUS
 10
4.929653
 20
274.868744
 11
51.429653
 21
274.868744
  0
LINE
  8
0
  6
CONTINUOUS
 10
51.429531
 20
86.193741
 11
60.929531
 21
86.193741
  0
LINE
  8
0
  6
CONTINUOUS
 10
51.429531
 20
10.193740
 11
60.929531
 21
10.193740
  0
LINE
  8
0
  6
CONTINUOUS
 10
51.429531
 20
8.193740
 11
51.429531
 21
88.193741
  0
LINE
  8
0
  6
CONTINUOUS
 10
61.429531
 20
87.693741
 11
61.429531
 21
86.193741
  0
LINE
  8
0
  6
CONTINUOUS
 10
54.429531
 20
87.693741
 11
54.429531
 21
86.193741
  0
LINE
  8
0
  6
CONTINUOUS
 10
54.429531
 20
87.693741
 11
61.429531
 21
87.693741
  0
LINE
  8
0
  6
CONTINUOUS
 10
58.829521
 20
100.693741
 11
58.829521
 21
87.693741
  0
LINE
  8
0
  6
CONTINUOUS
 10
57.029541
 20
101.318741
 11
57.029541
 21
87.693741
  0
LINE
  8
0
  6
CONTINUOUS
 10
55.229530
 20
99.256241
 11
55.229530
 21
87.693741
  0
LINE
  8
0
  6
CONTINUOUS
 10
60.629532
 20
100.068741
 11
60.629532
 21
87.693741
  0
LINE
  8
0
  6
CONTINUOUS
 10
57.029541
 20
101.318741
 11
58.829521
 21
100.693741
  0
LINE
  8
0
  6
CONTINUOUS
 10
55.229530
 20
99.256241
 11
57.029541
 21
99.881241
  0
LINE
  8
0
  6
CONTINUOUS
 10
60.629532
 20
100.068741
 11
58.830532
 21
99.621040
  0
LINE
  8
0
  6
CONTINUOUS
 10
51.429531
 20
78.442741
 11
60.929531
 21
78.442741
  0
LINE
  8
0
  6
CONTINUOUS
 10
51.429531
 20
17.944740
 11
60.929531
 21
17.944740
  0
LINE
  8
0
  6
CONTINUOUS
 10
7.429531
 20
88.193741
 11
51.429531
 21
88.193741
  0
LINE
  8
0
  6
CONTINUOUS
 10
7.429531
 20
8.193740
 11
51.429531
 21
8.193740
  0
LINE
  8
0
  6
CONTINUOUS
 10
2.429531
 20
13.193740
 11
2.429531
 21
83.193741
  0
ARC
  8
0
  6
CONTINUOUS
 10
7.429531
 20
83.193741
 40
5.000000
 50
90.000000
 51
180.000000
  0
ARC
  8
0
  6
CONTINUOUS
 10
7.429531
 20
13.193740
 40
5.000000
 50
180.000000
 51
270.000000
  0
LINE
  8
0
  6
CONTINUOUS
 10
4.929531
 20
74.193741
 11
51.429531
 21
74.193741
  0
LINE
  8
0
  6
CONTINUOUS
 10
4.929531
 20
24.193741
 11
51.429531
 21
24.193741
  0
LINE
  8
0
  6
CONTINUOUS
 10
60.929531
 20
10.193760
 11
60.929531
 21
86.193741
  0
LINE
  8
0
  6
CENTER
 10
246.679459
 20
259.393738
 11
246.679459
 21
238.765625
  0
LINE
  8
0
  6
DASHED
 10
252.179459
 20
254.868759
 11
252.179459
 21
242.868759
  0
LINE
  8
0
  6
DASHED
 10
241.179459
 20
254.868759
 11
241.179459
 21
242.868759
  0
LINE
  8
0
  6
DASHED
 10
331.179596
 20
254.868759
 11
331.179596
 21
242.868759
  0
LINE
  8
0
  6
CENTER
 10
336.679596
 20
259.393738
 11
336.679596
 21
238.765625
  0
LINE
  8
0
  6
DASHED
 10
342.179596
 20
254.868759
 11
342.179596
 21
242.868759
  0
LINE
  8
0
  6
CONTINUOUS
 10
174.929535
 20
38.793758
 11
218.929535
 21
38.793758
  0
LINE
  8
0
  6
CONTINUOUS
 10
174.929535
 20
28.593760
 11
218.929535
 21
28.593760
  0
TEXT
  8
0
 10
-8.000000
 20
-17.000000
 40
4.000000
 41
1.000000
  1
HFM-22R-300~450-T40W
 50
0.000000
  0
ENDSEC
  0
EOF
