  0
SECTION
  2
HEADER
  9
$CLAYER
  8
1
  9
$LTSCALE
 40
3.0
  0
ENDSEC
  0
SECTION
  2
TABLES
  0
TABLE
  2
LTYPE
 70
     4
  0
LTYPE
  2
CONTINUOUS
  3
solid line
 70
    64
 72
    65
 73
     0
 40
0.0
  0
LTYPE
  2
DASHED
  3
__ __ __ __ __ __ __ __ __ __ __ __ __ __ __
 70
    64
 72
    65
 73
     2
 40
0.75
 49
0.5
 49
-0.25
  0
LTYPE
  2
CENTER
  3
____ _ ____ _ ____ _ ____ _ ____ _ ____ _ ____
 70
    64
 72
    65
 73
     4
 40
2.0
 49
1.25
 49
-0.25
 49
0.25
 49
-0.25
  0
LTYPE
  2
PHANTOM
  3
_____ _ _ _____ _ _ _____ _ _ _____ _ _ ____
 70
    64
 72
    65
 73
     6
 40
2.5
 49
1.25
 49
-0.25
 49
0.25
 49
-0.25
 49
0.25
 49
-0.25
  0
ENDTAB
  0
TABLE
  2
LAYER
 70
     1
  0
LAYER
  2
0
 70
    64
 62
     7
  6
CONTINUOUS
  0
ENDTAB
  0
TABLE
  2
STYLE
 70
     1
  0
STYLE
  2
STANDARD
 70
     0
 40
0.000000
 41
1.000000
 50
0.000000
 71
     0
 42
3.000000
  3
txt
  4
BIGFONT
  0
ENDTAB
  0
ENDSEC
  0
SECTION
  2
BLOCKS
  0
ENDSEC
  0
SECTION
  2
ENTITIES
  0
LINE
  8
0
  6
CENTER
 10
353.530121
 20
297.518768
 11
-8.577780
 21
297.518768
  0
LINE
  8
0
  6
CONTINUOUS
 10
229.544525
 20
240.268753
 11
227.044525
 21
240.268753
  0
LINE
  8
0
  6
CONTINUOUS
 10
231.561935
 20
354.768768
 11
227.044525
 21
354.768768
  0
LINE
  8
0
  6
CONTINUOUS
 10
234.294525
 20
240.268753
 11
227.044525
 21
240.268753
  0
LINE
  8
0
  6
CONTINUOUS
 10
235.748749
 20
265.518768
 11
227.044525
 21
265.518768
  0
LINE
  8
0
  6
CONTINUOUS
 10
234.311127
 20
250.018753
 11
227.044525
 21
250.018753
  0
LINE
  8
0
  6
CONTINUOUS
 10
232.404938
 20
345.018768
 11
227.044525
 21
345.018768
  0
LINE
  8
0
  6
CONTINUOUS
 10
227.044525
 20
329.518768
 11
343.833344
 21
329.518768
  0
LINE
  8
0
  6
CONTINUOUS
 10
232.561737
 20
353.786255
 11
232.899612
 21
334.431488
  0
ARC
  8
0
  6
CONTINUOUS
 10
231.561829
 20
353.768768
 40
1.000000
 50
1.000700
 51
90.000000
  0
ARC
  8
0
  6
CONTINUOUS
 10
237.898926
 20
334.518768
 40
5.000000
 50
-178.999802
 51
-90.000000
  0
LINE
  8
0
  6
CONTINUOUS
 10
227.044525
 20
355.018768
 11
227.044525
 21
240.018753
  0
LINE
  8
0
  6
CONTINUOUS
 10
348.794525
 20
239.518753
 11
234.794525
 21
239.518753
  0
LINE
  8
0
  6
CONTINUOUS
 10
271.794525
 20
329.518768
 11
271.794525
 21
252.321060
  0
LINE
  8
0
  6
CONTINUOUS
 10
311.794525
 20
329.518768
 11
311.794525
 21
252.321060
  0
LINE
  8
0
  6
CONTINUOUS
 10
345.332825
 20
328.058075
 11
347.316528
 21
252.321060
  0
ARC
  8
0
  6
CONTINUOUS
 10
343.833221
 20
328.018768
 40
1.500000
 50
1.500200
 51
90.000000
  0
LINE
  8
0
  6
CONTINUOUS
 10
235.794525
 20
251.518753
 11
347.506042
 21
251.518753
  0
LINE
  8
0
  6
CONTINUOUS
 10
234.794525
 20
250.518753
 11
234.794525
 21
239.518753
  0
LINE
  8
0
  6
CONTINUOUS
 10
348.794525
 20
239.518753
 11
348.505737
 21
250.544952
  0
ARC
  8
0
  6
CONTINUOUS
 10
347.506042
 20
250.518753
 40
1.000000
 50
1.500100
 51
90.000000
  0
ARC
  8
0
  6
CONTINUOUS
 10
348.315918
 20
252.347260
 40
1.000000
 50
-178.499603
 51
-113.891197
  0
ARC
  8
0
  6
CONTINUOUS
 10
234.294525
 20
239.768753
 40
0.500000
 50
0.000000
 51
90.000000
  0
LINE
  8
0
  6
CENTER
 10
148.881256
 20
55.843761
 11
258.988342
 21
55.843761
  0
LINE
  8
0
  6
CENTER
 10
291.794525
 20
151.425018
 11
291.794525
 21
-16.312500
  0
LINE
  8
0
  6
CENTER
 10
239.362503
 20
86.343758
 11
356.863403
 21
86.343758
  0
LINE
  8
0
  6
CONTINUOUS
 10
241.794449
 20
90.704460
 11
241.794449
 21
45.983070
  0
LINE
  8
0
  6
CONTINUOUS
 10
341.794617
 20
90.704422
 11
341.794617
 21
45.983070
  0
ARC
  8
0
  6
CONTINUOUS
 10
291.794525
 20
68.343773
 40
60.000000
 50
48.189621
 51
131.810394
  0
ARC
  8
0
  6
CONTINUOUS
 10
291.794525
 20
68.343773
 40
60.000000
 50
228.189697
 51
311.810303
  0
ARC
  8
0
  6
CONTINUOUS
 10
311.794617
 20
90.704422
 40
30.000000
 50
0.000000
 51
48.189629
  0
CIRCLE
  8
0
  6
CONTINUOUS
 10
291.794525
 20
86.343758
 40
27.500000
  0
ARC
  8
0
  6
CONTINUOUS
 10
291.794525
 20
86.343758
 40
31.750000
 50
7.552697
 51
172.447403
  0
ARC
  8
0
  6
CONTINUOUS
 10
275.044525
 20
44.843765
 40
20.600000
 50
172.447403
 51
270.000000
  0
ARC
  8
0
  6
CONTINUOUS
 10
308.544525
 20
44.843765
 40
20.600000
 50
-90.000000
 51
7.552700
  0
LINE
  8
0
  6
CONTINUOUS
 10
323.269226
 20
90.516922
 11
328.965820
 21
47.551392
  0
LINE
  8
0
  6
CONTINUOUS
 10
254.623138
 20
47.551353
 11
260.319946
 21
90.516861
  0
LINE
  8
0
  6
CONTINUOUS
 10
275.044525
 20
24.243759
 11
308.544525
 21
24.243759
  0
ARC
  8
0
  6
CONTINUOUS
 10
275.044525
 20
44.843765
 40
19.000000
 50
172.447601
 51
270.000000
  0
ARC
  8
0
  6
CONTINUOUS
 10
308.544525
 20
44.843765
 40
19.000000
 50
-90.000000
 51
7.552700
  0
ARC
  8
0
  6
CONTINUOUS
 10
291.794525
 20
86.343758
 40
30.150000
 50
-187.552597
 51
7.552697
  0
LINE
  8
0
  6
CONTINUOUS
 10
256.209320
 20
47.341057
 11
261.906128
 21
90.306580
  0
LINE
  8
0
  6
CONTINUOUS
 10
321.683014
 20
90.306602
 11
327.379822
 21
47.341091
  0
LINE
  8
0
  6
CONTINUOUS
 10
275.044525
 20
25.843760
 11
308.544525
 21
25.843760
  0
LINE
  8
0
  6
CONTINUOUS
 10
281.498138
 20
33.343761
 11
277.337738
 21
33.343761
  0
LINE
  8
0
  6
CONTINUOUS
 10
283.794525
 20
40.312515
 11
283.794525
 21
33.343761
  0
LINE
  8
0
  6
CONTINUOUS
 10
287.794525
 20
42.843765
 11
287.794525
 21
45.343765
  0
LINE
  8
0
  6
CONTINUOUS
 10
295.794525
 20
42.843765
 11
295.794525
 21
45.343765
  0
LINE
  8
0
  6
CONTINUOUS
 10
291.013336
 20
43.875015
 11
291.013336
 21
34.656261
  0
LINE
  8
0
  6
CONTINUOUS
 10
292.513336
 20
43.875015
 11
292.513336
 21
34.656261
  0
LINE
  8
0
  6
CONTINUOUS
 10
300.388336
 20
43.875015
 11
300.388336
 21
34.593761
  0
LINE
  8
0
  6
CONTINUOUS
 10
301.763336
 20
38.953136
 11
301.763336
 21
34.593761
  0
LINE
  8
0
  6
CONTINUOUS
 10
281.896545
 20
43.750015
 11
278.041534
 21
43.750015
  0
LINE
  8
0
  6
CONTINUOUS
 10
278.041534
 20
43.750015
 11
277.138336
 21
42.630016
  0
LINE
  8
0
  6
CONTINUOUS
 10
277.246948
 20
45.343765
 11
275.794525
 21
43.484009
  0
LINE
  8
0
  6
CONTINUOUS
 10
277.138336
 20
35.716702
 11
278.055939
 21
34.750000
  0
LINE
  8
0
  6
CONTINUOUS
 10
275.794525
 20
34.900940
 11
277.337738
 21
33.343761
  0
LINE
  8
0
  6
CONTINUOUS
 10
275.794525
 20
43.484009
 11
275.794525
 21
34.900940
  0
LINE
  8
0
  6
CONTINUOUS
 10
277.138336
 20
42.630016
 11
277.138336
 21
35.716702
  0
LINE
  8
0
  6
CONTINUOUS
 10
282.638336
 20
43.032913
 11
281.881348
 21
43.750015
  0
LINE
  8
0
  6
CONTINUOUS
 10
282.626343
 20
45.343765
 11
283.794525
 21
44.047272
  0
LINE
  8
0
  6
CONTINUOUS
 10
282.638336
 20
42.843765
 11
283.794525
 21
42.843765
  0
LINE
  8
0
  6
CONTINUOUS
 10
277.246948
 20
45.343765
 11
282.626343
 21
45.343765
  0
LINE
  8
0
  6
CONTINUOUS
 10
280.544525
 20
40.312515
 11
283.794525
 21
40.312515
  0
LINE
  8
0
  6
CONTINUOUS
 10
282.638336
 20
39.000015
 11
280.544525
 21
39.000015
  0
LINE
  8
0
  6
CONTINUOUS
 10
280.138336
 20
34.750000
 11
278.055939
 21
34.750000
  0
LINE
  8
0
  6
CONTINUOUS
 10
282.638336
 20
37.750015
 11
282.638336
 21
38.750015
  0
ARC
  8
0
  6
CONTINUOUS
 10
280.138336
 20
37.250008
 40
2.500000
 50
-89.999786
 51
0.000109
  0
LINE
  8
0
  6
CONTINUOUS
 10
282.638336
 20
34.300320
 11
282.638336
 21
33.343761
  0
LINE
  8
0
  6
CONTINUOUS
 10
283.794525
 20
44.047272
 11
283.794525
 21
42.843765
  0
LINE
  8
0
  6
CONTINUOUS
 10
282.638336
 20
39.000015
 11
282.638336
 21
37.250015
  0
LINE
  8
0
  6
CONTINUOUS
 10
280.544525
 20
40.312515
 11
280.544525
 21
39.000015
  0
LINE
  8
0
  6
CONTINUOUS
 10
282.638336
 20
33.343761
 11
283.794525
 21
33.343761
  0
LINE
  8
0
  6
CONTINUOUS
 10
282.638336
 20
34.300320
 11
281.498138
 21
33.343761
  0
LINE
  8
0
  6
CONTINUOUS
 10
292.513336
 20
34.656261
 11
293.013336
 21
34.656261
  0
LINE
  8
0
  6
CONTINUOUS
 10
290.419525
 20
34.656261
 11
290.419525
 21
33.343761
  0
LINE
  8
0
  6
CONTINUOUS
 10
293.013336
 20
34.656261
 11
293.013336
 21
33.343761
  0
LINE
  8
0
  6
CONTINUOUS
 10
294.960144
 20
42.843765
 11
295.794525
 21
42.843765
  0
LINE
  8
0
  6
CONTINUOUS
 10
287.794525
 20
42.843765
 11
288.682526
 21
42.843765
  0
LINE
  8
0
  6
CONTINUOUS
 10
287.794525
 20
45.343765
 11
295.794525
 21
45.343765
  0
LINE
  8
0
  6
CONTINUOUS
 10
290.419525
 20
33.343761
 11
293.013336
 21
33.343761
  0
LINE
  8
0
  6
CONTINUOUS
 10
290.419525
 20
34.656261
 11
291.013336
 21
34.656261
  0
ARC
  8
0
  6
CONTINUOUS
 10
304.591339
 20
42.140636
 40
3.203126
 50
-73.981873
 51
90.003510
  0
ARC
  8
0
  6
CONTINUOUS
 10
304.591339
 20
42.140636
 40
1.954124
 50
-82.585274
 51
62.411850
  0
LINE
  8
0
  6
CONTINUOUS
 10
299.794525
 20
45.343765
 11
304.591339
 21
45.343765
  0
LINE
  8
0
  6
CONTINUOUS
 10
304.843536
 20
40.202850
 11
301.763336
 21
40.202850
  0
LINE
  8
0
  6
CONTINUOUS
 10
299.794525
 20
45.343765
 11
299.794525
 21
43.875015
  0
LINE
  8
0
  6
CONTINUOUS
 10
301.763336
 20
43.875015
 11
301.763336
 21
40.202850
  0
LINE
  8
0
  6
CONTINUOUS
 10
305.475342
 20
39.061874
 11
307.457764
 21
34.593761
  0
LINE
  8
0
  6
CONTINUOUS
 10
304.323761
 20
38.953136
 11
306.199921
 21
34.593761
  0
LINE
  8
0
  6
CONTINUOUS
 10
299.794525
 20
34.593761
 11
300.388336
 21
34.593761
  0
LINE
  8
0
  6
CONTINUOUS
 10
301.763336
 20
34.593761
 11
302.310120
 21
34.593761
  0
LINE
  8
0
  6
CONTINUOUS
 10
302.310120
 20
33.343761
 11
299.794525
 21
33.343761
  0
LINE
  8
0
  6
CONTINUOUS
 10
305.950745
 20
34.593761
 11
306.199921
 21
34.593761
  0
LINE
  8
0
  6
CONTINUOUS
 10
305.950745
 20
33.343761
 11
307.794525
 21
33.343761
  0
LINE
  8
0
  6
CONTINUOUS
 10
305.950745
 20
34.593761
 11
305.950745
 21
33.343761
  0
LINE
  8
0
  6
CONTINUOUS
 10
302.310120
 20
34.593761
 11
302.310120
 21
33.343761
  0
LINE
  8
0
  6
CONTINUOUS
 10
299.794525
 20
34.593761
 11
299.794525
 21
33.343761
  0
LINE
  8
0
  6
CONTINUOUS
 10
289.112335
 20
43.875015
 11
288.682526
 21
42.843765
  0
LINE
  8
0
  6
CONTINUOUS
 10
294.597748
 20
43.875015
 11
294.960144
 21
42.843765
  0
LINE
  8
0
  6
CONTINUOUS
 10
292.513336
 20
43.875015
 11
294.597748
 21
43.875015
  0
LINE
  8
0
  6
CONTINUOUS
 10
291.013336
 20
43.875015
 11
289.112335
 21
43.875015
  0
LINE
  8
0
  6
CONTINUOUS
 10
301.763336
 20
38.953136
 11
304.323761
 21
38.953136
  0
LINE
  8
0
  6
CONTINUOUS
 10
299.794525
 20
43.875015
 11
300.388336
 21
43.875015
  0
LINE
  8
0
  6
CONTINUOUS
 10
301.763336
 20
43.875015
 11
305.496338
 21
43.872589
  0
LINE
  8
0
  6
CONTINUOUS
 10
282.638336
 20
43.032913
 11
282.638336
 21
42.843765
  0
ARC
  8
0
  6
CONTINUOUS
 10
271.794525
 20
90.704460
 40
30.000000
 50
131.810394
 51
180.000000
  0
ARC
  8
0
  6
CONTINUOUS
 10
271.794525
 20
45.983070
 40
30.000000
 50
180.000000
 51
228.189697
  0
LINE
  8
0
  6
CONTINUOUS
 10
227.044556
 20
113.093742
 11
234.794449
 21
113.093742
  0
LINE
  8
0
  6
CONTINUOUS
 10
232.608917
 20
-1.406260
 11
227.044556
 21
-1.406260
  0
LINE
  8
0
  6
CONTINUOUS
 10
233.591324
 20
103.343742
 11
227.044556
 21
103.343742
  0
LINE
  8
0
  6
CONTINUOUS
 10
227.044556
 20
8.343740
 11
234.794449
 21
8.343740
  0
LINE
  8
0
  6
CONTINUOUS
 10
233.591324
 20
87.803780
 11
227.044556
 21
87.803780
  0
LINE
  8
0
  6
CONTINUOUS
 10
233.591324
 20
23.883780
 11
227.044556
 21
23.883780
  0
LINE
  8
0
  6
CENTER
 10
238.147568
 20
128.343765
 11
255.444534
 21
128.343765
  0
LINE
  8
0
  6
CENTER
 10
328.232208
 20
128.343765
 11
352.813416
 21
128.343765
  0
LINE
  8
0
  6
CENTER
 10
237.001495
 20
8.343740
 11
255.613129
 21
8.343740
  0
LINE
  8
0
  6
CENTER
 10
327.669617
 20
8.343740
 11
352.475800
 21
8.343740
  0
LINE
  8
0
  6
CENTER
 10
336.794617
 20
137.503159
 11
336.794617
 21
119.362503
  0
LINE
  8
0
  6
CENTER
 10
246.794449
 20
137.250046
 11
246.794449
 21
119.784363
  0
LINE
  8
0
  6
CENTER
 10
246.794449
 20
17.521860
 11
246.794449
 21
-8.887480
  0
LINE
  8
0
  6
CENTER
 10
336.794617
 20
17.690639
 11
336.794617
 21
-8.212500
  0
CIRCLE
  8
0
  6
CONTINUOUS
 10
336.794617
 20
128.343765
 40
5.500000
  0
CIRCLE
  8
0
  6
CONTINUOUS
 10
246.794449
 20
128.343765
 40
5.500000
  0
CIRCLE
  8
0
  6
CONTINUOUS
 10
246.794449
 20
8.343740
 40
5.500000
  0
CIRCLE
  8
0
  6
CONTINUOUS
 10
336.794617
 20
8.343740
 40
5.500000
  0
ARC
  8
0
  6
CONTINUOUS
 10
336.794617
 20
128.343765
 40
12.000000
 50
0.000000
 51
90.000000
  0
ARC
  8
0
  6
CONTINUOUS
 10
246.794449
 20
128.343765
 40
12.000000
 50
90.000000
 51
180.000000
  0
ARC
  8
0
  6
CONTINUOUS
 10
246.794449
 20
8.343740
 40
12.000000
 50
180.000000
 51
270.000000
  0
ARC
  8
0
  6
CONTINUOUS
 10
336.794617
 20
8.343740
 40
12.000000
 50
-90.000000
 51
0.000000
  0
LINE
  8
0
  6
CONTINUOUS
 10
336.794617
 20
140.343765
 11
246.794449
 21
140.343765
  0
LINE
  8
0
  6
CONTINUOUS
 10
246.794525
 20
-3.656260
 11
336.794617
 21
-3.656260
  0
LINE
  8
0
  6
CONTINUOUS
 10
348.794617
 20
128.343765
 11
348.794617
 21
8.343740
  0
LINE
  8
0
  6
CONTINUOUS
 10
234.794449
 20
128.343719
 11
234.794449
 21
8.343720
  0
LINE
  8
0
  6
CONTINUOUS
 10
319.794617
 20
1.343740
 11
263.794525
 21
1.343740
  0
LINE
  8
0
  6
CONTINUOUS
 10
263.794525
 20
135.343765
 11
319.794617
 21
135.343765
  0
LINE
  8
0
  6
CONTINUOUS
 10
343.794617
 20
111.343742
 11
343.794617
 21
25.343760
  0
LINE
  8
0
  6
CONTINUOUS
 10
239.794449
 20
111.343742
 11
239.794449
 21
25.343760
  0
ARC
  8
0
  6
CONTINUOUS
 10
336.794617
 20
128.343765
 40
11.000000
 50
180.000000
 51
270.000000
  0
ARC
  8
0
  6
CONTINUOUS
 10
246.794449
 20
128.343765
 40
11.000000
 50
-90.000000
 51
0.000000
  0
ARC
  8
0
  6
CONTINUOUS
 10
246.794449
 20
8.343740
 40
11.000000
 50
0.000000
 51
90.000000
  0
ARC
  8
0
  6
CONTINUOUS
 10
336.794617
 20
8.343740
 40
11.000000
 50
90.000000
 51
180.000000
  0
LINE
  8
0
  6
CONTINUOUS
 10
245.794449
 20
19.343740
 11
246.794449
 21
19.343740
  0
LINE
  8
0
  6
CONTINUOUS
 10
257.794525
 20
7.343740
 11
257.794525
 21
8.343740
  0
ARC
  8
0
  6
CONTINUOUS
 10
245.794449
 20
25.343760
 40
6.000000
 50
180.000000
 51
270.000000
  0
ARC
  8
0
  6
CONTINUOUS
 10
263.794525
 20
7.343740
 40
6.000000
 50
180.000000
 51
270.000000
  0
LINE
  8
0
  6
CONTINUOUS
 10
337.794617
 20
19.343740
 11
336.794617
 21
19.343740
  0
LINE
  8
0
  6
CONTINUOUS
 10
325.794617
 20
7.343740
 11
325.794617
 21
8.343720
  0
ARC
  8
0
  6
CONTINUOUS
 10
337.794617
 20
25.343760
 40
6.000000
 50
-90.000000
 51
0.000000
  0
ARC
  8
0
  6
CONTINUOUS
 10
319.794617
 20
7.343740
 40
6.000000
 50
-90.000000
 51
0.000000
  0
LINE
  8
0
  6
CONTINUOUS
 10
337.794617
 20
117.343742
 11
336.794617
 21
117.343742
  0
LINE
  8
0
  6
CONTINUOUS
 10
325.794617
 20
129.343765
 11
325.794617
 21
128.343719
  0
ARC
  8
0
  6
CONTINUOUS
 10
319.794617
 20
129.343765
 40
6.000000
 50
0.000000
 51
90.000000
  0
ARC
  8
0
  6
CONTINUOUS
 10
337.794617
 20
111.343742
 40
6.000000
 50
0.000000
 51
90.000000
  0
LINE
  8
0
  6
CONTINUOUS
 10
245.794449
 20
117.343742
 11
246.794449
 21
117.343742
  0
LINE
  8
0
  6
CONTINUOUS
 10
257.794525
 20
129.343765
 11
257.794525
 21
128.343765
  0
ARC
  8
0
  6
CONTINUOUS
 10
263.794525
 20
129.343826
 40
6.000000
 50
90.000000
 51
180.000000
  0
ARC
  8
0
  6
CONTINUOUS
 10
245.794495
 20
111.343803
 40
6.000000
 50
90.000000
 51
180.000000
  0
LINE
  8
0
  6
CONTINUOUS
 10
233.606674
 20
-0.472760
 11
234.157104
 21
7.783660
  0
ARC
  8
0
  6
CONTINUOUS
 10
234.755814
 20
7.743760
 40
0.600000
 50
90.000000
 51
176.186096
  0
ARC
  8
0
  6
CONTINUOUS
 10
232.608917
 20
-0.406260
 40
1.000000
 50
270.000000
 51
356.185791
  0
ARC
  8
0
  6
CONTINUOUS
 10
311.794617
 20
45.983086
 40
30.000000
 50
-48.189449
 51
0.000000
  0
LINE
  8
0
  6
CONTINUOUS
 10
299.294525
 20
83.343758
 11
299.294525
 21
89.343742
  0
LINE
  8
0
  6
CONTINUOUS
 10
305.294525
 20
83.343719
 11
305.294525
 21
89.343719
  0
LINE
  8
0
  6
CONTINUOUS
 10
305.294525
 20
83.343719
 11
299.294525
 21
83.343758
  0
LINE
  8
0
  6
CONTINUOUS
 10
305.294525
 20
89.343719
 11
299.294525
 21
89.343742
  0
ARC
  8
0
  6
CONTINUOUS
 10
291.794525
 20
86.343758
 40
11.000000
 50
-344.173401
 51
-15.826600
  0
LINE
  8
0
  6
CONTINUOUS
 10
227.044556
 20
113.343758
 11
227.044556
 21
-1.656240
  0
LINE
  8
0
  6
CENTER
 10
514.788391
 20
-21.202459
 11
514.788391
 21
149.541718
  0
LINE
  8
0
  6
CENTER
 10
442.821747
 20
55.843761
 11
581.048157
 21
55.843761
  0
LINE
  8
0
  6
CENTER
 10
411.788574
 20
86.343758
 11
613.631165
 21
86.343758
  0
LINE
  8
0
  6
CONTINUOUS
 10
456.788574
 20
75.343758
 11
456.788574
 21
-3.656260
  0
LINE
  8
0
  6
CONTINUOUS
 10
468.788574
 20
116.593742
 11
468.788574
 21
138.343765
  0
LINE
  8
0
  6
CONTINUOUS
 10
466.870361
 20
140.343765
 11
456.788574
 21
140.343765
  0
LINE
  8
0
  6
CONTINUOUS
 10
466.870361
 20
-3.656220
 11
456.788574
 21
-3.656220
  0
LINE
  8
0
  6
CONTINUOUS
 10
546.788391
 20
6.826440
 11
546.788391
 21
129.861084
  0
LINE
  8
0
  6
CONTINUOUS
 10
545.806152
 20
130.860947
 11
470.753754
 21
132.170639
  0
LINE
  8
0
  6
CONTINUOUS
 10
545.806152
 20
5.826620
 11
470.753754
 21
4.516300
  0
LINE
  8
0
  6
CONTINUOUS
 10
473.345154
 20
108.343742
 11
545.721191
 21
108.343742
  0
LINE
  8
0
  6
CONTINUOUS
 10
470.697571
 20
28.343760
 11
545.398132
 21
28.343760
  0
LINE
  8
0
  6
CONTINUOUS
 10
469.285156
 20
-1.803260
 11
470.394348
 21
2.336580
  0
LINE
  8
0
  6
CONTINUOUS
 10
469.285156
 20
138.490845
 11
470.394562
 21
134.350327
  0
ARC
  8
0
  6
CONTINUOUS
 10
473.292358
 20
135.126846
 40
3.000000
 50
195.000702
 51
269.000488
  0
ARC
  8
0
  6
CONTINUOUS
 10
466.788574
 20
138.343765
 40
2.000000
 50
0.000000
 51
90.000000
  0
ARC
  8
0
  6
CONTINUOUS
 10
470.788574
 20
134.170364
 40
2.000000
 50
180.000000
 51
269.000610
  0
ARC
  8
0
  6
CONTINUOUS
 10
473.292175
 20
1.560140
 40
3.000000
 50
91.000526
 51
165.000305
  0
ARC
  8
0
  6
CONTINUOUS
 10
470.788574
 20
2.516620
 40
2.000000
 50
91.000633
 51
180.000000
  0
ARC
  8
0
  6
CONTINUOUS
 10
466.788574
 20
-1.656220
 40
2.000000
 50
-90.000000
 51
0.000000
  0
ARC
  8
0
  6
CONTINUOUS
 10
545.788391
 20
129.861084
 40
1.000000
 50
0.000000
 51
89.000359
  0
ARC
  8
0
  6
CONTINUOUS
 10
545.788391
 20
6.826440
 40
1.000000
 50
-88.999573
 51
0.000000
  0
LINE
  8
0
  6
CENTER
 10
451.294769
 20
128.343765
 11
473.931366
 21
128.343765
  0
LINE
  8
0
  6
CENTER
 10
451.294769
 20
8.343740
 11
473.931366
 21
8.343740
  0
LINE
  8
0
  6
DASHED
 10
456.788574
 20
133.843765
 11
468.788574
 21
133.843765
  0
LINE
  8
0
  6
DASHED
 10
456.788574
 20
122.843758
 11
468.788574
 21
122.843758
  0
LINE
  8
0
  6
DASHED
 10
456.788574
 20
13.843740
 11
468.788574
 21
13.843740
  0
LINE
  8
0
  6
DASHED
 10
456.788574
 20
2.843740
 11
468.788574
 21
2.843740
  0
LINE
  8
0
  6
CONTINUOUS
 10
562.788391
 20
61.150913
 11
562.788391
 21
111.536598
  0
LINE
  8
0
  6
CONTINUOUS
 10
552.788391
 20
28.148600
 11
552.788391
 21
88.413742
  0
LINE
  8
0
  6
CONTINUOUS
 10
560.558777
 20
114.436043
 11
549.018555
 21
117.501442
  0
LINE
  8
0
  6
CONTINUOUS
 10
560.558777
 20
58.251461
 11
555.018188
 21
56.779804
  0
LINE
  8
0
  6
CONTINUOUS
 10
550.561584
 20
25.249920
 11
549.015564
 21
24.837620
  0
ARC
  8
0
  6
CONTINUOUS
 10
559.788391
 20
111.536598
 40
3.000000
 50
0.000000
 51
75.124413
  0
ARC
  8
0
  6
CONTINUOUS
 10
559.788391
 20
61.150913
 40
3.000000
 50
-75.124207
 51
0.000000
  0
ARC
  8
0
  6
CONTINUOUS
 10
549.788391
 20
28.148600
 40
3.000000
 50
-75.068420
 51
0.000000
  0
ARC
  8
0
  6
CONTINUOUS
 10
549.788391
 20
120.400917
 40
3.000000
 50
180.000000
 51
255.124603
  0
ARC
  8
0
  6
CONTINUOUS
 10
555.788391
 20
53.880367
 40
3.000000
 50
104.876099
 51
180.000000
  0
ARC
  8
0
  6
CONTINUOUS
 10
549.788391
 20
21.938919
 40
3.000000
 50
104.931801
 51
180.000000
  0
LINE
  8
0
  6
CONTINUOUS
 10
562.288391
 20
13.343740
 11
562.288391
 21
22.395100
  0
LINE
  8
0
  6
CONTINUOUS
 10
557.288391
 20
8.343740
 11
548.237366
 21
8.343740
  0
ARC
  8
0
  6
CONTINUOUS
 10
514.788391
 20
55.843761
 40
57.250000
 50
-32.501888
 51
19.914110
  0
ARC
  8
0
  6
CONTINUOUS
 10
514.788391
 20
55.843761
 40
57.250000
 50
243.004898
 51
298.995514
  0
ARC
  8
0
  6
CONTINUOUS
 10
557.288391
 20
13.343740
 40
5.000000
 50
-90.000000
 51
0.000000
  0
ARC
  8
0
  6
CONTINUOUS
 10
567.288391
 20
22.395100
 40
5.000000
 50
147.498093
 51
180.000000
  0
ARC
  8
0
  6
CONTINUOUS
 10
548.237366
 20
3.343740
 40
5.000000
 50
90.000000
 51
106.842003
  0
LINE
  8
0
  6
CONTINUOUS
 10
466.788574
 20
61.150909
 11
466.788574
 21
111.536598
  0
LINE
  8
0
  6
CONTINUOUS
 10
469.018555
 20
58.251453
 11
471.819763
 21
57.507366
  0
LINE
  8
0
  6
CONTINUOUS
 10
469.018555
 20
114.436043
 11
470.842163
 21
114.920479
  0
ARC
  8
0
  6
CONTINUOUS
 10
469.788757
 20
111.536598
 40
3.000000
 50
104.876099
 51
180.000000
  0
ARC
  8
0
  6
CONTINUOUS
 10
469.788574
 20
61.150928
 40
3.000000
 50
180.000000
 51
255.124603
  0
LINE
  8
0
  6
CONTINUOUS
 10
474.288574
 20
106.093742
 11
475.788574
 21
99.843742
  0
LINE
  8
0
  6
CONTINUOUS
 10
475.788574
 20
99.843742
 11
474.788574
 21
94.343742
  0
LINE
  8
0
  6
CONTINUOUS
 10
474.788574
 20
94.343742
 11
477.038574
 21
88.593742
  0
LINE
  8
0
  6
CONTINUOUS
 10
477.038574
 20
88.593742
 11
475.288574
 21
82.843758
  0
LINE
  8
0
  6
CONTINUOUS
 10
475.288574
 20
82.843758
 11
473.288574
 21
77.843758
  0
LINE
  8
0
  6
CONTINUOUS
 10
473.288574
 20
77.843758
 11
473.788574
 21
69.093758
  0
LINE
  8
0
  6
CONTINUOUS
 10
473.788574
 20
69.093758
 11
472.538574
 21
64.593758
  0
LINE
  8
0
  6
CONTINUOUS
 10
472.538574
 20
64.593758
 11
472.538574
 21
59.843761
  0
LINE
  8
0
  6
CONTINUOUS
 10
472.538574
 20
59.843761
 11
470.538574
 21
53.343761
  0
LINE
  8
0
  6
CONTINUOUS
 10
470.538574
 20
53.343761
 11
470.788574
 21
49.343761
  0
LINE
  8
0
  6
CONTINUOUS
 10
470.788574
 20
49.343761
 11
469.788574
 21
44.968761
  0
LINE
  8
0
  6
CONTINUOUS
 10
469.788574
 20
44.968761
 11
466.288574
 21
42.343761
  0
LINE
  8
0
  6
CONTINUOUS
 10
466.288574
 20
42.343761
 11
463.663574
 21
39.093761
  0
LINE
  8
0
  6
CONTINUOUS
 10
463.663574
 20
39.093761
 11
460.788574
 21
37.343761
  0
LINE
  8
0
  6
CONTINUOUS
 10
460.788574
 20
37.343761
 11
458.413574
 21
35.218761
  0
LINE
  8
0
  6
CONTINUOUS
 10
458.413574
 20
35.218761
 11
456.788574
 21
34.847340
  0
LINE
  8
0
  6
CONTINUOUS
 10
466.663574
 20
118.218742
 11
463.163574
 21
119.093742
  0
LINE
  8
0
  6
CONTINUOUS
 10
463.163574
 20
119.093742
 11
459.788574
 21
119.718742
  0
LINE
  8
0
  6
CONTINUOUS
 10
459.788574
 20
119.718742
 11
456.788574
 21
120.718758
  0
LINE
  8
0
  6
CONTINUOUS
 10
456.788574
 20
140.343765
 11
456.788574
 21
97.343742
  0
LINE
  8
0
  6
CONTINUOUS
 10
468.788574
 20
-1.656220
 11
468.788574
 21
44.218761
  0
LINE
  8
0
  6
CONTINUOUS
 10
466.663574
 20
118.218742
 11
468.788574
 21
116.593742
  0
LINE
  8
0
  6
CONTINUOUS
 10
468.788574
 20
116.593742
 11
472.163574
 21
113.843742
  0
LINE
  8
0
  6
CONTINUOUS
 10
472.163574
 20
113.843742
 11
472.663574
 21
109.968742
  0
LINE
  8
0
  6
CONTINUOUS
 10
472.663574
 20
109.968742
 11
474.288574
 21
106.093742
  0
LINE
  8
0
  6
CONTINUOUS
 10
463.788574
 20
75.343758
 11
463.788574
 21
39.248524
  0
LINE
  8
0
  6
CONTINUOUS
 10
463.788574
 20
118.937523
 11
463.788574
 21
97.343742
  0
LINE
  8
0
  6
CONTINUOUS
 10
604.788391
 20
75.343765
 11
604.788391
 21
97.343742
  0
LINE
  8
0
  6
CONTINUOUS
 10
564.788391
 20
97.343742
 11
604.788391
 21
97.343742
  0
LINE
  8
0
  6
CONTINUOUS
 10
564.788391
 20
75.343765
 11
604.788391
 21
75.343765
  0
LINE
  8
0
  6
CONTINUOUS
 10
564.788391
 20
98.843742
 11
564.788391
 21
73.843765
  0
LINE
  8
0
  6
CONTINUOUS
 10
562.788391
 20
98.843742
 11
564.788391
 21
98.843742
  0
LINE
  8
0
  6
CONTINUOUS
 10
562.788391
 20
73.843765
 11
564.788391
 21
73.843765
  0
ARC
  8
0
  6
CONTINUOUS
 10
572.788391
 20
86.343758
 40
3.000000
 50
90.000000
 51
270.000000
  0
LINE
  8
0
  6
CONTINUOUS
 10
572.788391
 20
89.343742
 11
604.788391
 21
89.343742
  0
LINE
  8
0
  6
CONTINUOUS
 10
572.788391
 20
83.343758
 11
604.788391
 21
83.343758
  0
LINE
  8
0
  6
CONTINUOUS
 10
424.788757
 20
75.343765
 11
424.788757
 21
97.343742
  0
LINE
  8
0
  6
CONTINUOUS
 10
464.788757
 20
97.343742
 11
424.788757
 21
97.343742
  0
LINE
  8
0
  6
CONTINUOUS
 10
464.788757
 20
75.343765
 11
424.788757
 21
75.343765
  0
LINE
  8
0
  6
CONTINUOUS
 10
464.788757
 20
98.843742
 11
464.788757
 21
73.843765
  0
LINE
  8
0
  6
CONTINUOUS
 10
466.788757
 20
98.843742
 11
464.788757
 21
98.843742
  0
LINE
  8
0
  6
CONTINUOUS
 10
466.788757
 20
73.843765
 11
464.788757
 21
73.843765
  0
ARC
  8
0
  6
CONTINUOUS
 10
456.788757
 20
86.343758
 40
3.000000
 50
-90.000000
 51
90.000000
  0
LINE
  8
0
  6
CONTINUOUS
 10
456.788757
 20
89.343742
 11
424.788757
 21
89.343742
  0
LINE
  8
0
  6
CONTINUOUS
 10
456.788757
 20
83.343758
 11
424.788757
 21
83.343758
  0
ARC
  8
0
  6
CONTINUOUS
 10
466.870361
 20
137.843765
 40
2.500000
 50
15.000760
 51
90.000000
  0
ARC
  8
0
  6
CONTINUOUS
 10
466.870361
 20
-1.156220
 40
2.500000
 50
270.000000
 51
345.000214
  0
ARC
  8
0
  6
CONTINUOUS
 10
514.788391
 20
55.843761
 40
57.499821
 50
303.815704
 51
303.996307
  0
ARC
  8
0
  6
CONTINUOUS
 10
514.788391
 20
55.843761
 40
57.500000
 50
242.540298
 51
299.460602
  0
ARC
  8
0
  6
CONTINUOUS
 10
514.788391
 20
55.843761
 40
57.500000
 50
-33.996769
 51
19.823891
  0
ARC
  8
0
  6
CONTINUOUS
 10
514.788391
 20
55.843761
 40
57.500000
 50
303.815613
 51
303.997314
  0
LINE
  8
0
  6
CONTINUOUS
 10
238.256226
 20
328.058044
 11
238.053528
 21
320.318756
  0
ARC
  8
0
  6
CONTINUOUS
 10
239.755722
 20
328.018768
 40
1.500000
 50
90.000000
 51
178.499649
  0
ARC
  8
0
  6
CONTINUOUS
 10
235.794525
 20
250.518753
 40
1.000000
 50
90.000000
 51
180.000000
  0
ARC
  8
0
  6
CONTINUOUS
 10
235.275574
 20
252.450256
 40
1.000000
 50
285.039185
 51
358.499664
  0
LINE
  8
0
  6
CENTER
 10
291.794525
 20
393.720459
 11
291.794525
 21
197.294800
  0
LINE
  8
0
  6
CONTINUOUS
 10
266.601685
 20
345.518768
 11
316.987366
 21
345.518768
  0
LINE
  8
0
  6
CONTINUOUS
 10
321.950775
 20
335.518768
 11
325.237610
 21
335.518768
  0
ARC
  8
0
  6
CONTINUOUS
 10
316.987366
 20
342.518768
 40
3.000000
 50
-345.124329
 51
-270.000000
  0
LINE
  8
0
  6
CONTINUOUS
 10
328.137085
 20
333.288940
 11
328.546234
 21
331.748596
  0
ARC
  8
0
  6
CONTINUOUS
 10
325.237610
 20
332.518768
 40
3.000000
 50
-345.124329
 51
-270.000000
  0
ARC
  8
0
  6
CONTINUOUS
 10
331.445679
 20
332.518768
 40
3.000000
 50
-165.124313
 51
-90.000000
  0
LINE
  8
0
  6
CONTINUOUS
 10
321.950775
 20
335.518768
 11
319.886841
 21
343.288940
  0
LINE
  8
0
  6
CONTINUOUS
 10
255.451981
 20
333.288940
 11
255.042831
 21
331.748596
  0
ARC
  8
0
  6
CONTINUOUS
 10
258.351440
 20
332.518768
 40
3.000000
 50
90.000000
 51
165.124313
  0
ARC
  8
0
  6
CONTINUOUS
 10
252.143372
 20
332.518768
 40
3.000000
 50
-90.000000
 51
-14.875682
  0
LINE
  8
0
  6
CONTINUOUS
 10
261.638275
 20
335.518768
 11
258.351440
 21
335.518768
  0
ARC
  8
0
  6
CONTINUOUS
 10
266.601685
 20
342.518768
 40
3.000000
 50
90.000000
 51
165.124313
  0
LINE
  8
0
  6
CONTINUOUS
 10
261.638275
 20
335.518768
 11
263.702240
 21
343.288940
  0
LINE
  8
0
  6
CONTINUOUS
 10
280.794525
 20
207.518753
 11
305.294525
 21
207.518753
  0
LINE
  8
0
  6
CONTINUOUS
 10
280.794525
 20
239.518753
 11
280.794525
 21
207.518753
  0
LINE
  8
0
  6
CONTINUOUS
 10
305.294525
 20
239.518753
 11
305.294525
 21
207.518753
  0
LINE
  8
0
  6
CONTINUOUS
 10
302.377533
 20
207.518753
 11
302.377533
 21
239.518753
  0
LINE
  8
0
  6
CONTINUOUS
 10
280.794525
 20
387.518768
 11
305.294525
 21
387.518768
  0
LINE
  8
0
  6
CONTINUOUS
 10
302.794525
 20
347.518768
 11
302.794525
 21
352.518768
  0
LINE
  8
0
  6
CONTINUOUS
 10
280.794525
 20
347.518768
 11
280.794525
 21
387.518768
  0
LINE
  8
0
  6
CONTINUOUS
 10
304.294525
 20
345.518768
 11
304.294525
 21
347.518768
  0
LINE
  8
0
  6
CONTINUOUS
 10
279.294525
 20
345.518768
 11
279.294525
 21
347.518768
  0
LINE
  8
0
  6
CONTINUOUS
 10
279.294525
 20
347.518768
 11
304.294525
 21
347.518768
  0
LINE
  8
0
  6
CONTINUOUS
 10
305.294525
 20
352.518768
 11
305.294525
 21
387.518768
  0
LINE
  8
0
  6
CONTINUOUS
 10
302.377533
 20
387.518768
 11
302.377533
 21
352.518768
  0
LINE
  8
0
  6
CONTINUOUS
 10
302.377533
 20
352.518768
 11
305.294525
 21
352.518768
  0
ARC
  8
0
  6
CONTINUOUS
 10
176.610123
 20
299.112427
 40
65.000000
 50
-22.042076
 51
19.041388
  0
LINE
  8
0
  6
CONTINUOUS
 10
236.859177
 20
274.718750
 11
236.275223
 21
252.424072
  0
LINE
  8
0
  6
CONTINUOUS
 10
61.044533
 20
82.843742
 11
175.044525
 21
82.843742
  0
LINE
  8
0
  6
CONTINUOUS
 10
61.044533
 20
6.843780
 11
175.044525
 21
6.843780
  0
LINE
  8
0
  6
CONTINUOUS
 10
61.044533
 20
75.092743
 11
167.044525
 21
75.092743
  0
LINE
  8
0
  6
CONTINUOUS
 10
61.044533
 20
14.594780
 11
167.044525
 21
14.594780
  0
LINE
  8
0
  6
CONTINUOUS
 10
167.044525
 20
80.843742
 11
167.044525
 21
8.843760
  0
ARC
  8
0
  6
CONTINUOUS
 10
169.044525
 20
80.843758
 40
2.000000
 50
90.000000
 51
180.000000
  0
ARC
  8
0
  6
CONTINUOUS
 10
169.044525
 20
8.843780
 40
2.000000
 50
180.000000
 51
270.000000
  0
LINE
  8
0
  6
CONTINUOUS
 10
216.631775
 20
84.296021
 11
175.044525
 21
82.843758
  0
LINE
  8
0
  6
CONTINUOUS
 10
227.044525
 20
5.027880
 11
175.044525
 21
6.843760
  0
LINE
  8
0
  6
CONTINUOUS
 10
219.044525
 20
112.343758
 11
219.044525
 21
85.343758
  0
LINE
  8
0
  6
CONTINUOUS
 10
220.044525
 20
113.343758
 11
227.044556
 21
113.343758
  0
LINE
  8
0
  6
CONTINUOUS
 10
221.544525
 20
-1.656240
 11
227.044525
 21
-1.656240
  0
LINE
  8
0
  6
CONTINUOUS
 10
219.044525
 20
85.843758
 11
219.044525
 21
14.931104
  0
LINE
  8
0
  6
CONTINUOUS
 10
175.044525
 20
82.843758
 11
175.044525
 21
6.843760
  0
LINE
  8
0
  6
CONTINUOUS
 10
217.631409
 20
96.161560
 11
191.687973
 21
83.637154
  0
ARC
  8
0
  6
CONTINUOUS
 10
220.044525
 20
112.343758
 40
1.000000
 50
90.000000
 51
180.000000
  0
ARC
  8
0
  6
CONTINUOUS
 10
216.544525
 20
98.412941
 40
2.500000
 50
-64.230675
 51
0.000000
  0
ARC
  8
0
  6
CONTINUOUS
 10
216.544525
 20
86.794495
 40
2.500000
 50
-88.000000
 51
0.000000
  0
ARC
  8
0
  6
CONTINUOUS
 10
190.601105
 20
85.888535
 40
2.500000
 50
272.000000
 51
295.769318
  0
LINE
  8
0
  6
CONTINUOUS
 10
220.169601
 20
12.689760
 11
227.044525
 21
12.689760
  0
LINE
  8
0
  6
CONTINUOUS
 10
219.044525
 20
0.843760
 11
219.044525
 21
2.893024
  0
ARC
  8
0
  6
CONTINUOUS
 10
221.544525
 20
0.843760
 40
2.500000
 50
180.000000
 51
270.000000
  0
ARC
  8
0
  6
CONTINUOUS
 10
216.544525
 20
2.893024
 40
2.500000
 50
0.000000
 51
88.000000
  0
LINE
  8
0
  6
CENTER
 10
-9.092500
 20
44.843761
 11
259.794525
 21
44.843761
  0
LINE
  8
0
  6
CONTINUOUS
 10
221.544525
 20
240.018753
 11
227.044525
 21
240.018753
  0
LINE
  8
0
  6
CONTINUOUS
 10
221.544525
 20
355.018768
 11
227.044525
 21
355.018768
  0
LINE
  8
0
  6
CONTINUOUS
 10
219.044525
 20
242.518753
 11
219.044525
 21
352.518768
  0
LINE
  8
0
  6
CONTINUOUS
 10
175.044525
 20
335.518768
 11
175.044525
 21
259.518768
  0
LINE
  8
0
  6
CONTINUOUS
 10
216.631775
 20
336.971008
 11
175.044525
 21
335.518768
  0
LINE
  8
0
  6
CONTINUOUS
 10
216.631775
 20
258.066498
 11
175.044525
 21
259.518768
  0
ARC
  8
0
  6
CONTINUOUS
 10
221.544525
 20
352.518768
 40
2.500000
 50
90.000000
 51
180.000000
  0
ARC
  8
0
  6
CONTINUOUS
 10
221.544525
 20
242.518753
 40
2.500000
 50
180.000000
 51
270.000000
  0
LINE
  8
0
  6
CONTINUOUS
 10
175.044525
 20
335.518768
 11
175.044525
 21
259.518768
  0
LINE
  8
0
  6
CONTINUOUS
 10
61.044655
 20
335.518738
 11
175.044647
 21
335.518738
  0
LINE
  8
0
  6
CONTINUOUS
 10
61.044655
 20
259.518768
 11
175.044647
 21
259.518768
  0
LINE
  8
0
  6
CONTINUOUS
 10
167.044647
 20
333.518738
 11
167.044647
 21
320.518768
  0
ARC
  8
0
  6
CONTINUOUS
 10
169.044647
 20
333.518768
 40
2.000000
 50
90.000000
 51
180.000000
  0
ARC
  8
0
  6
CONTINUOUS
 10
169.044647
 20
261.518768
 40
2.000000
 50
180.000000
 51
270.000000
  0
LINE
  8
0
  6
CONTINUOUS
 10
102.044640
 20
320.518768
 11
167.044647
 21
320.518768
  0
LINE
  8
0
  6
CONTINUOUS
 10
102.044647
 20
274.518768
 11
167.044647
 21
274.518768
  0
LINE
  8
0
  6
CONTINUOUS
 10
167.044647
 20
274.518768
 11
167.044647
 21
261.518768
  0
ARC
  8
0
  6
CONTINUOUS
 10
206.214157
 20
297.518768
 40
15.000000
 50
130.747620
 51
229.252380
  0
LINE
  8
0
  6
CONTINUOUS
 10
218.176346
 20
327.624756
 11
196.423233
 21
308.882629
  0
LINE
  8
0
  6
CONTINUOUS
 10
218.176346
 20
267.412781
 11
196.423233
 21
286.154877
  0
ARC
  8
0
  6
CONTINUOUS
 10
216.544525
 20
329.518738
 40
2.500000
 50
-49.252373
 51
0.000000
  0
ARC
  8
0
  6
CONTINUOUS
 10
216.544525
 20
339.469482
 40
2.500000
 50
-88.000000
 51
0.000000
  0
ARC
  8
0
  6
CONTINUOUS
 10
216.544525
 20
265.518799
 40
2.500000
 50
0.000000
 51
49.252373
  0
ARC
  8
0
  6
CONTINUOUS
 10
216.544525
 20
255.568024
 40
2.500000
 50
0.000000
 51
88.000000
  0
LINE
  8
0
  6
CONTINUOUS
 10
61.044655
 20
335.518738
 11
61.044655
 21
322.518738
  0
LINE
  8
0
  6
CONTINUOUS
 10
61.044655
 20
335.518738
 11
51.544655
 21
335.518738
  0
LINE
  8
0
  6
CONTINUOUS
 10
61.044655
 20
259.518738
 11
51.544655
 21
259.518738
  0
LINE
  8
0
  6
CONTINUOUS
 10
52.044655
 20
274.518738
 11
51.544655
 21
274.518738
  0
LINE
  8
0
  6
CONTINUOUS
 10
52.044655
 20
320.518738
 11
51.544655
 21
320.518738
  0
LINE
  8
0
  6
CONTINUOUS
 10
61.044655
 20
272.518738
 11
61.044655
 21
259.518738
  0
LINE
  8
0
  6
CONTINUOUS
 10
51.544655
 20
257.518738
 11
51.544655
 21
297.518768
  0
LINE
  8
0
  6
CONTINUOUS
 10
7.544653
 20
337.518738
 11
51.544655
 21
337.518738
  0
LINE
  8
0
  6
CONTINUOUS
 10
7.544653
 20
257.518738
 11
51.544655
 21
257.518738
  0
LINE
  8
0
  6
CONTINUOUS
 10
2.544653
 20
262.518738
 11
2.544653
 21
332.518738
  0
ARC
  8
0
  6
CONTINUOUS
 10
7.544653
 20
332.518738
 40
5.000000
 50
90.000000
 51
180.000000
  0
ARC
  8
0
  6
CONTINUOUS
 10
7.544653
 20
262.518738
 40
5.000000
 50
180.000000
 51
270.000000
  0
LINE
  8
0
  6
CONTINUOUS
 10
5.044653
 20
321.518738
 11
51.544655
 21
321.518738
  0
LINE
  8
0
  6
CONTINUOUS
 10
5.044653
 20
271.518738
 11
51.544655
 21
271.518738
  0
LINE
  8
0
  6
CONTINUOUS
 10
51.544533
 20
82.843742
 11
61.044533
 21
82.843742
  0
LINE
  8
0
  6
CONTINUOUS
 10
51.544533
 20
6.843740
 11
61.044533
 21
6.843740
  0
LINE
  8
0
  6
CONTINUOUS
 10
51.544533
 20
4.843740
 11
51.544533
 21
84.843742
  0
LINE
  8
0
  6
CONTINUOUS
 10
51.544533
 20
75.092743
 11
61.044533
 21
75.092743
  0
LINE
  8
0
  6
CONTINUOUS
 10
51.544533
 20
14.594740
 11
61.044533
 21
14.594740
  0
LINE
  8
0
  6
CONTINUOUS
 10
7.544531
 20
84.843742
 11
51.544533
 21
84.843742
  0
LINE
  8
0
  6
CONTINUOUS
 10
7.544531
 20
4.843740
 11
51.544533
 21
4.843740
  0
LINE
  8
0
  6
CONTINUOUS
 10
2.544531
 20
9.843740
 11
2.544531
 21
79.843742
  0
ARC
  8
0
  6
CONTINUOUS
 10
7.544531
 20
79.843742
 40
5.000000
 50
90.000000
 51
180.000000
  0
ARC
  8
0
  6
CONTINUOUS
 10
7.544531
 20
9.843740
 40
5.000000
 50
180.000000
 51
270.000000
  0
LINE
  8
0
  6
CONTINUOUS
 10
5.044531
 20
70.843742
 11
51.544533
 21
70.843742
  0
LINE
  8
0
  6
CONTINUOUS
 10
5.044531
 20
20.843740
 11
51.544533
 21
20.843740
  0
LINE
  8
0
  6
CONTINUOUS
 10
61.044533
 20
6.843760
 11
61.044533
 21
82.843742
  0
LINE
  8
0
  6
CONTINUOUS
 10
51.544655
 20
297.518768
 11
51.544655
 21
337.518738
  0
LINE
  8
0
  6
CONTINUOUS
 10
52.044655
 20
274.518738
 11
52.044655
 21
320.518738
  0
LINE
  8
0
  6
CONTINUOUS
 10
54.044655
 20
322.518738
 11
52.044655
 21
320.518738
  0
LINE
  8
0
  6
CONTINUOUS
 10
54.044655
 20
322.518738
 11
100.044640
 21
322.518738
  0
LINE
  8
0
  6
CONTINUOUS
 10
94.544655
 20
318.018738
 11
94.544655
 21
322.518738
  0
ARC
  8
0
  6
CONTINUOUS
 10
97.544655
 20
318.018738
 40
3.000000
 50
180.000000
 51
270.000000
  0
LINE
  8
0
  6
CONTINUOUS
 10
97.544655
 20
315.018738
 11
102.044640
 21
315.018738
  0
CIRCLE
  8
0
  6
CONTINUOUS
 10
98.544655
 20
319.018738
 40
2.250000
  0
LINE
  8
0
  6
CONTINUOUS
 10
102.044647
 20
274.518738
 11
102.044640
 21
320.518738
  0
LINE
  8
0
  6
CONTINUOUS
 10
100.044640
 20
322.518738
 11
102.044640
 21
320.518738
  0
LINE
  8
0
  6
CONTINUOUS
 10
100.044647
 20
272.518738
 11
102.044647
 21
274.518738
  0
LINE
  8
0
  6
CONTINUOUS
 10
100.044647
 20
272.518738
 11
54.044655
 21
272.518738
  0
LINE
  8
0
  6
CONTINUOUS
 10
52.044655
 20
274.518738
 11
54.044655
 21
272.518738
  0
LINE
  8
0
  6
CONTINUOUS
 10
56.544655
 20
280.018738
 11
52.044662
 21
280.018738
  0
CIRCLE
  8
0
  6
CONTINUOUS
 10
55.544655
 20
276.018738
 40
2.250000
  0
ARC
  8
0
  6
CONTINUOUS
 10
56.544655
 20
277.018738
 40
3.000000
 50
0.000000
 51
90.000000
  0
LINE
  8
0
  6
CONTINUOUS
 10
59.544655
 20
277.018738
 11
59.544655
 21
272.518738
  0
LINE
  8
0
  6
CENTER
 10
77.044655
 20
265.052948
 11
77.044655
 21
329.184998
  0
LINE
  8
0
  6
CONTINUOUS
 10
53.044659
 20
280.018738
 11
53.044659
 21
315.018738
  0
LINE
  8
0
  6
CONTINUOUS
 10
94.544655
 20
321.518738
 11
59.544655
 21
321.518738
  0
LINE
  8
0
  6
CONTINUOUS
 10
101.044647
 20
315.018738
 11
101.044647
 21
280.018738
  0
LINE
  8
0
  6
CONTINUOUS
 10
59.544655
 20
273.518738
 11
94.544655
 21
273.518738
  0
LINE
  8
0
  6
CONTINUOUS
 10
56.544655
 20
315.018738
 11
52.044655
 21
315.018738
  0
ARC
  8
0
  6
CONTINUOUS
 10
56.544655
 20
318.018738
 40
3.000000
 50
-90.000000
 51
0.000000
  0
LINE
  8
0
  6
CONTINUOUS
 10
59.544655
 20
318.018738
 11
59.544655
 21
322.518738
  0
CIRCLE
  8
0
  6
CONTINUOUS
 10
55.544655
 20
319.018738
 40
2.250000
  0
ARC
  8
0
  6
CONTINUOUS
 10
97.544655
 20
277.018738
 40
3.000000
 50
90.000000
 51
180.000000
  0
LINE
  8
0
  6
CONTINUOUS
 10
94.544655
 20
277.018738
 11
94.544655
 21
272.518738
  0
LINE
  8
0
  6
CONTINUOUS
 10
97.544655
 20
280.018738
 11
102.044655
 21
280.018738
  0
CIRCLE
  8
0
  6
CONTINUOUS
 10
98.544655
 20
276.018738
 40
2.250000
  0
LINE
  8
0
  6
CONTINUOUS
 10
53.544533
 20
84.343742
 11
100.044533
 21
84.343742
  0
LINE
  8
0
  6
CONTINUOUS
 10
102.044510
 20
128.343735
 11
102.044533
 21
86.343742
  0
LINE
  8
0
  6
CONTINUOUS
 10
52.044533
 20
128.343735
 11
52.044533
 21
86.343742
  0
LINE
  8
0
  6
CONTINUOUS
 10
52.044533
 20
96.343742
 11
102.044533
 21
96.343742
  0
LINE
  8
0
  6
CONTINUOUS
 10
100.044533
 20
84.343742
 11
102.044533
 21
86.343742
  0
LINE
  8
0
  6
CONTINUOUS
 10
52.044533
 20
86.343742
 11
54.044533
 21
84.343742
  0
LINE
  8
0
  6
CONTINUOUS
 10
52.044533
 20
86.343742
 11
102.044533
 21
86.343742
  0
LINE
  8
0
  6
CONTINUOUS
 10
52.044533
 20
97.343742
 11
102.044510
 21
97.343742
  0
LINE
  8
0
  6
CONTINUOUS
 10
53.044533
 20
129.343735
 11
101.044510
 21
129.343735
  0
LINE
  8
0
  6
CONTINUOUS
 10
101.044510
 20
129.343735
 11
102.044510
 21
128.343735
  0
LINE
  8
0
  6
CONTINUOUS
 10
53.044533
 20
129.343735
 11
52.044533
 21
128.343735
  0
LINE
  8
0
  6
CONTINUOUS
 10
52.044533
 20
128.343735
 11
102.044510
 21
128.343735
  0
LINE
  8
0
  6
CENTER
 10
77.044533
 20
77.954231
 11
77.044533
 21
135.646240
  0
LINE
  8
0
  6
CENTER
 10
49.669533
 20
112.343742
 11
54.294533
 21
112.343742
  0
LINE
  8
0
  6
CONTINUOUS
 10
53.544533
 20
84.343742
 11
53.544533
 21
82.843742
  0
LINE
  8
0
  6
CONTINUOUS
 10
99.544533
 20
84.343742
 11
99.544533
 21
82.843742
  0
LINE
  8
0
  6
CONTINUOUS
 10
51.169533
 20
122.843742
 11
53.169533
 21
122.843742
  0
LINE
  8
0
  6
CONTINUOUS
 10
51.169533
 20
101.843742
 11
53.169533
 21
101.843742
  0
LINE
  8
0
  6
CENTER
 10
246.794449
 20
256.761261
 11
246.794449
 21
235.595001
  0
LINE
  8
0
  6
DASHED
 10
252.294449
 20
251.518753
 11
252.294449
 21
239.518753
  0
LINE
  8
0
  6
DASHED
 10
241.294449
 20
251.518753
 11
241.294449
 21
239.518753
  0
LINE
  8
0
  6
DASHED
 10
331.294617
 20
251.518753
 11
331.294617
 21
239.518753
  0
LINE
  8
0
  6
CENTER
 10
336.794617
 20
256.761261
 11
336.794617
 21
235.595001
  0
LINE
  8
0
  6
DASHED
 10
342.294617
 20
251.518753
 11
342.294617
 21
239.518753
  0
LINE
  8
0
  6
CONTINUOUS
 10
175.044525
 20
35.443760
 11
219.044525
 21
35.443760
  0
LINE
  8
0
  6
CONTINUOUS
 10
175.044525
 20
25.243759
 11
219.044525
 21
25.243759
  0
TEXT
  8
0
 10
-9.000000
 20
-21.000000
 40
4.000000
 41
1.000000
  1
HFM-22T-300~450-S60K
 50
0.000000
  0
ENDSEC
  0
EOF
