  0
SECTION
  2
HEADER
  9
$CLAYER
  8
1
  9
$LTSCALE
 40
3.0
  0
ENDSEC
  0
SECTION
  2
TABLES
  0
TABLE
  2
LTYPE
 70
     4
  0
LTYPE
  2
CONTINUOUS
  3
solid line
 70
    64
 72
    65
 73
     0
 40
0.0
  0
LTYPE
  2
DASHED
  3
__ __ __ __ __ __ __ __ __ __ __ __ __ __ __
 70
    64
 72
    65
 73
     2
 40
0.75
 49
0.5
 49
-0.25
  0
LTYPE
  2
CENTER
  3
____ _ ____ _ ____ _ ____ _ ____ _ ____ _ ____
 70
    64
 72
    65
 73
     4
 40
2.0
 49
1.25
 49
-0.25
 49
0.25
 49
-0.25
  0
LTYPE
  2
PHANTOM
  3
_____ _ _ _____ _ _ _____ _ _ _____ _ _ ____
 70
    64
 72
    65
 73
     6
 40
2.5
 49
1.25
 49
-0.25
 49
0.25
 49
-0.25
 49
0.25
 49
-0.25
  0
ENDTAB
  0
TABLE
  2
LAYER
 70
     1
  0
LAYER
  2
0
 70
    64
 62
     7
  6
CONTINUOUS
  0
ENDTAB
  0
TABLE
  2
STYLE
 70
     1
  0
STYLE
  2
STANDARD
 70
     0
 40
0.000000
 41
1.000000
 50
0.000000
 71
     0
 42
3.000000
  3
txt
  4
BIGFONT
  0
ENDTAB
  0
ENDSEC
  0
SECTION
  2
BLOCKS
  0
ENDSEC
  0
SECTION
  2
ENTITIES
  0
LINE
  8
0
  6
CENTER
 10
320.525116
 20
305.873749
 11
-8.129343
 21
305.873749
  0
LINE
  8
0
  6
CONTINUOUS
 10
196.539536
 20
248.623764
 11
194.039536
 21
248.623764
  0
LINE
  8
0
  6
CONTINUOUS
 10
198.556931
 20
363.123749
 11
194.039536
 21
363.123749
  0
LINE
  8
0
  6
CONTINUOUS
 10
201.289536
 20
248.623764
 11
194.039536
 21
248.623764
  0
LINE
  8
0
  6
CONTINUOUS
 10
202.743744
 20
273.873749
 11
194.039536
 21
273.873749
  0
LINE
  8
0
  6
CONTINUOUS
 10
201.306137
 20
258.373749
 11
194.039536
 21
258.373749
  0
LINE
  8
0
  6
CONTINUOUS
 10
199.399933
 20
353.373749
 11
194.039536
 21
353.373749
  0
LINE
  8
0
  6
CONTINUOUS
 10
194.039536
 20
337.873749
 11
310.828339
 21
337.873749
  0
LINE
  8
0
  6
CONTINUOUS
 10
199.556732
 20
362.141266
 11
199.894608
 21
342.786499
  0
ARC
  8
0
  6
CONTINUOUS
 10
198.556824
 20
362.123749
 40
1.000000
 50
1.000700
 51
90.000000
  0
ARC
  8
0
  6
CONTINUOUS
 10
204.893936
 20
342.873749
 40
5.000000
 50
-178.999802
 51
-90.000000
  0
LINE
  8
0
  6
CONTINUOUS
 10
194.039536
 20
363.373749
 11
194.039536
 21
248.373764
  0
LINE
  8
0
  6
CONTINUOUS
 10
315.789520
 20
247.873764
 11
201.789536
 21
247.873764
  0
LINE
  8
0
  6
CONTINUOUS
 10
238.789536
 20
337.873749
 11
238.789536
 21
260.676056
  0
LINE
  8
0
  6
CONTINUOUS
 10
278.789520
 20
337.873749
 11
278.789520
 21
260.676056
  0
LINE
  8
0
  6
CONTINUOUS
 10
312.327820
 20
336.413055
 11
314.311523
 21
260.676056
  0
ARC
  8
0
  6
CONTINUOUS
 10
310.828217
 20
336.373749
 40
1.500000
 50
1.500200
 51
90.000000
  0
LINE
  8
0
  6
CONTINUOUS
 10
202.789536
 20
259.873749
 11
314.501038
 21
259.873749
  0
LINE
  8
0
  6
CONTINUOUS
 10
201.789536
 20
258.873749
 11
201.789536
 21
247.873764
  0
LINE
  8
0
  6
CONTINUOUS
 10
315.789520
 20
247.873764
 11
315.500732
 21
258.899963
  0
ARC
  8
0
  6
CONTINUOUS
 10
314.501038
 20
258.873749
 40
1.000000
 50
1.500100
 51
90.000000
  0
ARC
  8
0
  6
CONTINUOUS
 10
315.310944
 20
260.702271
 40
1.000000
 50
-178.499603
 51
-113.891197
  0
ARC
  8
0
  6
CONTINUOUS
 10
201.289536
 20
248.123764
 40
0.500000
 50
0.000000
 51
90.000000
  0
LINE
  8
0
  6
CENTER
 10
127.999687
 20
64.198761
 11
225.983337
 21
64.198761
  0
LINE
  8
0
  6
CENTER
 10
258.789520
 20
159.780014
 11
258.789520
 21
-7.957500
  0
LINE
  8
0
  6
CENTER
 10
203.197495
 20
94.698761
 11
323.858398
 21
94.698761
  0
LINE
  8
0
  6
CONTINUOUS
 10
208.789444
 20
99.059464
 11
208.789444
 21
54.338074
  0
LINE
  8
0
  6
CONTINUOUS
 10
308.789612
 20
99.059418
 11
308.789612
 21
54.338074
  0
ARC
  8
0
  6
CONTINUOUS
 10
258.789520
 20
76.698769
 40
60.000000
 50
48.189621
 51
131.810394
  0
ARC
  8
0
  6
CONTINUOUS
 10
258.789520
 20
76.698769
 40
60.000000
 50
228.189697
 51
311.810303
  0
ARC
  8
0
  6
CONTINUOUS
 10
278.789612
 20
99.059418
 40
30.000000
 50
0.000000
 51
48.189629
  0
CIRCLE
  8
0
  6
CONTINUOUS
 10
258.789520
 20
94.698761
 40
27.500000
  0
ARC
  8
0
  6
CONTINUOUS
 10
258.789520
 20
94.698761
 40
31.750000
 50
7.552697
 51
172.447403
  0
ARC
  8
0
  6
CONTINUOUS
 10
242.039536
 20
53.198765
 40
20.600000
 50
172.447403
 51
270.000000
  0
ARC
  8
0
  6
CONTINUOUS
 10
275.539520
 20
53.198765
 40
20.600000
 50
-90.000000
 51
7.552700
  0
LINE
  8
0
  6
CONTINUOUS
 10
290.264221
 20
98.871918
 11
295.960815
 21
55.906391
  0
LINE
  8
0
  6
CONTINUOUS
 10
221.618134
 20
55.906353
 11
227.314957
 21
98.871857
  0
LINE
  8
0
  6
CONTINUOUS
 10
242.039536
 20
32.598759
 11
275.539520
 21
32.598759
  0
ARC
  8
0
  6
CONTINUOUS
 10
242.039536
 20
53.198765
 40
19.000000
 50
172.447601
 51
270.000000
  0
ARC
  8
0
  6
CONTINUOUS
 10
275.539520
 20
53.198765
 40
19.000000
 50
-90.000000
 51
7.552700
  0
ARC
  8
0
  6
CONTINUOUS
 10
258.789520
 20
94.698761
 40
30.150000
 50
-187.552597
 51
7.552697
  0
LINE
  8
0
  6
CONTINUOUS
 10
223.204330
 20
55.696056
 11
228.901138
 21
98.661583
  0
LINE
  8
0
  6
CONTINUOUS
 10
288.678009
 20
98.661598
 11
294.374817
 21
55.696091
  0
LINE
  8
0
  6
CONTINUOUS
 10
242.039536
 20
34.198761
 11
275.539520
 21
34.198761
  0
LINE
  8
0
  6
CONTINUOUS
 10
248.493134
 20
41.698761
 11
244.332733
 21
41.698761
  0
LINE
  8
0
  6
CONTINUOUS
 10
250.789536
 20
48.667515
 11
250.789536
 21
41.698761
  0
LINE
  8
0
  6
CONTINUOUS
 10
254.789536
 20
51.198765
 11
254.789536
 21
53.698765
  0
LINE
  8
0
  6
CONTINUOUS
 10
262.789520
 20
51.198765
 11
262.789520
 21
53.698765
  0
LINE
  8
0
  6
CONTINUOUS
 10
258.008331
 20
52.230015
 11
258.008331
 21
43.011261
  0
LINE
  8
0
  6
CONTINUOUS
 10
259.508331
 20
52.230015
 11
259.508331
 21
43.011261
  0
LINE
  8
0
  6
CONTINUOUS
 10
267.383331
 20
52.230015
 11
267.383331
 21
42.948761
  0
LINE
  8
0
  6
CONTINUOUS
 10
268.758331
 20
47.308140
 11
268.758331
 21
42.948761
  0
LINE
  8
0
  6
CONTINUOUS
 10
248.891556
 20
52.105015
 11
245.036530
 21
52.105015
  0
LINE
  8
0
  6
CONTINUOUS
 10
245.036530
 20
52.105015
 11
244.133331
 21
50.985020
  0
LINE
  8
0
  6
CONTINUOUS
 10
244.241959
 20
53.698765
 11
242.789536
 21
51.839008
  0
LINE
  8
0
  6
CONTINUOUS
 10
244.133331
 20
44.071701
 11
245.050934
 21
43.105000
  0
LINE
  8
0
  6
CONTINUOUS
 10
242.789536
 20
43.255939
 11
244.332733
 21
41.698761
  0
LINE
  8
0
  6
CONTINUOUS
 10
242.789536
 20
51.839008
 11
242.789536
 21
43.255939
  0
LINE
  8
0
  6
CONTINUOUS
 10
244.133331
 20
50.985020
 11
244.133331
 21
44.071701
  0
LINE
  8
0
  6
CONTINUOUS
 10
249.633331
 20
51.387913
 11
248.876358
 21
52.105015
  0
LINE
  8
0
  6
CONTINUOUS
 10
249.621338
 20
53.698765
 11
250.789536
 21
52.402271
  0
LINE
  8
0
  6
CONTINUOUS
 10
249.633331
 20
51.198765
 11
250.789536
 21
51.198765
  0
LINE
  8
0
  6
CONTINUOUS
 10
244.241959
 20
53.698765
 11
249.621338
 21
53.698765
  0
LINE
  8
0
  6
CONTINUOUS
 10
247.539536
 20
48.667515
 11
250.789536
 21
48.667515
  0
LINE
  8
0
  6
CONTINUOUS
 10
249.633331
 20
47.355015
 11
247.539536
 21
47.355015
  0
LINE
  8
0
  6
CONTINUOUS
 10
247.133331
 20
43.105000
 11
245.050934
 21
43.105000
  0
LINE
  8
0
  6
CONTINUOUS
 10
249.633331
 20
46.105015
 11
249.633331
 21
47.105015
  0
ARC
  8
0
  6
CONTINUOUS
 10
247.133331
 20
45.605007
 40
2.500000
 50
-89.999786
 51
0.000109
  0
LINE
  8
0
  6
CONTINUOUS
 10
249.633331
 20
42.655319
 11
249.633331
 21
41.698761
  0
LINE
  8
0
  6
CONTINUOUS
 10
250.789536
 20
52.402271
 11
250.789536
 21
51.198765
  0
LINE
  8
0
  6
CONTINUOUS
 10
249.633331
 20
47.355015
 11
249.633331
 21
45.605015
  0
LINE
  8
0
  6
CONTINUOUS
 10
247.539536
 20
48.667515
 11
247.539536
 21
47.355015
  0
LINE
  8
0
  6
CONTINUOUS
 10
249.633331
 20
41.698761
 11
250.789536
 21
41.698761
  0
LINE
  8
0
  6
CONTINUOUS
 10
249.633331
 20
42.655319
 11
248.493134
 21
41.698761
  0
LINE
  8
0
  6
CONTINUOUS
 10
259.508331
 20
43.011261
 11
260.008331
 21
43.011261
  0
LINE
  8
0
  6
CONTINUOUS
 10
257.414520
 20
43.011261
 11
257.414520
 21
41.698761
  0
LINE
  8
0
  6
CONTINUOUS
 10
260.008331
 20
43.011261
 11
260.008331
 21
41.698761
  0
LINE
  8
0
  6
CONTINUOUS
 10
261.955139
 20
51.198765
 11
262.789520
 21
51.198765
  0
LINE
  8
0
  6
CONTINUOUS
 10
254.789536
 20
51.198765
 11
255.677536
 21
51.198765
  0
LINE
  8
0
  6
CONTINUOUS
 10
254.789536
 20
53.698765
 11
262.789520
 21
53.698765
  0
LINE
  8
0
  6
CONTINUOUS
 10
257.414520
 20
41.698761
 11
260.008331
 21
41.698761
  0
LINE
  8
0
  6
CONTINUOUS
 10
257.414520
 20
43.011261
 11
258.008331
 21
43.011261
  0
ARC
  8
0
  6
CONTINUOUS
 10
271.586334
 20
50.495640
 40
3.203126
 50
-73.981873
 51
90.003510
  0
ARC
  8
0
  6
CONTINUOUS
 10
271.586334
 20
50.495640
 40
1.954124
 50
-82.585274
 51
62.411850
  0
LINE
  8
0
  6
CONTINUOUS
 10
266.789520
 20
53.698765
 11
271.586334
 21
53.698765
  0
LINE
  8
0
  6
CONTINUOUS
 10
271.838531
 20
48.557850
 11
268.758331
 21
48.557850
  0
LINE
  8
0
  6
CONTINUOUS
 10
266.789520
 20
53.698765
 11
266.789520
 21
52.230015
  0
LINE
  8
0
  6
CONTINUOUS
 10
268.758331
 20
52.230015
 11
268.758331
 21
48.557850
  0
LINE
  8
0
  6
CONTINUOUS
 10
272.470337
 20
47.416874
 11
274.452759
 21
42.948761
  0
LINE
  8
0
  6
CONTINUOUS
 10
271.318756
 20
47.308140
 11
273.194916
 21
42.948761
  0
LINE
  8
0
  6
CONTINUOUS
 10
266.789520
 20
42.948761
 11
267.383331
 21
42.948761
  0
LINE
  8
0
  6
CONTINUOUS
 10
268.758331
 20
42.948761
 11
269.305145
 21
42.948761
  0
LINE
  8
0
  6
CONTINUOUS
 10
269.305145
 20
41.698761
 11
266.789520
 21
41.698761
  0
LINE
  8
0
  6
CONTINUOUS
 10
272.945740
 20
42.948761
 11
273.194916
 21
42.948761
  0
LINE
  8
0
  6
CONTINUOUS
 10
272.945740
 20
41.698761
 11
274.789520
 21
41.698761
  0
LINE
  8
0
  6
CONTINUOUS
 10
272.945740
 20
42.948761
 11
272.945740
 21
41.698761
  0
LINE
  8
0
  6
CONTINUOUS
 10
269.305145
 20
42.948761
 11
269.305145
 21
41.698761
  0
LINE
  8
0
  6
CONTINUOUS
 10
266.789520
 20
42.948761
 11
266.789520
 21
41.698761
  0
LINE
  8
0
  6
CONTINUOUS
 10
256.107330
 20
52.230015
 11
255.677536
 21
51.198765
  0
LINE
  8
0
  6
CONTINUOUS
 10
261.592743
 20
52.230015
 11
261.955139
 21
51.198765
  0
LINE
  8
0
  6
CONTINUOUS
 10
259.508331
 20
52.230015
 11
261.592743
 21
52.230015
  0
LINE
  8
0
  6
CONTINUOUS
 10
258.008331
 20
52.230015
 11
256.107330
 21
52.230015
  0
LINE
  8
0
  6
CONTINUOUS
 10
268.758331
 20
47.308140
 11
271.318756
 21
47.308140
  0
LINE
  8
0
  6
CONTINUOUS
 10
266.789520
 20
52.230015
 11
267.383331
 21
52.230015
  0
LINE
  8
0
  6
CONTINUOUS
 10
268.758331
 20
52.230015
 11
272.491333
 21
52.227589
  0
LINE
  8
0
  6
CONTINUOUS
 10
249.633331
 20
51.387913
 11
249.633331
 21
51.198765
  0
ARC
  8
0
  6
CONTINUOUS
 10
238.789536
 20
99.059464
 40
30.000000
 50
131.810394
 51
180.000000
  0
ARC
  8
0
  6
CONTINUOUS
 10
238.789536
 20
54.338074
 40
30.000000
 50
180.000000
 51
228.189697
  0
LINE
  8
0
  6
CONTINUOUS
 10
194.039551
 20
121.448738
 11
201.789444
 21
121.448738
  0
LINE
  8
0
  6
CONTINUOUS
 10
199.603912
 20
6.948740
 11
194.039551
 21
6.948740
  0
LINE
  8
0
  6
CONTINUOUS
 10
200.586334
 20
111.698738
 11
194.039551
 21
111.698738
  0
LINE
  8
0
  6
CONTINUOUS
 10
194.039551
 20
16.698740
 11
201.789444
 21
16.698740
  0
LINE
  8
0
  6
CONTINUOUS
 10
200.586334
 20
96.158783
 11
194.039551
 21
96.158783
  0
LINE
  8
0
  6
CONTINUOUS
 10
200.586334
 20
32.238781
 11
194.039551
 21
32.238781
  0
LINE
  8
0
  6
CENTER
 10
205.142578
 20
136.698761
 11
222.439529
 21
136.698761
  0
LINE
  8
0
  6
CENTER
 10
295.227203
 20
136.698761
 11
319.808411
 21
136.698761
  0
LINE
  8
0
  6
CENTER
 10
203.996490
 20
16.698740
 11
222.608124
 21
16.698740
  0
LINE
  8
0
  6
CENTER
 10
294.664612
 20
16.698740
 11
319.470825
 21
16.698740
  0
LINE
  8
0
  6
CENTER
 10
303.789612
 20
264.398743
 11
303.789612
 21
243.770630
  0
LINE
  8
0
  6
CENTER
 10
213.789444
 20
145.605042
 11
213.789444
 21
128.139359
  0
LINE
  8
0
  6
CENTER
 10
213.789444
 20
25.876860
 11
213.789444
 21
-0.532480
  0
LINE
  8
0
  6
CENTER
 10
303.789612
 20
26.045641
 11
303.789612
 21
0.142500
  0
CIRCLE
  8
0
  6
CONTINUOUS
 10
303.789612
 20
136.698761
 40
5.500000
  0
CIRCLE
  8
0
  6
CONTINUOUS
 10
213.789444
 20
136.698761
 40
5.500000
  0
CIRCLE
  8
0
  6
CONTINUOUS
 10
213.789444
 20
16.698740
 40
5.500000
  0
CIRCLE
  8
0
  6
CONTINUOUS
 10
303.789612
 20
16.698740
 40
5.500000
  0
ARC
  8
0
  6
CONTINUOUS
 10
303.789612
 20
136.698761
 40
12.000000
 50
0.000000
 51
90.000000
  0
ARC
  8
0
  6
CONTINUOUS
 10
213.789444
 20
136.698761
 40
12.000000
 50
90.000000
 51
180.000000
  0
ARC
  8
0
  6
CONTINUOUS
 10
213.789444
 20
16.698740
 40
12.000000
 50
180.000000
 51
270.000000
  0
ARC
  8
0
  6
CONTINUOUS
 10
303.789612
 20
16.698740
 40
12.000000
 50
-90.000000
 51
0.000000
  0
LINE
  8
0
  6
CONTINUOUS
 10
303.789612
 20
148.698761
 11
213.789444
 21
148.698761
  0
LINE
  8
0
  6
CONTINUOUS
 10
213.789536
 20
4.698740
 11
303.789612
 21
4.698740
  0
LINE
  8
0
  6
CONTINUOUS
 10
315.789612
 20
136.698761
 11
315.789612
 21
16.698740
  0
LINE
  8
0
  6
CONTINUOUS
 10
201.789444
 20
136.698715
 11
201.789444
 21
16.698721
  0
LINE
  8
0
  6
CONTINUOUS
 10
286.789612
 20
9.698740
 11
230.789536
 21
9.698740
  0
LINE
  8
0
  6
CONTINUOUS
 10
230.789536
 20
143.698761
 11
286.789612
 21
143.698761
  0
LINE
  8
0
  6
CONTINUOUS
 10
310.789612
 20
119.698738
 11
310.789612
 21
33.698761
  0
LINE
  8
0
  6
CONTINUOUS
 10
206.789444
 20
119.698738
 11
206.789444
 21
33.698761
  0
ARC
  8
0
  6
CONTINUOUS
 10
303.789612
 20
136.698761
 40
11.000000
 50
180.000000
 51
270.000000
  0
ARC
  8
0
  6
CONTINUOUS
 10
213.789444
 20
136.698761
 40
11.000000
 50
-90.000000
 51
0.000000
  0
ARC
  8
0
  6
CONTINUOUS
 10
213.789444
 20
16.698740
 40
11.000000
 50
0.000000
 51
90.000000
  0
ARC
  8
0
  6
CONTINUOUS
 10
303.789612
 20
16.698740
 40
11.000000
 50
90.000000
 51
180.000000
  0
LINE
  8
0
  6
CONTINUOUS
 10
212.789444
 20
27.698740
 11
213.789444
 21
27.698740
  0
LINE
  8
0
  6
CONTINUOUS
 10
224.789536
 20
15.698740
 11
224.789536
 21
16.698740
  0
ARC
  8
0
  6
CONTINUOUS
 10
212.789444
 20
33.698761
 40
6.000000
 50
180.000000
 51
270.000000
  0
ARC
  8
0
  6
CONTINUOUS
 10
230.789536
 20
15.698740
 40
6.000000
 50
180.000000
 51
270.000000
  0
LINE
  8
0
  6
CONTINUOUS
 10
304.789612
 20
27.698740
 11
303.789612
 21
27.698740
  0
LINE
  8
0
  6
CONTINUOUS
 10
292.789612
 20
15.698740
 11
292.789612
 21
16.698721
  0
ARC
  8
0
  6
CONTINUOUS
 10
304.789612
 20
33.698761
 40
6.000000
 50
-90.000000
 51
0.000000
  0
ARC
  8
0
  6
CONTINUOUS
 10
286.789612
 20
15.698740
 40
6.000000
 50
-90.000000
 51
0.000000
  0
LINE
  8
0
  6
CONTINUOUS
 10
304.789612
 20
125.698738
 11
303.789612
 21
125.698738
  0
LINE
  8
0
  6
CONTINUOUS
 10
292.789612
 20
137.698761
 11
292.789612
 21
136.698715
  0
ARC
  8
0
  6
CONTINUOUS
 10
286.789612
 20
137.698761
 40
6.000000
 50
0.000000
 51
90.000000
  0
ARC
  8
0
  6
CONTINUOUS
 10
304.789612
 20
119.698738
 40
6.000000
 50
0.000000
 51
90.000000
  0
LINE
  8
0
  6
CONTINUOUS
 10
212.789444
 20
125.698738
 11
213.789444
 21
125.698738
  0
LINE
  8
0
  6
CONTINUOUS
 10
224.789536
 20
137.698761
 11
224.789536
 21
136.698761
  0
ARC
  8
0
  6
CONTINUOUS
 10
230.789536
 20
137.698822
 40
6.000000
 50
90.000000
 51
180.000000
  0
ARC
  8
0
  6
CONTINUOUS
 10
212.789490
 20
119.698799
 40
6.000000
 50
90.000000
 51
180.000000
  0
LINE
  8
0
  6
CONTINUOUS
 10
200.601669
 20
7.882240
 11
201.152115
 21
16.138660
  0
ARC
  8
0
  6
CONTINUOUS
 10
201.750809
 20
16.098761
 40
0.600000
 50
90.000000
 51
176.186096
  0
ARC
  8
0
  6
CONTINUOUS
 10
199.603912
 20
7.948740
 40
1.000000
 50
270.000000
 51
356.185791
  0
ARC
  8
0
  6
CONTINUOUS
 10
278.789612
 20
54.338085
 40
30.000000
 50
-48.189449
 51
0.000000
  0
LINE
  8
0
  6
CONTINUOUS
 10
266.289520
 20
91.698761
 11
266.289520
 21
97.698738
  0
LINE
  8
0
  6
CONTINUOUS
 10
272.289520
 20
91.698723
 11
272.289520
 21
97.698723
  0
LINE
  8
0
  6
CONTINUOUS
 10
272.289520
 20
91.698723
 11
266.289520
 21
91.698761
  0
LINE
  8
0
  6
CONTINUOUS
 10
272.289520
 20
97.698723
 11
266.289520
 21
97.698738
  0
ARC
  8
0
  6
CONTINUOUS
 10
258.789520
 20
94.698761
 40
11.000000
 50
-344.173401
 51
-15.826600
  0
LINE
  8
0
  6
CONTINUOUS
 10
194.039551
 20
121.698761
 11
194.039551
 21
6.698760
  0
LINE
  8
0
  6
CENTER
 10
481.783356
 20
-12.847460
 11
481.783356
 21
157.896713
  0
LINE
  8
0
  6
CENTER
 10
409.816772
 20
64.198761
 11
548.043152
 21
64.198761
  0
LINE
  8
0
  6
CENTER
 10
378.783569
 20
94.698761
 11
580.626160
 21
94.698761
  0
LINE
  8
0
  6
CONTINUOUS
 10
423.783569
 20
83.698761
 11
423.783569
 21
4.698740
  0
LINE
  8
0
  6
CONTINUOUS
 10
435.783569
 20
124.948738
 11
435.783569
 21
146.698761
  0
LINE
  8
0
  6
CONTINUOUS
 10
433.865356
 20
148.698761
 11
423.783569
 21
148.698761
  0
LINE
  8
0
  6
CONTINUOUS
 10
433.865356
 20
4.698780
 11
423.783569
 21
4.698780
  0
LINE
  8
0
  6
CONTINUOUS
 10
513.783386
 20
15.181440
 11
513.783386
 21
138.216080
  0
LINE
  8
0
  6
CONTINUOUS
 10
512.801147
 20
139.215942
 11
437.748749
 21
140.525635
  0
LINE
  8
0
  6
CONTINUOUS
 10
512.801147
 20
14.181620
 11
437.748749
 21
12.871300
  0
LINE
  8
0
  6
CONTINUOUS
 10
440.340149
 20
116.698738
 11
512.716187
 21
116.698738
  0
LINE
  8
0
  6
CONTINUOUS
 10
437.692566
 20
36.698761
 11
512.393188
 21
36.698761
  0
LINE
  8
0
  6
CONTINUOUS
 10
436.280151
 20
6.551740
 11
437.389374
 21
10.691580
  0
LINE
  8
0
  6
CONTINUOUS
 10
436.280151
 20
146.845840
 11
437.389557
 21
142.705322
  0
ARC
  8
0
  6
CONTINUOUS
 10
440.287354
 20
143.481842
 40
3.000000
 50
195.000702
 51
269.000488
  0
ARC
  8
0
  6
CONTINUOUS
 10
433.783569
 20
146.698761
 40
2.000000
 50
0.000000
 51
90.000000
  0
ARC
  8
0
  6
CONTINUOUS
 10
437.783569
 20
142.525360
 40
2.000000
 50
180.000000
 51
269.000610
  0
ARC
  8
0
  6
CONTINUOUS
 10
440.287170
 20
9.915140
 40
3.000000
 50
91.000526
 51
165.000305
  0
ARC
  8
0
  6
CONTINUOUS
 10
437.783569
 20
10.871620
 40
2.000000
 50
91.000633
 51
180.000000
  0
ARC
  8
0
  6
CONTINUOUS
 10
433.783569
 20
6.698780
 40
2.000000
 50
-90.000000
 51
0.000000
  0
ARC
  8
0
  6
CONTINUOUS
 10
512.783386
 20
138.216080
 40
1.000000
 50
0.000000
 51
89.000359
  0
ARC
  8
0
  6
CONTINUOUS
 10
512.783386
 20
15.181440
 40
1.000000
 50
-88.999573
 51
0.000000
  0
LINE
  8
0
  6
CENTER
 10
418.289764
 20
136.698761
 11
440.926361
 21
136.698761
  0
LINE
  8
0
  6
CENTER
 10
418.289764
 20
16.698740
 11
440.926361
 21
16.698740
  0
LINE
  8
0
  6
DASHED
 10
423.783569
 20
142.198761
 11
435.783569
 21
142.198761
  0
LINE
  8
0
  6
DASHED
 10
423.783569
 20
131.198761
 11
435.783569
 21
131.198761
  0
LINE
  8
0
  6
DASHED
 10
423.783569
 20
22.198740
 11
435.783569
 21
22.198740
  0
LINE
  8
0
  6
DASHED
 10
423.783569
 20
11.198740
 11
435.783569
 21
11.198740
  0
LINE
  8
0
  6
CONTINUOUS
 10
529.783386
 20
69.505913
 11
529.783386
 21
119.891602
  0
LINE
  8
0
  6
CONTINUOUS
 10
519.783386
 20
36.503601
 11
519.783386
 21
96.768738
  0
LINE
  8
0
  6
CONTINUOUS
 10
527.553772
 20
122.791039
 11
516.013550
 21
125.856438
  0
LINE
  8
0
  6
CONTINUOUS
 10
527.553772
 20
66.606461
 11
522.013184
 21
65.134804
  0
LINE
  8
0
  6
CONTINUOUS
 10
517.556580
 20
33.604919
 11
516.010559
 21
33.192619
  0
ARC
  8
0
  6
CONTINUOUS
 10
526.783386
 20
119.891602
 40
3.000000
 50
0.000000
 51
75.124413
  0
ARC
  8
0
  6
CONTINUOUS
 10
526.783386
 20
69.505913
 40
3.000000
 50
-75.124207
 51
0.000000
  0
ARC
  8
0
  6
CONTINUOUS
 10
516.783386
 20
36.503601
 40
3.000000
 50
-75.068420
 51
0.000000
  0
ARC
  8
0
  6
CONTINUOUS
 10
516.783386
 20
128.755920
 40
3.000000
 50
180.000000
 51
255.124603
  0
ARC
  8
0
  6
CONTINUOUS
 10
522.783386
 20
62.235367
 40
3.000000
 50
104.876099
 51
180.000000
  0
ARC
  8
0
  6
CONTINUOUS
 10
516.783386
 20
30.293921
 40
3.000000
 50
104.931801
 51
180.000000
  0
LINE
  8
0
  6
CONTINUOUS
 10
529.283386
 20
21.698740
 11
529.283386
 21
30.750099
  0
LINE
  8
0
  6
CONTINUOUS
 10
524.283386
 20
16.698740
 11
515.232361
 21
16.698740
  0
ARC
  8
0
  6
CONTINUOUS
 10
481.783356
 20
64.198761
 40
57.250000
 50
-32.501888
 51
19.914110
  0
ARC
  8
0
  6
CONTINUOUS
 10
481.783356
 20
64.198761
 40
57.250000
 50
243.004898
 51
298.995514
  0
ARC
  8
0
  6
CONTINUOUS
 10
524.283386
 20
21.698740
 40
5.000000
 50
-90.000000
 51
0.000000
  0
ARC
  8
0
  6
CONTINUOUS
 10
534.283386
 20
30.750099
 40
5.000000
 50
147.498093
 51
180.000000
  0
ARC
  8
0
  6
CONTINUOUS
 10
515.232361
 20
11.698740
 40
5.000000
 50
90.000000
 51
106.842003
  0
LINE
  8
0
  6
CONTINUOUS
 10
433.783569
 20
69.505905
 11
433.783569
 21
119.891602
  0
LINE
  8
0
  6
CONTINUOUS
 10
436.013550
 20
66.606453
 11
438.814758
 21
65.862366
  0
LINE
  8
0
  6
CONTINUOUS
 10
436.013550
 20
122.791039
 11
437.837158
 21
123.275482
  0
ARC
  8
0
  6
CONTINUOUS
 10
436.783752
 20
119.891602
 40
3.000000
 50
104.876099
 51
180.000000
  0
ARC
  8
0
  6
CONTINUOUS
 10
436.783569
 20
69.505928
 40
3.000000
 50
180.000000
 51
255.124603
  0
LINE
  8
0
  6
CONTINUOUS
 10
441.283569
 20
114.448738
 11
442.783569
 21
108.198738
  0
LINE
  8
0
  6
CONTINUOUS
 10
442.783569
 20
108.198738
 11
441.783569
 21
102.698738
  0
LINE
  8
0
  6
CONTINUOUS
 10
441.783569
 20
102.698738
 11
444.033569
 21
96.948738
  0
LINE
  8
0
  6
CONTINUOUS
 10
444.033569
 20
96.948738
 11
442.283569
 21
91.198761
  0
LINE
  8
0
  6
CONTINUOUS
 10
442.283569
 20
91.198761
 11
440.283569
 21
86.198761
  0
LINE
  8
0
  6
CONTINUOUS
 10
440.283569
 20
86.198761
 11
440.783569
 21
77.448761
  0
LINE
  8
0
  6
CONTINUOUS
 10
440.783569
 20
77.448761
 11
439.533569
 21
72.948761
  0
LINE
  8
0
  6
CONTINUOUS
 10
439.533569
 20
72.948761
 11
439.533569
 21
68.198761
  0
LINE
  8
0
  6
CONTINUOUS
 10
439.533569
 20
68.198761
 11
437.533569
 21
61.698761
  0
LINE
  8
0
  6
CONTINUOUS
 10
437.533569
 20
61.698761
 11
437.783569
 21
57.698761
  0
LINE
  8
0
  6
CONTINUOUS
 10
437.783569
 20
57.698761
 11
436.783569
 21
53.323761
  0
LINE
  8
0
  6
CONTINUOUS
 10
436.783569
 20
53.323761
 11
433.283569
 21
50.698761
  0
LINE
  8
0
  6
CONTINUOUS
 10
433.283569
 20
50.698761
 11
430.658569
 21
47.448761
  0
LINE
  8
0
  6
CONTINUOUS
 10
430.658569
 20
47.448761
 11
427.783569
 21
45.698761
  0
LINE
  8
0
  6
CONTINUOUS
 10
427.783569
 20
45.698761
 11
425.408569
 21
43.573761
  0
LINE
  8
0
  6
CONTINUOUS
 10
425.408569
 20
43.573761
 11
423.783569
 21
43.202339
  0
LINE
  8
0
  6
CONTINUOUS
 10
433.658569
 20
126.573738
 11
430.158569
 21
127.448738
  0
LINE
  8
0
  6
CONTINUOUS
 10
430.158569
 20
127.448738
 11
426.783569
 21
128.073746
  0
LINE
  8
0
  6
CONTINUOUS
 10
426.783569
 20
128.073746
 11
423.783569
 21
129.073761
  0
LINE
  8
0
  6
CONTINUOUS
 10
423.783569
 20
148.698761
 11
423.783569
 21
105.698738
  0
LINE
  8
0
  6
CONTINUOUS
 10
435.783569
 20
6.698780
 11
435.783569
 21
52.573761
  0
LINE
  8
0
  6
CONTINUOUS
 10
433.658569
 20
126.573738
 11
435.783569
 21
124.948738
  0
LINE
  8
0
  6
CONTINUOUS
 10
435.783569
 20
124.948738
 11
439.158569
 21
122.198738
  0
LINE
  8
0
  6
CONTINUOUS
 10
439.158569
 20
122.198738
 11
439.658569
 21
118.323738
  0
LINE
  8
0
  6
CONTINUOUS
 10
439.658569
 20
118.323738
 11
441.283569
 21
114.448738
  0
LINE
  8
0
  6
CONTINUOUS
 10
430.783569
 20
83.698761
 11
430.783569
 21
47.603523
  0
LINE
  8
0
  6
CONTINUOUS
 10
430.783569
 20
127.292519
 11
430.783569
 21
105.698738
  0
LINE
  8
0
  6
CONTINUOUS
 10
571.783386
 20
83.698761
 11
571.783386
 21
105.698738
  0
LINE
  8
0
  6
CONTINUOUS
 10
531.783386
 20
105.698738
 11
571.783386
 21
105.698738
  0
LINE
  8
0
  6
CONTINUOUS
 10
531.783386
 20
83.698761
 11
571.783386
 21
83.698761
  0
LINE
  8
0
  6
CONTINUOUS
 10
531.783386
 20
107.198738
 11
531.783386
 21
82.198761
  0
LINE
  8
0
  6
CONTINUOUS
 10
529.783386
 20
107.198738
 11
531.783386
 21
107.198738
  0
LINE
  8
0
  6
CONTINUOUS
 10
529.783386
 20
82.198761
 11
531.783386
 21
82.198761
  0
ARC
  8
0
  6
CONTINUOUS
 10
539.783386
 20
94.698761
 40
3.000000
 50
90.000000
 51
270.000000
  0
LINE
  8
0
  6
CONTINUOUS
 10
539.783386
 20
97.698738
 11
571.783386
 21
97.698738
  0
LINE
  8
0
  6
CONTINUOUS
 10
539.783386
 20
91.698761
 11
571.783386
 21
91.698761
  0
LINE
  8
0
  6
CONTINUOUS
 10
391.783752
 20
83.698761
 11
391.783752
 21
105.698738
  0
LINE
  8
0
  6
CONTINUOUS
 10
431.783752
 20
105.698738
 11
391.783752
 21
105.698738
  0
LINE
  8
0
  6
CONTINUOUS
 10
431.783752
 20
83.698761
 11
391.783752
 21
83.698761
  0
LINE
  8
0
  6
CONTINUOUS
 10
431.783752
 20
107.198738
 11
431.783752
 21
82.198761
  0
LINE
  8
0
  6
CONTINUOUS
 10
433.783752
 20
107.198738
 11
431.783752
 21
107.198738
  0
LINE
  8
0
  6
CONTINUOUS
 10
433.783752
 20
82.198761
 11
431.783752
 21
82.198761
  0
ARC
  8
0
  6
CONTINUOUS
 10
423.783752
 20
94.698761
 40
3.000000
 50
-90.000000
 51
90.000000
  0
LINE
  8
0
  6
CONTINUOUS
 10
423.783752
 20
97.698738
 11
391.783752
 21
97.698738
  0
LINE
  8
0
  6
CONTINUOUS
 10
423.783752
 20
91.698761
 11
391.783752
 21
91.698761
  0
ARC
  8
0
  6
CONTINUOUS
 10
433.865356
 20
146.198761
 40
2.500000
 50
15.000760
 51
90.000000
  0
ARC
  8
0
  6
CONTINUOUS
 10
433.865356
 20
7.198780
 40
2.500000
 50
270.000000
 51
345.000214
  0
ARC
  8
0
  6
CONTINUOUS
 10
481.783356
 20
64.198761
 40
57.499821
 50
303.815704
 51
303.996307
  0
ARC
  8
0
  6
CONTINUOUS
 10
481.783356
 20
64.198761
 40
57.500000
 50
242.540298
 51
299.460602
  0
ARC
  8
0
  6
CONTINUOUS
 10
481.783356
 20
64.198761
 40
57.500000
 50
-33.996769
 51
19.823891
  0
ARC
  8
0
  6
CONTINUOUS
 10
481.783356
 20
64.198761
 40
57.500000
 50
303.815613
 51
303.997314
  0
LINE
  8
0
  6
CONTINUOUS
 10
205.251236
 20
336.413025
 11
205.048523
 21
328.673767
  0
ARC
  8
0
  6
CONTINUOUS
 10
206.750717
 20
336.373749
 40
1.500000
 50
90.000000
 51
178.499649
  0
ARC
  8
0
  6
CONTINUOUS
 10
202.789536
 20
258.873749
 40
1.000000
 50
90.000000
 51
180.000000
  0
ARC
  8
0
  6
CONTINUOUS
 10
202.270569
 20
260.805267
 40
1.000000
 50
285.039185
 51
358.499664
  0
LINE
  8
0
  6
CENTER
 10
258.789520
 20
402.075439
 11
258.789520
 21
205.649796
  0
LINE
  8
0
  6
CONTINUOUS
 10
233.596680
 20
353.873749
 11
283.982361
 21
353.873749
  0
LINE
  8
0
  6
CONTINUOUS
 10
288.945770
 20
343.873749
 11
292.232635
 21
343.873749
  0
ARC
  8
0
  6
CONTINUOUS
 10
283.982361
 20
350.873749
 40
3.000000
 50
-345.124329
 51
-270.000000
  0
LINE
  8
0
  6
CONTINUOUS
 10
295.132080
 20
341.643921
 11
295.541229
 21
340.103607
  0
ARC
  8
0
  6
CONTINUOUS
 10
292.232635
 20
340.873749
 40
3.000000
 50
-345.124329
 51
-270.000000
  0
ARC
  8
0
  6
CONTINUOUS
 10
298.440674
 20
340.873749
 40
3.000000
 50
-165.124313
 51
-90.000000
  0
LINE
  8
0
  6
CONTINUOUS
 10
288.945770
 20
343.873749
 11
286.881836
 21
351.643921
  0
LINE
  8
0
  6
CONTINUOUS
 10
222.446976
 20
341.643921
 11
222.037827
 21
340.103577
  0
ARC
  8
0
  6
CONTINUOUS
 10
225.346436
 20
340.873749
 40
3.000000
 50
90.000000
 51
165.124313
  0
ARC
  8
0
  6
CONTINUOUS
 10
219.138382
 20
340.873749
 40
3.000000
 50
-90.000000
 51
-14.875682
  0
LINE
  8
0
  6
CONTINUOUS
 10
228.633286
 20
343.873749
 11
225.346436
 21
343.873749
  0
ARC
  8
0
  6
CONTINUOUS
 10
233.596680
 20
350.873749
 40
3.000000
 50
90.000000
 51
165.124313
  0
LINE
  8
0
  6
CONTINUOUS
 10
228.633286
 20
343.873749
 11
230.697235
 21
351.643921
  0
LINE
  8
0
  6
CONTINUOUS
 10
247.789536
 20
215.873764
 11
272.289520
 21
215.873764
  0
LINE
  8
0
  6
CONTINUOUS
 10
247.789536
 20
247.873764
 11
247.789536
 21
215.873764
  0
LINE
  8
0
  6
CONTINUOUS
 10
272.289520
 20
247.873764
 11
272.289520
 21
215.873764
  0
LINE
  8
0
  6
CONTINUOUS
 10
269.372528
 20
215.873764
 11
269.372528
 21
247.873764
  0
LINE
  8
0
  6
CONTINUOUS
 10
247.789536
 20
395.873749
 11
272.289520
 21
395.873749
  0
LINE
  8
0
  6
CONTINUOUS
 10
269.789520
 20
355.873749
 11
269.789520
 21
360.873749
  0
LINE
  8
0
  6
CONTINUOUS
 10
247.789536
 20
355.873749
 11
247.789536
 21
395.873749
  0
LINE
  8
0
  6
CONTINUOUS
 10
271.289520
 20
353.873749
 11
271.289520
 21
355.873749
  0
LINE
  8
0
  6
CONTINUOUS
 10
246.289536
 20
353.873749
 11
246.289536
 21
355.873749
  0
LINE
  8
0
  6
CONTINUOUS
 10
246.289536
 20
355.873749
 11
271.289520
 21
355.873749
  0
LINE
  8
0
  6
CONTINUOUS
 10
272.289520
 20
360.873749
 11
272.289520
 21
395.873749
  0
LINE
  8
0
  6
CONTINUOUS
 10
269.372528
 20
395.873749
 11
269.372528
 21
360.873749
  0
LINE
  8
0
  6
CONTINUOUS
 10
269.372528
 20
360.873749
 11
272.289520
 21
360.873749
  0
ARC
  8
0
  6
CONTINUOUS
 10
143.605118
 20
307.467438
 40
65.000000
 50
-22.042076
 51
19.041388
  0
LINE
  8
0
  6
CONTINUOUS
 10
203.854172
 20
283.073761
 11
203.270233
 21
260.779083
  0
LINE
  8
0
  6
CONTINUOUS
 10
28.039532
 20
15.198780
 11
28.039532
 21
91.198761
  0
LINE
  8
0
  6
CONTINUOUS
 10
28.039532
 20
91.198738
 11
142.039536
 21
91.198738
  0
LINE
  8
0
  6
CONTINUOUS
 10
28.039532
 20
15.198780
 11
142.039536
 21
15.198780
  0
LINE
  8
0
  6
CONTINUOUS
 10
28.039532
 20
83.447739
 11
134.039536
 21
83.447739
  0
LINE
  8
0
  6
CONTINUOUS
 10
28.039532
 20
22.949780
 11
134.039536
 21
22.949780
  0
LINE
  8
0
  6
CONTINUOUS
 10
134.039536
 20
89.198738
 11
134.039536
 21
17.198759
  0
ARC
  8
0
  6
CONTINUOUS
 10
136.039536
 20
89.198761
 40
2.000000
 50
90.000000
 51
180.000000
  0
ARC
  8
0
  6
CONTINUOUS
 10
136.039536
 20
17.198780
 40
2.000000
 50
180.000000
 51
270.000000
  0
LINE
  8
0
  6
CONTINUOUS
 10
7.539531
 20
21.198759
 11
7.539531
 21
85.198761
  0
LINE
  8
0
  6
CONTINUOUS
 10
11.503611
 20
91.198761
 11
28.039532
 21
91.198761
  0
LINE
  8
0
  6
CONTINUOUS
 10
11.503627
 20
15.198760
 11
28.039532
 21
15.198760
  0
LINE
  8
0
  6
CONTINUOUS
 10
8.039531
 20
18.198759
 11
8.039531
 21
88.198761
  0
LINE
  8
0
  6
CONTINUOUS
 10
7.539531
 20
85.198761
 11
8.039531
 21
85.698761
  0
LINE
  8
0
  6
CONTINUOUS
 10
7.539531
 20
21.198759
 11
8.039531
 21
20.698759
  0
LINE
  8
0
  6
CONTINUOUS
 10
8.905544
 20
89.698738
 11
8.039531
 21
88.198761
  0
ARC
  8
0
  6
CONTINUOUS
 10
11.503627
 20
88.198776
 40
3.000000
 50
90.000000
 51
150.000397
  0
LINE
  8
0
  6
CONTINUOUS
 10
8.905544
 20
16.698780
 11
8.039531
 21
18.198759
  0
ARC
  8
0
  6
CONTINUOUS
 10
11.503627
 20
18.198759
 40
3.000000
 50
-150.000397
 51
-90.000000
  0
LINE
  8
0
  6
CONTINUOUS
 10
9.621165
 20
83.447769
 11
28.039532
 21
83.447769
  0
LINE
  8
0
  6
CONTINUOUS
 10
28.039532
 20
22.949760
 11
9.621165
 21
22.949760
  0
LINE
  8
0
  6
CONTINUOUS
 10
28.539532
 20
92.698761
 11
28.539532
 21
91.198761
  0
LINE
  8
0
  6
CONTINUOUS
 10
21.539532
 20
92.698761
 11
21.539532
 21
91.198761
  0
LINE
  8
0
  6
CONTINUOUS
 10
21.539532
 20
92.698761
 11
28.539532
 21
92.698761
  0
LINE
  8
0
  6
CONTINUOUS
 10
25.939526
 20
105.698761
 11
25.939526
 21
92.698761
  0
LINE
  8
0
  6
CONTINUOUS
 10
24.139538
 20
106.323761
 11
24.139538
 21
92.698761
  0
LINE
  8
0
  6
CONTINUOUS
 10
22.339520
 20
104.261261
 11
22.339520
 21
92.698761
  0
LINE
  8
0
  6
CONTINUOUS
 10
27.739531
 20
105.073761
 11
27.739531
 21
92.698761
  0
LINE
  8
0
  6
CONTINUOUS
 10
24.139538
 20
106.323761
 11
25.939526
 21
105.698761
  0
LINE
  8
0
  6
CONTINUOUS
 10
22.339520
 20
104.261261
 11
24.139538
 21
104.886261
  0
LINE
  8
0
  6
CONTINUOUS
 10
27.739531
 20
105.073761
 11
25.940531
 21
104.626060
  0
LINE
  8
0
  6
CONTINUOUS
 10
183.626785
 20
92.651016
 11
142.039536
 21
91.198761
  0
LINE
  8
0
  6
CONTINUOUS
 10
194.039536
 20
13.382880
 11
142.039536
 21
15.198760
  0
LINE
  8
0
  6
CONTINUOUS
 10
186.039536
 20
120.698761
 11
186.039536
 21
93.698761
  0
LINE
  8
0
  6
CONTINUOUS
 10
187.039536
 20
121.698761
 11
194.039551
 21
121.698761
  0
LINE
  8
0
  6
CONTINUOUS
 10
188.539536
 20
6.698760
 11
194.039536
 21
6.698760
  0
LINE
  8
0
  6
CONTINUOUS
 10
186.039536
 20
94.198761
 11
186.039536
 21
23.286104
  0
LINE
  8
0
  6
CONTINUOUS
 10
142.039536
 20
91.198761
 11
142.039536
 21
15.198760
  0
LINE
  8
0
  6
CONTINUOUS
 10
184.626404
 20
104.516563
 11
158.682968
 21
91.992149
  0
ARC
  8
0
  6
CONTINUOUS
 10
187.039536
 20
120.698761
 40
1.000000
 50
90.000000
 51
180.000000
  0
ARC
  8
0
  6
CONTINUOUS
 10
183.539536
 20
106.767944
 40
2.500000
 50
-64.230675
 51
0.000000
  0
ARC
  8
0
  6
CONTINUOUS
 10
183.539536
 20
95.149498
 40
2.500000
 50
-88.000000
 51
0.000000
  0
ARC
  8
0
  6
CONTINUOUS
 10
157.596100
 20
94.243530
 40
2.500000
 50
272.000000
 51
295.769318
  0
LINE
  8
0
  6
CONTINUOUS
 10
187.164612
 20
21.044760
 11
194.039536
 21
21.044760
  0
LINE
  8
0
  6
CONTINUOUS
 10
186.039536
 20
9.198760
 11
186.039536
 21
11.248024
  0
ARC
  8
0
  6
CONTINUOUS
 10
188.539536
 20
9.198760
 40
2.500000
 50
180.000000
 51
270.000000
  0
ARC
  8
0
  6
CONTINUOUS
 10
183.539536
 20
11.248024
 40
2.500000
 50
0.000000
 51
88.000000
  0
LINE
  8
0
  6
CENTER
 10
-4.535469
 20
53.198761
 11
226.789536
 21
53.198761
  0
LINE
  8
0
  6
CONTINUOUS
 10
188.539536
 20
248.373764
 11
194.039536
 21
248.373764
  0
LINE
  8
0
  6
CONTINUOUS
 10
188.539536
 20
363.373749
 11
194.039536
 21
363.373749
  0
LINE
  8
0
  6
CONTINUOUS
 10
186.039536
 20
250.873764
 11
186.039536
 21
360.873749
  0
LINE
  8
0
  6
CONTINUOUS
 10
142.039536
 20
343.873749
 11
142.039536
 21
267.873749
  0
LINE
  8
0
  6
CONTINUOUS
 10
183.626785
 20
345.326019
 11
142.039536
 21
343.873749
  0
LINE
  8
0
  6
CONTINUOUS
 10
183.626785
 20
266.421509
 11
142.039536
 21
267.873749
  0
ARC
  8
0
  6
CONTINUOUS
 10
188.539536
 20
360.873749
 40
2.500000
 50
90.000000
 51
180.000000
  0
ARC
  8
0
  6
CONTINUOUS
 10
188.539536
 20
250.873764
 40
2.500000
 50
180.000000
 51
270.000000
  0
LINE
  8
0
  6
CONTINUOUS
 10
142.039536
 20
343.873749
 11
142.039536
 21
267.873749
  0
LINE
  8
0
  6
CONTINUOUS
 10
28.039654
 20
267.873779
 11
28.039654
 21
299.007721
  0
LINE
  8
0
  6
CONTINUOUS
 10
28.039654
 20
343.873749
 11
142.039658
 21
343.873749
  0
LINE
  8
0
  6
CONTINUOUS
 10
28.039654
 20
267.873779
 11
142.039658
 21
267.873779
  0
LINE
  8
0
  6
CONTINUOUS
 10
134.039658
 20
341.873749
 11
134.039658
 21
328.873749
  0
ARC
  8
0
  6
CONTINUOUS
 10
136.039658
 20
341.873749
 40
2.000000
 50
90.000000
 51
180.000000
  0
ARC
  8
0
  6
CONTINUOUS
 10
136.039658
 20
269.873779
 40
2.000000
 50
180.000000
 51
270.000000
  0
LINE
  8
0
  6
CONTINUOUS
 10
7.539653
 20
273.873749
 11
7.539653
 21
337.873749
  0
LINE
  8
0
  6
CONTINUOUS
 10
11.503733
 20
343.873749
 11
28.039654
 21
343.873749
  0
LINE
  8
0
  6
CONTINUOUS
 10
11.503753
 20
267.873749
 11
28.039654
 21
267.873749
  0
LINE
  8
0
  6
CONTINUOUS
 10
8.039653
 20
270.873749
 11
8.039653
 21
340.873749
  0
LINE
  8
0
  6
CONTINUOUS
 10
7.539653
 20
337.873749
 11
8.039653
 21
338.373749
  0
LINE
  8
0
  6
CONTINUOUS
 10
7.539653
 20
273.873749
 11
8.039653
 21
273.373749
  0
LINE
  8
0
  6
CONTINUOUS
 10
8.905673
 20
342.373749
 11
8.039653
 21
340.873749
  0
ARC
  8
0
  6
CONTINUOUS
 10
11.503753
 20
340.873779
 40
3.000000
 50
90.000000
 51
150.000397
  0
LINE
  8
0
  6
CONTINUOUS
 10
8.905673
 20
269.373779
 11
8.039653
 21
270.873749
  0
ARC
  8
0
  6
CONTINUOUS
 10
11.503753
 20
270.873749
 40
3.000000
 50
-150.000397
 51
-90.000000
  0
LINE
  8
0
  6
CONTINUOUS
 10
28.039654
 20
328.873749
 11
134.039658
 21
328.873749
  0
LINE
  8
0
  6
CONTINUOUS
 10
28.039654
 20
328.873749
 11
9.621283
 21
328.873749
  0
LINE
  8
0
  6
CONTINUOUS
 10
28.039654
 20
282.873749
 11
134.039658
 21
282.873749
  0
LINE
  8
0
  6
CONTINUOUS
 10
28.039654
 20
282.873749
 11
9.621283
 21
282.873749
  0
LINE
  8
0
  6
CONTINUOUS
 10
134.039658
 20
282.873749
 11
134.039658
 21
269.873749
  0
LINE
  8
0
  6
CONTINUOUS
 10
21.539654
 20
299.873749
 11
21.539654
 21
311.873749
  0
LINE
  8
0
  6
CONTINUOUS
 10
28.539654
 20
299.873749
 11
28.539654
 21
311.873749
  0
LINE
  8
0
  6
CONTINUOUS
 10
22.539654
 20
312.873749
 11
27.539654
 21
312.873749
  0
LINE
  8
0
  6
CONTINUOUS
 10
27.539654
 20
298.873749
 11
22.539654
 21
298.873749
  0
ARC
  8
0
  6
CONTINUOUS
 10
27.539654
 20
311.873749
 40
1.000000
 50
0.000000
 51
90.000000
  0
ARC
  8
0
  6
CONTINUOUS
 10
22.539654
 20
311.873749
 40
1.000000
 50
90.000000
 51
180.000000
  0
ARC
  8
0
  6
CONTINUOUS
 10
22.539654
 20
299.873749
 40
1.000000
 50
180.000000
 51
270.000000
  0
ARC
  8
0
  6
CONTINUOUS
 10
27.539654
 20
299.873749
 40
1.000000
 50
-90.000000
 51
0.000000
  0
LINE
  8
0
  6
CONTINUOUS
 10
26.039654
 20
302.373749
 11
26.039654
 21
309.373749
  0
LINE
  8
0
  6
CONTINUOUS
 10
24.039654
 20
302.373749
 11
24.039654
 21
309.373749
  0
ARC
  8
0
  6
CONTINUOUS
 10
25.039654
 20
309.373749
 40
1.000000
 50
90.000000
 51
180.000000
  0
ARC
  8
0
  6
CONTINUOUS
 10
25.039654
 20
309.373749
 40
1.000000
 50
0.000000
 51
90.000000
  0
ARC
  8
0
  6
CONTINUOUS
 10
25.039654
 20
302.373749
 40
1.000000
 50
180.000000
 51
270.000000
  0
ARC
  8
0
  6
CONTINUOUS
 10
25.039654
 20
302.373749
 40
1.000000
 50
-90.000000
 51
0.000000
  0
LINE
  8
0
  6
CONTINUOUS
 10
28.039654
 20
312.739777
 11
28.039654
 21
343.873749
  0
ARC
  8
0
  6
CONTINUOUS
 10
173.209167
 20
305.873749
 40
15.000000
 50
130.747620
 51
229.252380
  0
LINE
  8
0
  6
CONTINUOUS
 10
185.171356
 20
335.979767
 11
163.418243
 21
317.237640
  0
LINE
  8
0
  6
CONTINUOUS
 10
185.171356
 20
275.767761
 11
163.418243
 21
294.509888
  0
ARC
  8
0
  6
CONTINUOUS
 10
183.539536
 20
337.873718
 40
2.500000
 50
-49.252373
 51
0.000000
  0
ARC
  8
0
  6
CONTINUOUS
 10
183.539536
 20
347.824493
 40
2.500000
 50
-88.000000
 51
0.000000
  0
ARC
  8
0
  6
CONTINUOUS
 10
183.539536
 20
273.873779
 40
2.500000
 50
0.000000
 51
49.252373
  0
ARC
  8
0
  6
CONTINUOUS
 10
183.539536
 20
263.923035
 40
2.500000
 50
0.000000
 51
88.000000
  0
LINE
  8
0
  6
CENTER
 10
303.789612
 20
147.625626
 11
303.789612
 21
127.717499
  0
LINE
  8
0
  6
DASHED
 10
298.289612
 20
259.873749
 11
298.289612
 21
247.873764
  0
LINE
  8
0
  6
DASHED
 10
309.289612
 20
259.873749
 11
309.289612
 21
247.873764
  0
LINE
  8
0
  6
CENTER
 10
213.789444
 20
264.398743
 11
213.789444
 21
243.770630
  0
LINE
  8
0
  6
DASHED
 10
219.289444
 20
259.873749
 11
219.289444
 21
247.873764
  0
LINE
  8
0
  6
DASHED
 10
208.289444
 20
259.873749
 11
208.289444
 21
247.873764
  0
LINE
  8
0
  6
CONTINUOUS
 10
142.039536
 20
43.798759
 11
186.039536
 21
43.798759
  0
LINE
  8
0
  6
CONTINUOUS
 10
142.039536
 20
33.598759
 11
186.039536
 21
33.598759
  0
TEXT
  8
0
 10
-8.000000
 20
-12.000000
 40
4.000000
 41
1.000000
  1
HFM-22T-300~1800-T15W
 50
0.000000
  0
ENDSEC
  0
EOF
