  0
SECTION
  2
HEADER
  9
$CLAYER
  8
1
  9
$LTSCALE
 40
3.0
  0
ENDSEC
  0
SECTION
  2
TABLES
  0
TABLE
  2
LTYPE
 70
     4
  0
LTYPE
  2
CONTINUOUS
  3
solid line
 70
    64
 72
    65
 73
     0
 40
0.0
  0
LTYPE
  2
DASHED
  3
__ __ __ __ __ __ __ __ __ __ __ __ __ __ __
 70
    64
 72
    65
 73
     2
 40
0.75
 49
0.5
 49
-0.25
  0
LTYPE
  2
CENTER
  3
____ _ ____ _ ____ _ ____ _ ____ _ ____ _ ____
 70
    64
 72
    65
 73
     4
 40
2.0
 49
1.25
 49
-0.25
 49
0.25
 49
-0.25
  0
LTYPE
  2
PHANTOM
  3
_____ _ _ _____ _ _ _____ _ _ _____ _ _ ____
 70
    64
 72
    65
 73
     6
 40
2.5
 49
1.25
 49
-0.25
 49
0.25
 49
-0.25
 49
0.25
 49
-0.25
  0
ENDTAB
  0
TABLE
  2
LAYER
 70
     1
  0
LAYER
  2
0
 70
    64
 62
     7
  6
CONTINUOUS
  0
ENDTAB
  0
TABLE
  2
STYLE
 70
     1
  0
STYLE
  2
STANDARD
 70
     0
 40
0.000000
 41
1.000000
 50
0.000000
 71
     0
 42
3.000000
  3
txt
  4
BIGFONT
  0
ENDTAB
  0
ENDSEC
  0
SECTION
  2
BLOCKS
  0
ENDSEC
  0
SECTION
  2
ENTITIES
  0
LINE
  8
0
  6
CENTER
 10
313.350128
 20
295.828766
 11
-15.304343
 21
295.828766
  0
LINE
  8
0
  6
CONTINUOUS
 10
189.364532
 20
238.578766
 11
186.864532
 21
238.578766
  0
LINE
  8
0
  6
CONTINUOUS
 10
191.381927
 20
353.078766
 11
186.864532
 21
353.078766
  0
LINE
  8
0
  6
CONTINUOUS
 10
194.114532
 20
238.578766
 11
186.864532
 21
238.578766
  0
LINE
  8
0
  6
CONTINUOUS
 10
195.568756
 20
263.828766
 11
186.864532
 21
263.828766
  0
LINE
  8
0
  6
CONTINUOUS
 10
194.131134
 20
248.328766
 11
186.864532
 21
248.328766
  0
LINE
  8
0
  6
CONTINUOUS
 10
192.224930
 20
343.328766
 11
186.864532
 21
343.328766
  0
LINE
  8
0
  6
CONTINUOUS
 10
186.864532
 20
327.828766
 11
303.653320
 21
327.828766
  0
LINE
  8
0
  6
CONTINUOUS
 10
192.381729
 20
352.096252
 11
192.719604
 21
332.741486
  0
ARC
  8
0
  6
CONTINUOUS
 10
191.381836
 20
352.078766
 40
1.000000
 50
1.000700
 51
90.000000
  0
ARC
  8
0
  6
CONTINUOUS
 10
197.718933
 20
332.828766
 40
5.000000
 50
-178.999802
 51
-90.000000
  0
LINE
  8
0
  6
CONTINUOUS
 10
186.864532
 20
353.328766
 11
186.864532
 21
238.328766
  0
LINE
  8
0
  6
CONTINUOUS
 10
308.614532
 20
237.828766
 11
194.614532
 21
237.828766
  0
LINE
  8
0
  6
CONTINUOUS
 10
231.614532
 20
327.828766
 11
231.614532
 21
250.631058
  0
LINE
  8
0
  6
CONTINUOUS
 10
271.614532
 20
327.828766
 11
271.614532
 21
250.631058
  0
LINE
  8
0
  6
CONTINUOUS
 10
305.152832
 20
326.368073
 11
307.136536
 21
250.631058
  0
ARC
  8
0
  6
CONTINUOUS
 10
303.653229
 20
326.328766
 40
1.500000
 50
1.500200
 51
90.000000
  0
LINE
  8
0
  6
CONTINUOUS
 10
195.614532
 20
249.828766
 11
307.326019
 21
249.828766
  0
LINE
  8
0
  6
CONTINUOUS
 10
194.614532
 20
248.828766
 11
194.614532
 21
237.828766
  0
LINE
  8
0
  6
CONTINUOUS
 10
308.614532
 20
237.828766
 11
308.325745
 21
248.854965
  0
ARC
  8
0
  6
CONTINUOUS
 10
307.326019
 20
248.828766
 40
1.000000
 50
1.500100
 51
90.000000
  0
ARC
  8
0
  6
CONTINUOUS
 10
308.135925
 20
250.657257
 40
1.000000
 50
-178.499603
 51
-113.891197
  0
ARC
  8
0
  6
CONTINUOUS
 10
194.114532
 20
238.078766
 40
0.500000
 50
0.000000
 51
90.000000
  0
LINE
  8
0
  6
CENTER
 10
108.701248
 20
54.153759
 11
218.808334
 21
54.153759
  0
LINE
  8
0
  6
CENTER
 10
251.614532
 20
149.735016
 11
251.614532
 21
-18.002501
  0
LINE
  8
0
  6
CENTER
 10
196.022507
 20
84.653763
 11
316.683411
 21
84.653763
  0
LINE
  8
0
  6
CONTINUOUS
 10
201.614456
 20
89.014458
 11
201.614456
 21
44.293072
  0
LINE
  8
0
  6
CONTINUOUS
 10
301.614624
 20
89.014420
 11
301.614624
 21
44.293072
  0
ARC
  8
0
  6
CONTINUOUS
 10
251.614532
 20
66.653770
 40
60.000000
 50
48.189621
 51
131.810394
  0
ARC
  8
0
  6
CONTINUOUS
 10
251.614532
 20
66.653770
 40
60.000000
 50
228.189697
 51
311.810303
  0
ARC
  8
0
  6
CONTINUOUS
 10
271.614624
 20
89.014420
 40
30.000000
 50
0.000000
 51
48.189629
  0
CIRCLE
  8
0
  6
CONTINUOUS
 10
251.614532
 20
84.653763
 40
27.500000
  0
ARC
  8
0
  6
CONTINUOUS
 10
251.614532
 20
84.653763
 40
31.750000
 50
7.552697
 51
172.447403
  0
ARC
  8
0
  6
CONTINUOUS
 10
234.864532
 20
43.153763
 40
20.600000
 50
172.447403
 51
270.000000
  0
ARC
  8
0
  6
CONTINUOUS
 10
268.364532
 20
43.153763
 40
20.600000
 50
-90.000000
 51
7.552700
  0
LINE
  8
0
  6
CONTINUOUS
 10
283.089203
 20
88.826920
 11
288.785797
 21
45.861389
  0
LINE
  8
0
  6
CONTINUOUS
 10
214.443130
 20
45.861351
 11
220.139954
 21
88.826859
  0
LINE
  8
0
  6
CONTINUOUS
 10
234.864532
 20
22.553761
 11
268.364532
 21
22.553761
  0
ARC
  8
0
  6
CONTINUOUS
 10
234.864532
 20
43.153763
 40
19.000000
 50
172.447601
 51
270.000000
  0
ARC
  8
0
  6
CONTINUOUS
 10
268.364532
 20
43.153763
 40
19.000000
 50
-90.000000
 51
7.552700
  0
ARC
  8
0
  6
CONTINUOUS
 10
251.614532
 20
84.653763
 40
30.150000
 50
-187.552597
 51
7.552697
  0
LINE
  8
0
  6
CONTINUOUS
 10
216.029327
 20
45.651054
 11
221.726135
 21
88.616577
  0
LINE
  8
0
  6
CONTINUOUS
 10
281.503021
 20
88.616600
 11
287.199799
 21
45.651089
  0
LINE
  8
0
  6
CONTINUOUS
 10
234.864532
 20
24.153761
 11
268.364532
 21
24.153761
  0
LINE
  8
0
  6
CONTINUOUS
 10
241.318130
 20
31.653761
 11
237.157730
 21
31.653761
  0
LINE
  8
0
  6
CONTINUOUS
 10
243.614532
 20
38.622513
 11
243.614532
 21
31.653761
  0
LINE
  8
0
  6
CONTINUOUS
 10
247.614532
 20
41.153763
 11
247.614532
 21
43.653763
  0
LINE
  8
0
  6
CONTINUOUS
 10
255.614532
 20
41.153763
 11
255.614532
 21
43.653763
  0
LINE
  8
0
  6
CONTINUOUS
 10
250.833328
 20
42.185013
 11
250.833328
 21
32.966259
  0
LINE
  8
0
  6
CONTINUOUS
 10
252.333328
 20
42.185013
 11
252.333328
 21
32.966259
  0
LINE
  8
0
  6
CONTINUOUS
 10
260.208344
 20
42.185013
 11
260.208344
 21
32.903759
  0
LINE
  8
0
  6
CONTINUOUS
 10
261.583344
 20
37.263138
 11
261.583344
 21
32.903759
  0
LINE
  8
0
  6
CONTINUOUS
 10
241.716553
 20
42.060013
 11
237.861526
 21
42.060013
  0
LINE
  8
0
  6
CONTINUOUS
 10
237.861526
 20
42.060013
 11
236.958328
 21
40.940018
  0
LINE
  8
0
  6
CONTINUOUS
 10
237.066956
 20
43.653763
 11
235.614532
 21
41.794006
  0
LINE
  8
0
  6
CONTINUOUS
 10
236.958328
 20
34.026699
 11
237.875931
 21
33.060001
  0
LINE
  8
0
  6
CONTINUOUS
 10
235.614532
 20
33.210941
 11
237.157730
 21
31.653761
  0
LINE
  8
0
  6
CONTINUOUS
 10
235.614532
 20
41.794006
 11
235.614532
 21
33.210941
  0
LINE
  8
0
  6
CONTINUOUS
 10
236.958328
 20
40.940018
 11
236.958328
 21
34.026699
  0
LINE
  8
0
  6
CONTINUOUS
 10
242.458328
 20
41.342911
 11
241.701355
 21
42.060013
  0
LINE
  8
0
  6
CONTINUOUS
 10
242.446335
 20
43.653763
 11
243.614532
 21
42.357269
  0
LINE
  8
0
  6
CONTINUOUS
 10
242.458328
 20
41.153763
 11
243.614532
 21
41.153763
  0
LINE
  8
0
  6
CONTINUOUS
 10
237.066956
 20
43.653763
 11
242.446335
 21
43.653763
  0
LINE
  8
0
  6
CONTINUOUS
 10
240.364532
 20
38.622513
 11
243.614532
 21
38.622513
  0
LINE
  8
0
  6
CONTINUOUS
 10
242.458328
 20
37.310017
 11
240.364532
 21
37.310017
  0
LINE
  8
0
  6
CONTINUOUS
 10
239.958328
 20
33.060001
 11
237.875931
 21
33.060001
  0
LINE
  8
0
  6
CONTINUOUS
 10
242.458328
 20
36.060017
 11
242.458328
 21
37.060017
  0
ARC
  8
0
  6
CONTINUOUS
 10
239.958328
 20
35.560009
 40
2.500000
 50
-89.999786
 51
0.000109
  0
LINE
  8
0
  6
CONTINUOUS
 10
242.458328
 20
32.610321
 11
242.458328
 21
31.653761
  0
LINE
  8
0
  6
CONTINUOUS
 10
243.614532
 20
42.357269
 11
243.614532
 21
41.153763
  0
LINE
  8
0
  6
CONTINUOUS
 10
242.458328
 20
37.310017
 11
242.458328
 21
35.560017
  0
LINE
  8
0
  6
CONTINUOUS
 10
240.364532
 20
38.622513
 11
240.364532
 21
37.310017
  0
LINE
  8
0
  6
CONTINUOUS
 10
242.458328
 20
31.653761
 11
243.614532
 21
31.653761
  0
LINE
  8
0
  6
CONTINUOUS
 10
242.458328
 20
32.610321
 11
241.318130
 21
31.653761
  0
LINE
  8
0
  6
CONTINUOUS
 10
252.333328
 20
32.966259
 11
252.833328
 21
32.966259
  0
LINE
  8
0
  6
CONTINUOUS
 10
250.239532
 20
32.966259
 11
250.239532
 21
31.653761
  0
LINE
  8
0
  6
CONTINUOUS
 10
252.833328
 20
32.966259
 11
252.833328
 21
31.653761
  0
LINE
  8
0
  6
CONTINUOUS
 10
254.780136
 20
41.153763
 11
255.614532
 21
41.153763
  0
LINE
  8
0
  6
CONTINUOUS
 10
247.614532
 20
41.153763
 11
248.502533
 21
41.153763
  0
LINE
  8
0
  6
CONTINUOUS
 10
247.614532
 20
43.653763
 11
255.614532
 21
43.653763
  0
LINE
  8
0
  6
CONTINUOUS
 10
250.239532
 20
31.653761
 11
252.833328
 21
31.653761
  0
LINE
  8
0
  6
CONTINUOUS
 10
250.239532
 20
32.966259
 11
250.833328
 21
32.966259
  0
ARC
  8
0
  6
CONTINUOUS
 10
264.411316
 20
40.450638
 40
3.203126
 50
-73.981873
 51
90.003510
  0
ARC
  8
0
  6
CONTINUOUS
 10
264.411316
 20
40.450638
 40
1.954124
 50
-82.585274
 51
62.411850
  0
LINE
  8
0
  6
CONTINUOUS
 10
259.614532
 20
43.653763
 11
264.411316
 21
43.653763
  0
LINE
  8
0
  6
CONTINUOUS
 10
264.663544
 20
38.512852
 11
261.583344
 21
38.512852
  0
LINE
  8
0
  6
CONTINUOUS
 10
259.614532
 20
43.653763
 11
259.614532
 21
42.185013
  0
LINE
  8
0
  6
CONTINUOUS
 10
261.583344
 20
42.185013
 11
261.583344
 21
38.512852
  0
LINE
  8
0
  6
CONTINUOUS
 10
265.295319
 20
37.371876
 11
267.277740
 21
32.903759
  0
LINE
  8
0
  6
CONTINUOUS
 10
264.143738
 20
37.263138
 11
266.019928
 21
32.903759
  0
LINE
  8
0
  6
CONTINUOUS
 10
259.614532
 20
32.903759
 11
260.208344
 21
32.903759
  0
LINE
  8
0
  6
CONTINUOUS
 10
261.583344
 20
32.903759
 11
262.130127
 21
32.903759
  0
LINE
  8
0
  6
CONTINUOUS
 10
262.130127
 20
31.653761
 11
259.614532
 21
31.653761
  0
LINE
  8
0
  6
CONTINUOUS
 10
265.770721
 20
32.903759
 11
266.019928
 21
32.903759
  0
LINE
  8
0
  6
CONTINUOUS
 10
265.770721
 20
31.653761
 11
267.614532
 21
31.653761
  0
LINE
  8
0
  6
CONTINUOUS
 10
265.770721
 20
32.903759
 11
265.770721
 21
31.653761
  0
LINE
  8
0
  6
CONTINUOUS
 10
262.130127
 20
32.903759
 11
262.130127
 21
31.653761
  0
LINE
  8
0
  6
CONTINUOUS
 10
259.614532
 20
32.903759
 11
259.614532
 21
31.653761
  0
LINE
  8
0
  6
CONTINUOUS
 10
248.932327
 20
42.185013
 11
248.502533
 21
41.153763
  0
LINE
  8
0
  6
CONTINUOUS
 10
254.417755
 20
42.185013
 11
254.780136
 21
41.153763
  0
LINE
  8
0
  6
CONTINUOUS
 10
252.333328
 20
42.185013
 11
254.417755
 21
42.185013
  0
LINE
  8
0
  6
CONTINUOUS
 10
250.833328
 20
42.185013
 11
248.932327
 21
42.185013
  0
LINE
  8
0
  6
CONTINUOUS
 10
261.583344
 20
37.263138
 11
264.143738
 21
37.263138
  0
LINE
  8
0
  6
CONTINUOUS
 10
259.614532
 20
42.185013
 11
260.208344
 21
42.185013
  0
LINE
  8
0
  6
CONTINUOUS
 10
261.583344
 20
42.185013
 11
265.316345
 21
42.182587
  0
LINE
  8
0
  6
CONTINUOUS
 10
242.458328
 20
41.342911
 11
242.458328
 21
41.153763
  0
ARC
  8
0
  6
CONTINUOUS
 10
231.614532
 20
89.014458
 40
30.000000
 50
131.810394
 51
180.000000
  0
ARC
  8
0
  6
CONTINUOUS
 10
231.614532
 20
44.293072
 40
30.000000
 50
180.000000
 51
228.189697
  0
LINE
  8
0
  6
CONTINUOUS
 10
186.864548
 20
111.403740
 11
194.614456
 21
111.403740
  0
LINE
  8
0
  6
CONTINUOUS
 10
192.428909
 20
-3.096260
 11
186.864548
 21
-3.096260
  0
LINE
  8
0
  6
CONTINUOUS
 10
193.411331
 20
101.653740
 11
186.864548
 21
101.653740
  0
LINE
  8
0
  6
CONTINUOUS
 10
186.864548
 20
6.653740
 11
194.614456
 21
6.653740
  0
LINE
  8
0
  6
CONTINUOUS
 10
193.411331
 20
86.113777
 11
186.864548
 21
86.113777
  0
LINE
  8
0
  6
CONTINUOUS
 10
193.411331
 20
22.193781
 11
186.864548
 21
22.193781
  0
LINE
  8
0
  6
CENTER
 10
197.967575
 20
126.653763
 11
215.264526
 21
126.653763
  0
LINE
  8
0
  6
CENTER
 10
288.052216
 20
126.653763
 11
312.633423
 21
126.653763
  0
LINE
  8
0
  6
CENTER
 10
196.821487
 20
6.653740
 11
215.433136
 21
6.653740
  0
LINE
  8
0
  6
CENTER
 10
287.489624
 20
6.653740
 11
312.295807
 21
6.653740
  0
LINE
  8
0
  6
CENTER
 10
296.614624
 20
255.071243
 11
296.614624
 21
233.904999
  0
LINE
  8
0
  6
CENTER
 10
206.614456
 20
135.560043
 11
206.614456
 21
118.094360
  0
LINE
  8
0
  6
CENTER
 10
206.614456
 20
15.831860
 11
206.614456
 21
-10.577480
  0
LINE
  8
0
  6
CENTER
 10
296.614624
 20
16.000641
 11
296.614624
 21
-9.902500
  0
CIRCLE
  8
0
  6
CONTINUOUS
 10
296.614624
 20
126.653763
 40
5.500000
  0
CIRCLE
  8
0
  6
CONTINUOUS
 10
206.614456
 20
126.653763
 40
5.500000
  0
CIRCLE
  8
0
  6
CONTINUOUS
 10
206.614456
 20
6.653740
 40
5.500000
  0
CIRCLE
  8
0
  6
CONTINUOUS
 10
296.614624
 20
6.653740
 40
5.500000
  0
ARC
  8
0
  6
CONTINUOUS
 10
296.614624
 20
126.653763
 40
12.000000
 50
0.000000
 51
90.000000
  0
ARC
  8
0
  6
CONTINUOUS
 10
206.614456
 20
126.653763
 40
12.000000
 50
90.000000
 51
180.000000
  0
ARC
  8
0
  6
CONTINUOUS
 10
206.614456
 20
6.653740
 40
12.000000
 50
180.000000
 51
270.000000
  0
ARC
  8
0
  6
CONTINUOUS
 10
296.614624
 20
6.653740
 40
12.000000
 50
-90.000000
 51
0.000000
  0
LINE
  8
0
  6
CONTINUOUS
 10
296.614624
 20
138.653763
 11
206.614456
 21
138.653763
  0
LINE
  8
0
  6
CONTINUOUS
 10
206.614532
 20
-5.346260
 11
296.614624
 21
-5.346260
  0
LINE
  8
0
  6
CONTINUOUS
 10
308.614624
 20
126.653763
 11
308.614624
 21
6.653740
  0
LINE
  8
0
  6
CONTINUOUS
 10
194.614456
 20
126.653717
 11
194.614456
 21
6.653720
  0
LINE
  8
0
  6
CONTINUOUS
 10
279.614624
 20
-0.346260
 11
223.614532
 21
-0.346260
  0
LINE
  8
0
  6
CONTINUOUS
 10
223.614532
 20
133.653763
 11
279.614624
 21
133.653763
  0
LINE
  8
0
  6
CONTINUOUS
 10
303.614624
 20
109.653740
 11
303.614624
 21
23.653761
  0
LINE
  8
0
  6
CONTINUOUS
 10
199.614456
 20
109.653740
 11
199.614456
 21
23.653761
  0
ARC
  8
0
  6
CONTINUOUS
 10
296.614624
 20
126.653763
 40
11.000000
 50
180.000000
 51
270.000000
  0
ARC
  8
0
  6
CONTINUOUS
 10
206.614456
 20
126.653763
 40
11.000000
 50
-90.000000
 51
0.000000
  0
ARC
  8
0
  6
CONTINUOUS
 10
206.614456
 20
6.653740
 40
11.000000
 50
0.000000
 51
90.000000
  0
ARC
  8
0
  6
CONTINUOUS
 10
296.614624
 20
6.653740
 40
11.000000
 50
90.000000
 51
180.000000
  0
LINE
  8
0
  6
CONTINUOUS
 10
205.614456
 20
17.653740
 11
206.614456
 21
17.653740
  0
LINE
  8
0
  6
CONTINUOUS
 10
217.614532
 20
5.653740
 11
217.614532
 21
6.653740
  0
ARC
  8
0
  6
CONTINUOUS
 10
205.614456
 20
23.653761
 40
6.000000
 50
180.000000
 51
270.000000
  0
ARC
  8
0
  6
CONTINUOUS
 10
223.614532
 20
5.653740
 40
6.000000
 50
180.000000
 51
270.000000
  0
LINE
  8
0
  6
CONTINUOUS
 10
297.614624
 20
17.653740
 11
296.614624
 21
17.653740
  0
LINE
  8
0
  6
CONTINUOUS
 10
285.614624
 20
5.653740
 11
285.614624
 21
6.653720
  0
ARC
  8
0
  6
CONTINUOUS
 10
297.614624
 20
23.653761
 40
6.000000
 50
-90.000000
 51
0.000000
  0
ARC
  8
0
  6
CONTINUOUS
 10
279.614624
 20
5.653740
 40
6.000000
 50
-90.000000
 51
0.000000
  0
LINE
  8
0
  6
CONTINUOUS
 10
297.614624
 20
115.653740
 11
296.614624
 21
115.653740
  0
LINE
  8
0
  6
CONTINUOUS
 10
285.614624
 20
127.653763
 11
285.614624
 21
126.653717
  0
ARC
  8
0
  6
CONTINUOUS
 10
279.614624
 20
127.653763
 40
6.000000
 50
0.000000
 51
90.000000
  0
ARC
  8
0
  6
CONTINUOUS
 10
297.614624
 20
109.653740
 40
6.000000
 50
0.000000
 51
90.000000
  0
LINE
  8
0
  6
CONTINUOUS
 10
205.614456
 20
115.653740
 11
206.614456
 21
115.653740
  0
LINE
  8
0
  6
CONTINUOUS
 10
217.614532
 20
127.653763
 11
217.614532
 21
126.653763
  0
ARC
  8
0
  6
CONTINUOUS
 10
223.614532
 20
127.653816
 40
6.000000
 50
90.000000
 51
180.000000
  0
ARC
  8
0
  6
CONTINUOUS
 10
205.614487
 20
109.653801
 40
6.000000
 50
90.000000
 51
180.000000
  0
LINE
  8
0
  6
CONTINUOUS
 10
193.426666
 20
-2.162760
 11
193.977112
 21
6.093660
  0
ARC
  8
0
  6
CONTINUOUS
 10
194.575806
 20
6.053760
 40
0.600000
 50
90.000000
 51
176.186096
  0
ARC
  8
0
  6
CONTINUOUS
 10
192.428909
 20
-2.096260
 40
1.000000
 50
270.000000
 51
356.185791
  0
ARC
  8
0
  6
CONTINUOUS
 10
271.614624
 20
44.293087
 40
30.000000
 50
-48.189449
 51
0.000000
  0
LINE
  8
0
  6
CONTINUOUS
 10
259.114532
 20
81.653763
 11
259.114532
 21
87.653740
  0
LINE
  8
0
  6
CONTINUOUS
 10
265.114532
 20
81.653717
 11
265.114532
 21
87.653717
  0
LINE
  8
0
  6
CONTINUOUS
 10
265.114532
 20
81.653717
 11
259.114532
 21
81.653763
  0
LINE
  8
0
  6
CONTINUOUS
 10
265.114532
 20
87.653717
 11
259.114532
 21
87.653740
  0
ARC
  8
0
  6
CONTINUOUS
 10
251.614532
 20
84.653763
 40
11.000000
 50
-344.173401
 51
-15.826600
  0
LINE
  8
0
  6
CONTINUOUS
 10
186.864548
 20
111.653763
 11
186.864548
 21
-3.346240
  0
LINE
  8
0
  6
CENTER
 10
474.608368
 20
-22.892460
 11
474.608368
 21
147.851715
  0
LINE
  8
0
  6
CENTER
 10
402.641754
 20
54.153759
 11
540.868164
 21
54.153759
  0
LINE
  8
0
  6
CENTER
 10
371.608551
 20
84.653763
 11
573.451172
 21
84.653763
  0
LINE
  8
0
  6
CONTINUOUS
 10
416.608551
 20
73.653763
 11
416.608551
 21
-5.346260
  0
LINE
  8
0
  6
CONTINUOUS
 10
428.608551
 20
114.903740
 11
428.608551
 21
136.653763
  0
LINE
  8
0
  6
CONTINUOUS
 10
426.690369
 20
138.653763
 11
416.608551
 21
138.653763
  0
LINE
  8
0
  6
CONTINUOUS
 10
426.690369
 20
-5.346220
 11
416.608551
 21
-5.346220
  0
LINE
  8
0
  6
CONTINUOUS
 10
506.608368
 20
5.136440
 11
506.608368
 21
128.171082
  0
LINE
  8
0
  6
CONTINUOUS
 10
505.626160
 20
129.170944
 11
430.573761
 21
130.480637
  0
LINE
  8
0
  6
CONTINUOUS
 10
505.626160
 20
4.136620
 11
430.573761
 21
2.826300
  0
LINE
  8
0
  6
CONTINUOUS
 10
433.165161
 20
106.653740
 11
505.541168
 21
106.653740
  0
LINE
  8
0
  6
CONTINUOUS
 10
430.517548
 20
26.653761
 11
505.218170
 21
26.653761
  0
LINE
  8
0
  6
CONTINUOUS
 10
429.105164
 20
-3.493260
 11
430.214355
 21
0.646580
  0
LINE
  8
0
  6
CONTINUOUS
 10
429.105164
 20
136.800842
 11
430.214569
 21
132.660324
  0
ARC
  8
0
  6
CONTINUOUS
 10
433.112366
 20
133.436844
 40
3.000000
 50
195.000702
 51
269.000488
  0
ARC
  8
0
  6
CONTINUOUS
 10
426.608551
 20
136.653763
 40
2.000000
 50
0.000000
 51
90.000000
  0
ARC
  8
0
  6
CONTINUOUS
 10
430.608551
 20
132.480362
 40
2.000000
 50
180.000000
 51
269.000610
  0
ARC
  8
0
  6
CONTINUOUS
 10
433.112152
 20
-0.129860
 40
3.000000
 50
91.000526
 51
165.000305
  0
ARC
  8
0
  6
CONTINUOUS
 10
430.608551
 20
0.826620
 40
2.000000
 50
91.000633
 51
180.000000
  0
ARC
  8
0
  6
CONTINUOUS
 10
426.608551
 20
-3.346220
 40
2.000000
 50
-90.000000
 51
0.000000
  0
ARC
  8
0
  6
CONTINUOUS
 10
505.608368
 20
128.171082
 40
1.000000
 50
0.000000
 51
89.000359
  0
ARC
  8
0
  6
CONTINUOUS
 10
505.608368
 20
5.136440
 40
1.000000
 50
-88.999573
 51
0.000000
  0
LINE
  8
0
  6
CENTER
 10
411.114746
 20
126.653763
 11
433.751373
 21
126.653763
  0
LINE
  8
0
  6
CENTER
 10
411.114746
 20
6.653740
 11
433.751373
 21
6.653740
  0
LINE
  8
0
  6
DASHED
 10
416.608551
 20
132.153763
 11
428.608551
 21
132.153763
  0
LINE
  8
0
  6
DASHED
 10
416.608551
 20
121.153763
 11
428.608551
 21
121.153763
  0
LINE
  8
0
  6
DASHED
 10
416.608551
 20
12.153740
 11
428.608551
 21
12.153740
  0
LINE
  8
0
  6
DASHED
 10
416.608551
 20
1.153740
 11
428.608551
 21
1.153740
  0
LINE
  8
0
  6
CONTINUOUS
 10
522.608337
 20
59.460911
 11
522.608337
 21
109.846603
  0
LINE
  8
0
  6
CONTINUOUS
 10
512.608337
 20
26.458599
 11
512.608337
 21
86.723740
  0
LINE
  8
0
  6
CONTINUOUS
 10
520.378784
 20
112.746040
 11
508.838562
 21
115.811440
  0
LINE
  8
0
  6
CONTINUOUS
 10
520.378784
 20
56.561462
 11
514.838135
 21
55.089806
  0
LINE
  8
0
  6
CONTINUOUS
 10
510.381561
 20
23.559919
 11
508.835571
 21
23.147619
  0
ARC
  8
0
  6
CONTINUOUS
 10
519.608337
 20
109.846603
 40
3.000000
 50
0.000000
 51
75.124413
  0
ARC
  8
0
  6
CONTINUOUS
 10
519.608337
 20
59.460911
 40
3.000000
 50
-75.124207
 51
0.000000
  0
ARC
  8
0
  6
CONTINUOUS
 10
509.608368
 20
26.458599
 40
3.000000
 50
-75.068420
 51
0.000000
  0
ARC
  8
0
  6
CONTINUOUS
 10
509.608368
 20
118.710922
 40
3.000000
 50
180.000000
 51
255.124603
  0
ARC
  8
0
  6
CONTINUOUS
 10
515.608337
 20
52.190365
 40
3.000000
 50
104.876099
 51
180.000000
  0
ARC
  8
0
  6
CONTINUOUS
 10
509.608368
 20
20.248920
 40
3.000000
 50
104.931801
 51
180.000000
  0
LINE
  8
0
  6
CONTINUOUS
 10
522.108337
 20
11.653740
 11
522.108337
 21
20.705099
  0
LINE
  8
0
  6
CONTINUOUS
 10
517.108337
 20
6.653740
 11
508.057373
 21
6.653740
  0
ARC
  8
0
  6
CONTINUOUS
 10
474.608368
 20
54.153759
 40
57.250000
 50
-32.501888
 51
19.914110
  0
ARC
  8
0
  6
CONTINUOUS
 10
474.608368
 20
54.153759
 40
57.250000
 50
243.004898
 51
298.995514
  0
ARC
  8
0
  6
CONTINUOUS
 10
517.108337
 20
11.653740
 40
5.000000
 50
-90.000000
 51
0.000000
  0
ARC
  8
0
  6
CONTINUOUS
 10
527.108337
 20
20.705099
 40
5.000000
 50
147.498093
 51
180.000000
  0
ARC
  8
0
  6
CONTINUOUS
 10
508.057373
 20
1.653740
 40
5.000000
 50
90.000000
 51
106.842003
  0
LINE
  8
0
  6
CONTINUOUS
 10
426.608551
 20
59.460907
 11
426.608551
 21
109.846603
  0
LINE
  8
0
  6
CONTINUOUS
 10
428.838562
 20
56.561451
 11
431.639771
 21
55.817368
  0
LINE
  8
0
  6
CONTINUOUS
 10
428.838562
 20
112.746040
 11
430.662170
 21
113.230476
  0
ARC
  8
0
  6
CONTINUOUS
 10
429.608765
 20
109.846603
 40
3.000000
 50
104.876099
 51
180.000000
  0
ARC
  8
0
  6
CONTINUOUS
 10
429.608551
 20
59.460930
 40
3.000000
 50
180.000000
 51
255.124603
  0
LINE
  8
0
  6
CONTINUOUS
 10
434.108551
 20
104.403740
 11
435.608551
 21
98.153740
  0
LINE
  8
0
  6
CONTINUOUS
 10
435.608551
 20
98.153740
 11
434.608551
 21
92.653740
  0
LINE
  8
0
  6
CONTINUOUS
 10
434.608551
 20
92.653740
 11
436.858551
 21
86.903740
  0
LINE
  8
0
  6
CONTINUOUS
 10
436.858551
 20
86.903740
 11
435.108551
 21
81.153763
  0
LINE
  8
0
  6
CONTINUOUS
 10
435.108551
 20
81.153763
 11
433.108551
 21
76.153763
  0
LINE
  8
0
  6
CONTINUOUS
 10
433.108551
 20
76.153763
 11
433.608551
 21
67.403763
  0
LINE
  8
0
  6
CONTINUOUS
 10
433.608551
 20
67.403763
 11
432.358551
 21
62.903759
  0
LINE
  8
0
  6
CONTINUOUS
 10
432.358551
 20
62.903759
 11
432.358551
 21
58.153759
  0
LINE
  8
0
  6
CONTINUOUS
 10
432.358551
 20
58.153759
 11
430.358551
 21
51.653759
  0
LINE
  8
0
  6
CONTINUOUS
 10
430.358551
 20
51.653759
 11
430.608551
 21
47.653759
  0
LINE
  8
0
  6
CONTINUOUS
 10
430.608551
 20
47.653759
 11
429.608551
 21
43.278759
  0
LINE
  8
0
  6
CONTINUOUS
 10
429.608551
 20
43.278759
 11
426.108551
 21
40.653759
  0
LINE
  8
0
  6
CONTINUOUS
 10
426.108551
 20
40.653759
 11
423.483551
 21
37.403763
  0
LINE
  8
0
  6
CONTINUOUS
 10
423.483551
 20
37.403763
 11
420.608551
 21
35.653763
  0
LINE
  8
0
  6
CONTINUOUS
 10
420.608551
 20
35.653763
 11
418.233551
 21
33.528759
  0
LINE
  8
0
  6
CONTINUOUS
 10
418.233551
 20
33.528759
 11
416.608551
 21
33.157341
  0
LINE
  8
0
  6
CONTINUOUS
 10
426.483551
 20
116.528740
 11
422.983551
 21
117.403740
  0
LINE
  8
0
  6
CONTINUOUS
 10
422.983551
 20
117.403740
 11
419.608551
 21
118.028740
  0
LINE
  8
0
  6
CONTINUOUS
 10
419.608551
 20
118.028740
 11
416.608551
 21
119.028763
  0
LINE
  8
0
  6
CONTINUOUS
 10
416.608551
 20
138.653763
 11
416.608551
 21
95.653740
  0
LINE
  8
0
  6
CONTINUOUS
 10
428.608551
 20
-3.346220
 11
428.608551
 21
42.528759
  0
LINE
  8
0
  6
CONTINUOUS
 10
426.483551
 20
116.528740
 11
428.608551
 21
114.903740
  0
LINE
  8
0
  6
CONTINUOUS
 10
428.608551
 20
114.903740
 11
431.983551
 21
112.153740
  0
LINE
  8
0
  6
CONTINUOUS
 10
431.983551
 20
112.153740
 11
432.483551
 21
108.278740
  0
LINE
  8
0
  6
CONTINUOUS
 10
432.483551
 20
108.278740
 11
434.108551
 21
104.403740
  0
LINE
  8
0
  6
CONTINUOUS
 10
423.608551
 20
73.653763
 11
423.608551
 21
37.558521
  0
LINE
  8
0
  6
CONTINUOUS
 10
423.608551
 20
117.247520
 11
423.608551
 21
95.653740
  0
LINE
  8
0
  6
CONTINUOUS
 10
564.608337
 20
73.653763
 11
564.608337
 21
95.653740
  0
LINE
  8
0
  6
CONTINUOUS
 10
524.608337
 20
95.653740
 11
564.608337
 21
95.653740
  0
LINE
  8
0
  6
CONTINUOUS
 10
524.608337
 20
73.653763
 11
564.608337
 21
73.653763
  0
LINE
  8
0
  6
CONTINUOUS
 10
524.608337
 20
97.153740
 11
524.608337
 21
72.153763
  0
LINE
  8
0
  6
CONTINUOUS
 10
522.608337
 20
97.153740
 11
524.608337
 21
97.153740
  0
LINE
  8
0
  6
CONTINUOUS
 10
522.608337
 20
72.153763
 11
524.608337
 21
72.153763
  0
ARC
  8
0
  6
CONTINUOUS
 10
532.608337
 20
84.653763
 40
3.000000
 50
90.000000
 51
270.000000
  0
LINE
  8
0
  6
CONTINUOUS
 10
532.608337
 20
87.653740
 11
564.608337
 21
87.653740
  0
LINE
  8
0
  6
CONTINUOUS
 10
532.608337
 20
81.653763
 11
564.608337
 21
81.653763
  0
LINE
  8
0
  6
CONTINUOUS
 10
384.608765
 20
73.653763
 11
384.608765
 21
95.653740
  0
LINE
  8
0
  6
CONTINUOUS
 10
424.608765
 20
95.653740
 11
384.608765
 21
95.653740
  0
LINE
  8
0
  6
CONTINUOUS
 10
424.608765
 20
73.653763
 11
384.608765
 21
73.653763
  0
LINE
  8
0
  6
CONTINUOUS
 10
424.608765
 20
97.153740
 11
424.608765
 21
72.153763
  0
LINE
  8
0
  6
CONTINUOUS
 10
426.608765
 20
97.153740
 11
424.608765
 21
97.153740
  0
LINE
  8
0
  6
CONTINUOUS
 10
426.608765
 20
72.153763
 11
424.608765
 21
72.153763
  0
ARC
  8
0
  6
CONTINUOUS
 10
416.608765
 20
84.653763
 40
3.000000
 50
-90.000000
 51
90.000000
  0
LINE
  8
0
  6
CONTINUOUS
 10
416.608765
 20
87.653740
 11
384.608765
 21
87.653740
  0
LINE
  8
0
  6
CONTINUOUS
 10
416.608765
 20
81.653763
 11
384.608765
 21
81.653763
  0
ARC
  8
0
  6
CONTINUOUS
 10
426.690369
 20
136.153763
 40
2.500000
 50
15.000760
 51
90.000000
  0
ARC
  8
0
  6
CONTINUOUS
 10
426.690369
 20
-2.846220
 40
2.500000
 50
270.000000
 51
345.000214
  0
ARC
  8
0
  6
CONTINUOUS
 10
474.608368
 20
54.153759
 40
57.499821
 50
303.815704
 51
303.996307
  0
ARC
  8
0
  6
CONTINUOUS
 10
474.608368
 20
54.153759
 40
57.500000
 50
242.540298
 51
299.460602
  0
ARC
  8
0
  6
CONTINUOUS
 10
474.608368
 20
54.153759
 40
57.500000
 50
-33.996769
 51
19.823891
  0
ARC
  8
0
  6
CONTINUOUS
 10
474.608368
 20
54.153759
 40
57.500000
 50
303.815613
 51
303.997314
  0
LINE
  8
0
  6
CONTINUOUS
 10
198.076233
 20
326.368042
 11
197.873520
 21
318.628754
  0
ARC
  8
0
  6
CONTINUOUS
 10
199.575714
 20
326.328766
 40
1.500000
 50
90.000000
 51
178.499649
  0
ARC
  8
0
  6
CONTINUOUS
 10
195.614532
 20
248.828766
 40
1.000000
 50
90.000000
 51
180.000000
  0
ARC
  8
0
  6
CONTINUOUS
 10
195.095566
 20
250.760254
 40
1.000000
 50
285.039185
 51
358.499664
  0
LINE
  8
0
  6
CENTER
 10
251.614532
 20
392.030457
 11
251.614532
 21
195.604797
  0
LINE
  8
0
  6
CONTINUOUS
 10
226.421692
 20
343.828766
 11
276.807373
 21
343.828766
  0
LINE
  8
0
  6
CONTINUOUS
 10
281.770782
 20
333.828766
 11
285.057617
 21
333.828766
  0
ARC
  8
0
  6
CONTINUOUS
 10
276.807373
 20
340.828766
 40
3.000000
 50
-345.124329
 51
-270.000000
  0
LINE
  8
0
  6
CONTINUOUS
 10
287.957092
 20
331.598938
 11
288.366241
 21
330.058594
  0
ARC
  8
0
  6
CONTINUOUS
 10
285.057617
 20
330.828766
 40
3.000000
 50
-345.124329
 51
-270.000000
  0
ARC
  8
0
  6
CONTINUOUS
 10
291.265686
 20
330.828766
 40
3.000000
 50
-165.124313
 51
-90.000000
  0
LINE
  8
0
  6
CONTINUOUS
 10
281.770782
 20
333.828766
 11
279.706818
 21
341.598938
  0
LINE
  8
0
  6
CONTINUOUS
 10
215.271988
 20
331.598938
 11
214.862823
 21
330.058594
  0
ARC
  8
0
  6
CONTINUOUS
 10
218.171432
 20
330.828766
 40
3.000000
 50
90.000000
 51
165.124313
  0
ARC
  8
0
  6
CONTINUOUS
 10
211.963379
 20
330.828766
 40
3.000000
 50
-90.000000
 51
-14.875682
  0
LINE
  8
0
  6
CONTINUOUS
 10
221.458282
 20
333.828766
 11
218.171432
 21
333.828766
  0
ARC
  8
0
  6
CONTINUOUS
 10
226.421692
 20
340.828766
 40
3.000000
 50
90.000000
 51
165.124313
  0
LINE
  8
0
  6
CONTINUOUS
 10
221.458282
 20
333.828766
 11
223.522232
 21
341.598938
  0
LINE
  8
0
  6
CONTINUOUS
 10
240.614532
 20
205.828766
 11
265.114532
 21
205.828766
  0
LINE
  8
0
  6
CONTINUOUS
 10
240.614532
 20
237.828766
 11
240.614532
 21
205.828766
  0
LINE
  8
0
  6
CONTINUOUS
 10
265.114532
 20
237.828766
 11
265.114532
 21
205.828766
  0
LINE
  8
0
  6
CONTINUOUS
 10
262.197540
 20
205.828766
 11
262.197540
 21
237.828766
  0
LINE
  8
0
  6
CONTINUOUS
 10
240.614532
 20
385.828766
 11
265.114532
 21
385.828766
  0
LINE
  8
0
  6
CONTINUOUS
 10
262.614532
 20
345.828766
 11
262.614532
 21
350.828766
  0
LINE
  8
0
  6
CONTINUOUS
 10
240.614532
 20
345.828766
 11
240.614532
 21
385.828766
  0
LINE
  8
0
  6
CONTINUOUS
 10
264.114532
 20
343.828766
 11
264.114532
 21
345.828766
  0
LINE
  8
0
  6
CONTINUOUS
 10
239.114532
 20
343.828766
 11
239.114532
 21
345.828766
  0
LINE
  8
0
  6
CONTINUOUS
 10
239.114532
 20
345.828766
 11
264.114532
 21
345.828766
  0
LINE
  8
0
  6
CONTINUOUS
 10
265.114532
 20
350.828766
 11
265.114532
 21
385.828766
  0
LINE
  8
0
  6
CONTINUOUS
 10
262.197540
 20
385.828766
 11
262.197540
 21
350.828766
  0
LINE
  8
0
  6
CONTINUOUS
 10
262.197540
 20
350.828766
 11
265.114532
 21
350.828766
  0
ARC
  8
0
  6
CONTINUOUS
 10
136.430115
 20
297.422455
 40
65.000000
 50
-22.042076
 51
19.041388
  0
LINE
  8
0
  6
CONTINUOUS
 10
196.679169
 20
273.028748
 11
196.095230
 21
250.734070
  0
LINE
  8
0
  6
CONTINUOUS
 10
20.864531
 20
5.153780
 11
20.864531
 21
81.153763
  0
LINE
  8
0
  6
CONTINUOUS
 10
20.864531
 20
81.153740
 11
134.864532
 21
81.153740
  0
LINE
  8
0
  6
CONTINUOUS
 10
20.864531
 20
5.153780
 11
134.864532
 21
5.153780
  0
LINE
  8
0
  6
CONTINUOUS
 10
20.864531
 20
73.402740
 11
126.864532
 21
73.402740
  0
LINE
  8
0
  6
CONTINUOUS
 10
20.864531
 20
12.904780
 11
126.864532
 21
12.904780
  0
LINE
  8
0
  6
CONTINUOUS
 10
126.864532
 20
79.153740
 11
126.864532
 21
7.153760
  0
ARC
  8
0
  6
CONTINUOUS
 10
128.864532
 20
79.153763
 40
2.000000
 50
90.000000
 51
180.000000
  0
ARC
  8
0
  6
CONTINUOUS
 10
128.864532
 20
7.153780
 40
2.000000
 50
180.000000
 51
270.000000
  0
LINE
  8
0
  6
CONTINUOUS
 10
0.364531
 20
11.153760
 11
0.364531
 21
75.153763
  0
LINE
  8
0
  6
CONTINUOUS
 10
4.328611
 20
81.153763
 11
20.864531
 21
81.153763
  0
LINE
  8
0
  6
CONTINUOUS
 10
4.328627
 20
5.153760
 11
20.864531
 21
5.153760
  0
LINE
  8
0
  6
CONTINUOUS
 10
0.864531
 20
8.153760
 11
0.864531
 21
78.153763
  0
LINE
  8
0
  6
CONTINUOUS
 10
0.364531
 20
75.153763
 11
0.864531
 21
75.653763
  0
LINE
  8
0
  6
CONTINUOUS
 10
0.364531
 20
11.153760
 11
0.864531
 21
10.653760
  0
LINE
  8
0
  6
CONTINUOUS
 10
1.730544
 20
79.653740
 11
0.864531
 21
78.153763
  0
ARC
  8
0
  6
CONTINUOUS
 10
4.328627
 20
78.153778
 40
3.000000
 50
90.000000
 51
150.000397
  0
LINE
  8
0
  6
CONTINUOUS
 10
1.730544
 20
6.653780
 11
0.864531
 21
8.153760
  0
ARC
  8
0
  6
CONTINUOUS
 10
4.328627
 20
8.153760
 40
3.000000
 50
-150.000397
 51
-90.000000
  0
LINE
  8
0
  6
CONTINUOUS
 10
2.446165
 20
73.402771
 11
20.864531
 21
73.402771
  0
LINE
  8
0
  6
CONTINUOUS
 10
20.864531
 20
12.904760
 11
2.446165
 21
12.904760
  0
LINE
  8
0
  6
CONTINUOUS
 10
176.451782
 20
82.606018
 11
134.864532
 21
81.153763
  0
LINE
  8
0
  6
CONTINUOUS
 10
186.864532
 20
3.337880
 11
134.864532
 21
5.153760
  0
LINE
  8
0
  6
CONTINUOUS
 10
178.864532
 20
110.653763
 11
178.864532
 21
83.653763
  0
LINE
  8
0
  6
CONTINUOUS
 10
179.864532
 20
111.653763
 11
186.864548
 21
111.653763
  0
LINE
  8
0
  6
CONTINUOUS
 10
181.364532
 20
-3.346240
 11
186.864532
 21
-3.346240
  0
LINE
  8
0
  6
CONTINUOUS
 10
178.864532
 20
84.153763
 11
178.864532
 21
13.241104
  0
LINE
  8
0
  6
CONTINUOUS
 10
134.864532
 20
81.153763
 11
134.864532
 21
5.153760
  0
LINE
  8
0
  6
CONTINUOUS
 10
177.451401
 20
94.471565
 11
151.507980
 21
81.947151
  0
ARC
  8
0
  6
CONTINUOUS
 10
179.864532
 20
110.653763
 40
1.000000
 50
90.000000
 51
180.000000
  0
ARC
  8
0
  6
CONTINUOUS
 10
176.364532
 20
96.722939
 40
2.500000
 50
-64.230675
 51
0.000000
  0
ARC
  8
0
  6
CONTINUOUS
 10
176.364532
 20
85.104492
 40
2.500000
 50
-88.000000
 51
0.000000
  0
ARC
  8
0
  6
CONTINUOUS
 10
150.421097
 20
84.198532
 40
2.500000
 50
272.000000
 51
295.769318
  0
LINE
  8
0
  6
CONTINUOUS
 10
179.989609
 20
10.999760
 11
186.864532
 21
10.999760
  0
LINE
  8
0
  6
CONTINUOUS
 10
178.864532
 20
-0.846240
 11
178.864532
 21
1.203024
  0
ARC
  8
0
  6
CONTINUOUS
 10
181.364532
 20
-0.846240
 40
2.500000
 50
180.000000
 51
270.000000
  0
ARC
  8
0
  6
CONTINUOUS
 10
176.364532
 20
1.203024
 40
2.500000
 50
0.000000
 51
88.000000
  0
LINE
  8
0
  6
CENTER
 10
-11.710469
 20
43.153759
 11
219.614532
 21
43.153759
  0
LINE
  8
0
  6
CONTINUOUS
 10
181.364532
 20
238.328766
 11
186.864532
 21
238.328766
  0
LINE
  8
0
  6
CONTINUOUS
 10
181.364532
 20
353.328766
 11
186.864532
 21
353.328766
  0
LINE
  8
0
  6
CONTINUOUS
 10
178.864532
 20
240.828766
 11
178.864532
 21
350.828766
  0
LINE
  8
0
  6
CONTINUOUS
 10
134.864532
 20
333.828766
 11
134.864532
 21
257.828766
  0
LINE
  8
0
  6
CONTINUOUS
 10
176.451782
 20
335.281006
 11
134.864532
 21
333.828766
  0
LINE
  8
0
  6
CONTINUOUS
 10
176.451782
 20
256.376495
 11
134.864532
 21
257.828766
  0
ARC
  8
0
  6
CONTINUOUS
 10
181.364532
 20
350.828766
 40
2.500000
 50
90.000000
 51
180.000000
  0
ARC
  8
0
  6
CONTINUOUS
 10
181.364532
 20
240.828766
 40
2.500000
 50
180.000000
 51
270.000000
  0
LINE
  8
0
  6
CONTINUOUS
 10
134.864532
 20
333.828766
 11
134.864532
 21
257.828766
  0
LINE
  8
0
  6
CONTINUOUS
 10
20.864653
 20
257.828766
 11
20.864653
 21
270.828735
  0
LINE
  8
0
  6
CONTINUOUS
 10
20.864653
 20
333.828735
 11
134.864655
 21
333.828735
  0
LINE
  8
0
  6
CONTINUOUS
 10
20.864653
 20
257.828766
 11
134.864655
 21
257.828766
  0
LINE
  8
0
  6
CONTINUOUS
 10
126.864655
 20
331.828735
 11
126.864655
 21
318.828766
  0
ARC
  8
0
  6
CONTINUOUS
 10
128.864655
 20
331.828766
 40
2.000000
 50
90.000000
 51
180.000000
  0
ARC
  8
0
  6
CONTINUOUS
 10
128.864655
 20
259.828766
 40
2.000000
 50
180.000000
 51
270.000000
  0
LINE
  8
0
  6
CONTINUOUS
 10
0.364653
 20
263.828766
 11
0.364653
 21
327.828766
  0
LINE
  8
0
  6
CONTINUOUS
 10
4.328733
 20
333.828766
 11
20.864653
 21
333.828766
  0
LINE
  8
0
  6
CONTINUOUS
 10
4.328753
 20
257.828766
 11
20.864653
 21
257.828766
  0
LINE
  8
0
  6
CONTINUOUS
 10
0.864653
 20
260.828766
 11
0.864653
 21
330.828766
  0
LINE
  8
0
  6
CONTINUOUS
 10
0.364653
 20
327.828766
 11
0.864653
 21
328.328766
  0
LINE
  8
0
  6
CONTINUOUS
 10
0.364653
 20
263.828766
 11
0.864653
 21
263.328766
  0
LINE
  8
0
  6
CONTINUOUS
 10
1.730673
 20
332.328735
 11
0.864653
 21
330.828766
  0
ARC
  8
0
  6
CONTINUOUS
 10
4.328753
 20
330.828766
 40
3.000000
 50
90.000000
 51
150.000397
  0
LINE
  8
0
  6
CONTINUOUS
 10
1.730673
 20
259.328766
 11
0.864653
 21
260.828766
  0
ARC
  8
0
  6
CONTINUOUS
 10
4.328753
 20
260.828766
 40
3.000000
 50
-150.000397
 51
-90.000000
  0
LINE
  8
0
  6
CONTINUOUS
 10
61.864643
 20
318.828766
 11
126.864655
 21
318.828766
  0
LINE
  8
0
  6
CONTINUOUS
 10
11.864653
 20
318.828766
 11
2.446283
 21
318.828766
  0
LINE
  8
0
  6
CONTINUOUS
 10
61.864647
 20
272.828766
 11
126.864655
 21
272.828766
  0
LINE
  8
0
  6
CONTINUOUS
 10
11.864653
 20
272.828766
 11
2.446283
 21
272.828766
  0
LINE
  8
0
  6
CONTINUOUS
 10
126.864655
 20
272.828766
 11
126.864655
 21
259.828766
  0
LINE
  8
0
  6
CONTINUOUS
 10
20.864653
 20
320.828735
 11
20.864653
 21
333.828766
  0
ARC
  8
0
  6
CONTINUOUS
 10
166.034164
 20
295.828766
 40
15.000000
 50
130.747620
 51
229.252380
  0
LINE
  8
0
  6
CONTINUOUS
 10
177.996353
 20
325.934753
 11
156.243240
 21
307.192627
  0
LINE
  8
0
  6
CONTINUOUS
 10
177.996353
 20
265.722778
 11
156.243240
 21
284.464874
  0
ARC
  8
0
  6
CONTINUOUS
 10
176.364532
 20
327.828735
 40
2.500000
 50
-49.252373
 51
0.000000
  0
ARC
  8
0
  6
CONTINUOUS
 10
176.364532
 20
337.779510
 40
2.500000
 50
-88.000000
 51
0.000000
  0
ARC
  8
0
  6
CONTINUOUS
 10
176.364532
 20
263.828796
 40
2.500000
 50
0.000000
 51
49.252373
  0
ARC
  8
0
  6
CONTINUOUS
 10
176.364532
 20
253.878021
 40
2.500000
 50
0.000000
 51
88.000000
  0
LINE
  8
0
  6
CONTINUOUS
 10
11.864653
 20
272.828735
 11
11.864653
 21
318.828735
  0
LINE
  8
0
  6
CONTINUOUS
 10
13.864653
 20
320.828735
 11
11.864653
 21
318.828735
  0
LINE
  8
0
  6
CONTINUOUS
 10
13.864653
 20
320.828735
 11
59.864643
 21
320.828735
  0
LINE
  8
0
  6
CONTINUOUS
 10
54.364655
 20
316.328735
 11
54.364655
 21
320.828735
  0
ARC
  8
0
  6
CONTINUOUS
 10
57.364655
 20
316.328735
 40
3.000000
 50
180.000000
 51
270.000000
  0
LINE
  8
0
  6
CONTINUOUS
 10
57.364655
 20
313.328735
 11
61.864643
 21
313.328735
  0
CIRCLE
  8
0
  6
CONTINUOUS
 10
58.364655
 20
317.328735
 40
2.250000
  0
LINE
  8
0
  6
CONTINUOUS
 10
61.864647
 20
272.828735
 11
61.864643
 21
318.828735
  0
LINE
  8
0
  6
CONTINUOUS
 10
59.864643
 20
320.828735
 11
61.864643
 21
318.828735
  0
LINE
  8
0
  6
CONTINUOUS
 10
59.864647
 20
270.828735
 11
61.864647
 21
272.828735
  0
LINE
  8
0
  6
CONTINUOUS
 10
59.864647
 20
270.828735
 11
13.864653
 21
270.828735
  0
LINE
  8
0
  6
CONTINUOUS
 10
11.864653
 20
272.828735
 11
13.864653
 21
270.828735
  0
LINE
  8
0
  6
CONTINUOUS
 10
16.364653
 20
278.328735
 11
11.864663
 21
278.328735
  0
CIRCLE
  8
0
  6
CONTINUOUS
 10
15.364653
 20
274.328735
 40
2.250000
  0
ARC
  8
0
  6
CONTINUOUS
 10
16.364653
 20
275.328735
 40
3.000000
 50
0.000000
 51
90.000000
  0
LINE
  8
0
  6
CONTINUOUS
 10
19.364653
 20
275.328735
 11
19.364653
 21
270.828735
  0
LINE
  8
0
  6
CENTER
 10
36.864655
 20
263.362946
 11
36.864655
 21
327.494995
  0
LINE
  8
0
  6
CONTINUOUS
 10
12.864659
 20
278.328735
 11
12.864659
 21
313.328735
  0
LINE
  8
0
  6
CONTINUOUS
 10
54.364655
 20
319.828735
 11
19.364653
 21
319.828735
  0
LINE
  8
0
  6
CONTINUOUS
 10
60.864647
 20
313.328735
 11
60.864647
 21
278.328735
  0
LINE
  8
0
  6
CONTINUOUS
 10
19.364653
 20
271.828735
 11
54.364655
 21
271.828735
  0
LINE
  8
0
  6
CONTINUOUS
 10
16.364653
 20
313.328735
 11
11.864653
 21
313.328735
  0
ARC
  8
0
  6
CONTINUOUS
 10
16.364653
 20
316.328735
 40
3.000000
 50
-90.000000
 51
0.000000
  0
LINE
  8
0
  6
CONTINUOUS
 10
19.364653
 20
316.328735
 11
19.364653
 21
320.828735
  0
CIRCLE
  8
0
  6
CONTINUOUS
 10
15.364653
 20
317.328735
 40
2.250000
  0
ARC
  8
0
  6
CONTINUOUS
 10
57.364655
 20
275.328735
 40
3.000000
 50
90.000000
 51
180.000000
  0
LINE
  8
0
  6
CONTINUOUS
 10
54.364655
 20
275.328735
 11
54.364655
 21
270.828735
  0
LINE
  8
0
  6
CONTINUOUS
 10
57.364655
 20
278.328735
 11
61.864655
 21
278.328735
  0
CIRCLE
  8
0
  6
CONTINUOUS
 10
58.364655
 20
274.328735
 40
2.250000
  0
LINE
  8
0
  6
CONTINUOUS
 10
13.364531
 20
82.653763
 11
59.864532
 21
82.653763
  0
LINE
  8
0
  6
CONTINUOUS
 10
61.864510
 20
126.653763
 11
61.864532
 21
84.653763
  0
LINE
  8
0
  6
CONTINUOUS
 10
11.864531
 20
126.653763
 11
11.864531
 21
84.653763
  0
LINE
  8
0
  6
CONTINUOUS
 10
11.864531
 20
94.653763
 11
61.864532
 21
94.653763
  0
LINE
  8
0
  6
CONTINUOUS
 10
59.864532
 20
82.653763
 11
61.864532
 21
84.653763
  0
LINE
  8
0
  6
CONTINUOUS
 10
11.864531
 20
84.653763
 11
13.864531
 21
82.653763
  0
LINE
  8
0
  6
CONTINUOUS
 10
11.864531
 20
84.653763
 11
61.864532
 21
84.653763
  0
LINE
  8
0
  6
CONTINUOUS
 10
11.864531
 20
95.653763
 11
61.864510
 21
95.653763
  0
LINE
  8
0
  6
CONTINUOUS
 10
12.864531
 20
127.653763
 11
60.864510
 21
127.653763
  0
LINE
  8
0
  6
CONTINUOUS
 10
60.864510
 20
127.653763
 11
61.864510
 21
126.653763
  0
LINE
  8
0
  6
CONTINUOUS
 10
12.864531
 20
127.653763
 11
11.864531
 21
126.653763
  0
LINE
  8
0
  6
CONTINUOUS
 10
11.864531
 20
126.653763
 11
61.864510
 21
126.653763
  0
LINE
  8
0
  6
CENTER
 10
36.864532
 20
76.264252
 11
36.864532
 21
133.956253
  0
LINE
  8
0
  6
CENTER
 10
9.489531
 20
110.653763
 11
14.114531
 21
110.653763
  0
LINE
  8
0
  6
CONTINUOUS
 10
13.364531
 20
82.653763
 11
13.364531
 21
81.153763
  0
LINE
  8
0
  6
CONTINUOUS
 10
59.364532
 20
82.653763
 11
59.364532
 21
81.153763
  0
LINE
  8
0
  6
CONTINUOUS
 10
10.989531
 20
121.153763
 11
12.989531
 21
121.153763
  0
LINE
  8
0
  6
CONTINUOUS
 10
10.989531
 20
100.153763
 11
12.989531
 21
100.153763
  0
LINE
  8
0
  6
CENTER
 10
296.614624
 20
135.786880
 11
296.614624
 21
117.672501
  0
LINE
  8
0
  6
DASHED
 10
291.114624
 20
249.828766
 11
291.114624
 21
237.828766
  0
LINE
  8
0
  6
DASHED
 10
302.114624
 20
249.828766
 11
302.114624
 21
237.828766
  0
LINE
  8
0
  6
CENTER
 10
206.614456
 20
255.071243
 11
206.614456
 21
233.904999
  0
LINE
  8
0
  6
DASHED
 10
212.114456
 20
249.828766
 11
212.114456
 21
237.828766
  0
LINE
  8
0
  6
DASHED
 10
201.114456
 20
249.828766
 11
201.114456
 21
237.828766
  0
LINE
  8
0
  6
CONTINUOUS
 10
134.864532
 20
33.753761
 11
178.864532
 21
33.753761
  0
LINE
  8
0
  6
CONTINUOUS
 10
134.864532
 20
23.553761
 11
178.864532
 21
23.553761
  0
TEXT
  8
0
 10
-15.000000
 20
-22.000000
 40
4.000000
 41
1.000000
  1
HFM-22T-300~1800-T15WK
 50
0.000000
  0
ENDSEC
  0
EOF
