  0
SECTION
  2
HEADER
  9
$CLAYER
  8
1
  9
$LTSCALE
 40
3.0
  0
ENDSEC
  0
SECTION
  2
TABLES
  0
TABLE
  2
LTYPE
 70
     4
  0
LTYPE
  2
CONTINUOUS
  3
solid line
 70
    64
 72
    65
 73
     0
 40
0.0
  0
LTYPE
  2
DASHED
  3
__ __ __ __ __ __ __ __ __ __ __ __ __ __ __
 70
    64
 72
    65
 73
     2
 40
0.75
 49
0.5
 49
-0.25
  0
LTYPE
  2
CENTER
  3
____ _ ____ _ ____ _ ____ _ ____ _ ____ _ ____
 70
    64
 72
    65
 73
     4
 40
2.0
 49
1.25
 49
-0.25
 49
0.25
 49
-0.25
  0
LTYPE
  2
PHANTOM
  3
_____ _ _ _____ _ _ _____ _ _ _____ _ _ ____
 70
    64
 72
    65
 73
     6
 40
2.5
 49
1.25
 49
-0.25
 49
0.25
 49
-0.25
 49
0.25
 49
-0.25
  0
ENDTAB
  0
TABLE
  2
LAYER
 70
     1
  0
LAYER
  2
0
 70
    64
 62
     7
  6
CONTINUOUS
  0
ENDTAB
  0
TABLE
  2
STYLE
 70
     1
  0
STYLE
  2
STANDARD
 70
     0
 40
0.000000
 41
1.000000
 50
0.000000
 71
     0
 42
3.000000
  3
txt
  4
BIGFONT
  0
ENDTAB
  0
ENDSEC
  0
SECTION
  2
BLOCKS
  0
ENDSEC
  0
SECTION
  2
ENTITIES
  0
LINE
  8
0
  6
CENTER
 10
314.785126
 20
308.743774
 11
-13.869343
 21
308.743774
  0
LINE
  8
0
  6
CONTINUOUS
 10
190.799530
 20
251.493759
 11
188.299530
 21
251.493759
  0
LINE
  8
0
  6
CONTINUOUS
 10
192.816925
 20
365.993774
 11
188.299530
 21
365.993774
  0
LINE
  8
0
  6
CONTINUOUS
 10
195.549530
 20
251.493759
 11
188.299530
 21
251.493759
  0
LINE
  8
0
  6
CONTINUOUS
 10
197.003754
 20
276.743774
 11
188.299530
 21
276.743774
  0
LINE
  8
0
  6
CONTINUOUS
 10
195.566132
 20
261.243774
 11
188.299530
 21
261.243774
  0
LINE
  8
0
  6
CONTINUOUS
 10
193.659927
 20
356.243774
 11
188.299530
 21
356.243774
  0
LINE
  8
0
  6
CONTINUOUS
 10
188.299530
 20
340.743774
 11
305.088318
 21
340.743774
  0
LINE
  8
0
  6
CONTINUOUS
 10
193.816727
 20
365.011261
 11
194.154617
 21
345.656494
  0
ARC
  8
0
  6
CONTINUOUS
 10
192.816833
 20
364.993774
 40
1.000000
 50
1.000700
 51
90.000000
  0
ARC
  8
0
  6
CONTINUOUS
 10
199.153931
 20
345.743774
 40
5.000000
 50
-178.999802
 51
-90.000000
  0
LINE
  8
0
  6
CONTINUOUS
 10
188.299530
 20
366.243774
 11
188.299530
 21
251.243759
  0
LINE
  8
0
  6
CONTINUOUS
 10
310.049530
 20
250.743759
 11
196.049530
 21
250.743759
  0
LINE
  8
0
  6
CONTINUOUS
 10
233.049530
 20
340.743774
 11
233.049530
 21
263.546051
  0
LINE
  8
0
  6
CONTINUOUS
 10
273.049530
 20
340.743774
 11
273.049530
 21
263.546051
  0
LINE
  8
0
  6
CONTINUOUS
 10
306.587830
 20
339.283051
 11
308.571533
 21
263.546051
  0
ARC
  8
0
  6
CONTINUOUS
 10
305.088226
 20
339.243774
 40
1.500000
 50
1.500200
 51
90.000000
  0
LINE
  8
0
  6
CONTINUOUS
 10
197.049530
 20
262.743774
 11
308.761017
 21
262.743774
  0
LINE
  8
0
  6
CONTINUOUS
 10
196.049530
 20
261.743774
 11
196.049530
 21
250.743759
  0
LINE
  8
0
  6
CONTINUOUS
 10
310.049530
 20
250.743759
 11
309.760742
 21
261.769958
  0
ARC
  8
0
  6
CONTINUOUS
 10
308.761017
 20
261.743774
 40
1.000000
 50
1.500100
 51
90.000000
  0
ARC
  8
0
  6
CONTINUOUS
 10
309.570923
 20
263.572266
 40
1.000000
 50
-178.499603
 51
-113.891197
  0
ARC
  8
0
  6
CONTINUOUS
 10
195.549530
 20
250.993759
 40
0.500000
 50
0.000000
 51
90.000000
  0
LINE
  8
0
  6
CENTER
 10
109.777496
 20
67.068764
 11
220.243332
 21
67.068764
  0
LINE
  8
0
  6
CENTER
 10
253.049530
 20
162.650024
 11
253.049530
 21
-5.087500
  0
LINE
  8
0
  6
CENTER
 10
197.457504
 20
97.568764
 11
318.118408
 21
97.568764
  0
LINE
  8
0
  6
CONTINUOUS
 10
203.049454
 20
101.929459
 11
203.049454
 21
57.208073
  0
LINE
  8
0
  6
CONTINUOUS
 10
303.049622
 20
101.929420
 11
303.049622
 21
57.208073
  0
ARC
  8
0
  6
CONTINUOUS
 10
253.049530
 20
79.568771
 40
60.000000
 50
48.189621
 51
131.810394
  0
ARC
  8
0
  6
CONTINUOUS
 10
253.049530
 20
79.568771
 40
60.000000
 50
228.189697
 51
311.810303
  0
ARC
  8
0
  6
CONTINUOUS
 10
273.049622
 20
101.929420
 40
30.000000
 50
0.000000
 51
48.189629
  0
CIRCLE
  8
0
  6
CONTINUOUS
 10
253.049530
 20
97.568764
 40
27.500000
  0
ARC
  8
0
  6
CONTINUOUS
 10
253.049530
 20
97.568764
 40
31.750000
 50
7.552697
 51
172.447403
  0
ARC
  8
0
  6
CONTINUOUS
 10
236.299530
 20
56.068764
 40
20.600000
 50
172.447403
 51
270.000000
  0
ARC
  8
0
  6
CONTINUOUS
 10
269.799530
 20
56.068764
 40
20.600000
 50
-90.000000
 51
7.552700
  0
LINE
  8
0
  6
CONTINUOUS
 10
284.524200
 20
101.741920
 11
290.220825
 21
58.776390
  0
LINE
  8
0
  6
CONTINUOUS
 10
215.878128
 20
58.776352
 11
221.574951
 21
101.741859
  0
LINE
  8
0
  6
CONTINUOUS
 10
236.299530
 20
35.468761
 11
269.799530
 21
35.468761
  0
ARC
  8
0
  6
CONTINUOUS
 10
236.299530
 20
56.068764
 40
19.000000
 50
172.447601
 51
270.000000
  0
ARC
  8
0
  6
CONTINUOUS
 10
269.799530
 20
56.068764
 40
19.000000
 50
-90.000000
 51
7.552700
  0
ARC
  8
0
  6
CONTINUOUS
 10
253.049530
 20
97.568764
 40
30.150000
 50
-187.552597
 51
7.552697
  0
LINE
  8
0
  6
CONTINUOUS
 10
217.464325
 20
58.566055
 11
223.161133
 21
101.531578
  0
LINE
  8
0
  6
CONTINUOUS
 10
282.938019
 20
101.531601
 11
288.634796
 21
58.566090
  0
LINE
  8
0
  6
CONTINUOUS
 10
236.299530
 20
37.068760
 11
269.799530
 21
37.068760
  0
LINE
  8
0
  6
CONTINUOUS
 10
242.753128
 20
44.568760
 11
238.592728
 21
44.568760
  0
LINE
  8
0
  6
CONTINUOUS
 10
245.049530
 20
51.537514
 11
245.049530
 21
44.568760
  0
LINE
  8
0
  6
CONTINUOUS
 10
249.049530
 20
54.068764
 11
249.049530
 21
56.568764
  0
LINE
  8
0
  6
CONTINUOUS
 10
257.049530
 20
54.068764
 11
257.049530
 21
56.568764
  0
LINE
  8
0
  6
CONTINUOUS
 10
252.268326
 20
55.100014
 11
252.268326
 21
45.881260
  0
LINE
  8
0
  6
CONTINUOUS
 10
253.768326
 20
55.100014
 11
253.768326
 21
45.881260
  0
LINE
  8
0
  6
CONTINUOUS
 10
261.643341
 20
55.100014
 11
261.643341
 21
45.818760
  0
LINE
  8
0
  6
CONTINUOUS
 10
263.018341
 20
50.178139
 11
263.018341
 21
45.818760
  0
LINE
  8
0
  6
CONTINUOUS
 10
243.151550
 20
54.975014
 11
239.296524
 21
54.975014
  0
LINE
  8
0
  6
CONTINUOUS
 10
239.296524
 20
54.975014
 11
238.393326
 21
53.855019
  0
LINE
  8
0
  6
CONTINUOUS
 10
238.501953
 20
56.568764
 11
237.049530
 21
54.709007
  0
LINE
  8
0
  6
CONTINUOUS
 10
238.393326
 20
46.941700
 11
239.310928
 21
45.974998
  0
LINE
  8
0
  6
CONTINUOUS
 10
237.049530
 20
46.125938
 11
238.592728
 21
44.568760
  0
LINE
  8
0
  6
CONTINUOUS
 10
237.049530
 20
54.709007
 11
237.049530
 21
46.125938
  0
LINE
  8
0
  6
CONTINUOUS
 10
238.393326
 20
53.855019
 11
238.393326
 21
46.941700
  0
LINE
  8
0
  6
CONTINUOUS
 10
243.893326
 20
54.257912
 11
243.136353
 21
54.975014
  0
LINE
  8
0
  6
CONTINUOUS
 10
243.881332
 20
56.568764
 11
245.049530
 21
55.272270
  0
LINE
  8
0
  6
CONTINUOUS
 10
243.893326
 20
54.068764
 11
245.049530
 21
54.068764
  0
LINE
  8
0
  6
CONTINUOUS
 10
238.501953
 20
56.568764
 11
243.881332
 21
56.568764
  0
LINE
  8
0
  6
CONTINUOUS
 10
241.799530
 20
51.537514
 11
245.049530
 21
51.537514
  0
LINE
  8
0
  6
CONTINUOUS
 10
243.893326
 20
50.225018
 11
241.799530
 21
50.225018
  0
LINE
  8
0
  6
CONTINUOUS
 10
241.393326
 20
45.974998
 11
239.310928
 21
45.974998
  0
LINE
  8
0
  6
CONTINUOUS
 10
243.893326
 20
48.975018
 11
243.893326
 21
49.975018
  0
ARC
  8
0
  6
CONTINUOUS
 10
241.393326
 20
48.475006
 40
2.500000
 50
-89.999786
 51
0.000109
  0
LINE
  8
0
  6
CONTINUOUS
 10
243.893326
 20
45.525318
 11
243.893326
 21
44.568760
  0
LINE
  8
0
  6
CONTINUOUS
 10
245.049530
 20
55.272270
 11
245.049530
 21
54.068764
  0
LINE
  8
0
  6
CONTINUOUS
 10
243.893326
 20
50.225018
 11
243.893326
 21
48.475018
  0
LINE
  8
0
  6
CONTINUOUS
 10
241.799530
 20
51.537514
 11
241.799530
 21
50.225018
  0
LINE
  8
0
  6
CONTINUOUS
 10
243.893326
 20
44.568760
 11
245.049530
 21
44.568760
  0
LINE
  8
0
  6
CONTINUOUS
 10
243.893326
 20
45.525318
 11
242.753128
 21
44.568760
  0
LINE
  8
0
  6
CONTINUOUS
 10
253.768326
 20
45.881260
 11
254.268326
 21
45.881260
  0
LINE
  8
0
  6
CONTINUOUS
 10
251.674530
 20
45.881260
 11
251.674530
 21
44.568760
  0
LINE
  8
0
  6
CONTINUOUS
 10
254.268326
 20
45.881260
 11
254.268326
 21
44.568760
  0
LINE
  8
0
  6
CONTINUOUS
 10
256.215118
 20
54.068764
 11
257.049530
 21
54.068764
  0
LINE
  8
0
  6
CONTINUOUS
 10
249.049530
 20
54.068764
 11
249.937531
 21
54.068764
  0
LINE
  8
0
  6
CONTINUOUS
 10
249.049530
 20
56.568764
 11
257.049530
 21
56.568764
  0
LINE
  8
0
  6
CONTINUOUS
 10
251.674530
 20
44.568760
 11
254.268326
 21
44.568760
  0
LINE
  8
0
  6
CONTINUOUS
 10
251.674530
 20
45.881260
 11
252.268326
 21
45.881260
  0
ARC
  8
0
  6
CONTINUOUS
 10
265.846344
 20
53.365639
 40
3.203126
 50
-73.981873
 51
90.003510
  0
ARC
  8
0
  6
CONTINUOUS
 10
265.846344
 20
53.365639
 40
1.954124
 50
-82.585274
 51
62.411850
  0
LINE
  8
0
  6
CONTINUOUS
 10
261.049530
 20
56.568764
 11
265.846344
 21
56.568764
  0
LINE
  8
0
  6
CONTINUOUS
 10
266.098541
 20
51.427849
 11
263.018341
 21
51.427849
  0
LINE
  8
0
  6
CONTINUOUS
 10
261.049530
 20
56.568764
 11
261.049530
 21
55.100014
  0
LINE
  8
0
  6
CONTINUOUS
 10
263.018341
 20
55.100014
 11
263.018341
 21
51.427849
  0
LINE
  8
0
  6
CONTINUOUS
 10
266.730316
 20
50.286873
 11
268.712738
 21
45.818760
  0
LINE
  8
0
  6
CONTINUOUS
 10
265.578766
 20
50.178139
 11
267.454926
 21
45.818760
  0
LINE
  8
0
  6
CONTINUOUS
 10
261.049530
 20
45.818760
 11
261.643341
 21
45.818760
  0
LINE
  8
0
  6
CONTINUOUS
 10
263.018341
 20
45.818760
 11
263.565125
 21
45.818760
  0
LINE
  8
0
  6
CONTINUOUS
 10
263.565125
 20
44.568760
 11
261.049530
 21
44.568760
  0
LINE
  8
0
  6
CONTINUOUS
 10
267.205719
 20
45.818760
 11
267.454926
 21
45.818760
  0
LINE
  8
0
  6
CONTINUOUS
 10
267.205719
 20
44.568760
 11
269.049530
 21
44.568760
  0
LINE
  8
0
  6
CONTINUOUS
 10
267.205719
 20
45.818760
 11
267.205719
 21
44.568760
  0
LINE
  8
0
  6
CONTINUOUS
 10
263.565125
 20
45.818760
 11
263.565125
 21
44.568760
  0
LINE
  8
0
  6
CONTINUOUS
 10
261.049530
 20
45.818760
 11
261.049530
 21
44.568760
  0
LINE
  8
0
  6
CONTINUOUS
 10
250.367325
 20
55.100014
 11
249.937531
 21
54.068764
  0
LINE
  8
0
  6
CONTINUOUS
 10
255.852753
 20
55.100014
 11
256.215118
 21
54.068764
  0
LINE
  8
0
  6
CONTINUOUS
 10
253.768326
 20
55.100014
 11
255.852753
 21
55.100014
  0
LINE
  8
0
  6
CONTINUOUS
 10
252.268326
 20
55.100014
 11
250.367325
 21
55.100014
  0
LINE
  8
0
  6
CONTINUOUS
 10
263.018341
 20
50.178139
 11
265.578766
 21
50.178139
  0
LINE
  8
0
  6
CONTINUOUS
 10
261.049530
 20
55.100014
 11
261.643341
 21
55.100014
  0
LINE
  8
0
  6
CONTINUOUS
 10
263.018341
 20
55.100014
 11
266.751343
 21
55.097588
  0
LINE
  8
0
  6
CONTINUOUS
 10
243.893326
 20
54.257912
 11
243.893326
 21
54.068764
  0
ARC
  8
0
  6
CONTINUOUS
 10
233.049530
 20
101.929459
 40
30.000000
 50
131.810394
 51
180.000000
  0
ARC
  8
0
  6
CONTINUOUS
 10
233.049530
 20
57.208073
 40
30.000000
 50
180.000000
 51
228.189697
  0
LINE
  8
0
  6
CONTINUOUS
 10
188.299545
 20
124.318741
 11
196.049454
 21
124.318741
  0
LINE
  8
0
  6
CONTINUOUS
 10
193.863907
 20
9.818740
 11
188.299545
 21
9.818740
  0
LINE
  8
0
  6
CONTINUOUS
 10
194.846329
 20
114.568741
 11
188.299545
 21
114.568741
  0
LINE
  8
0
  6
CONTINUOUS
 10
188.299545
 20
19.568741
 11
196.049454
 21
19.568741
  0
LINE
  8
0
  6
CONTINUOUS
 10
194.846329
 20
99.028778
 11
188.299545
 21
99.028778
  0
LINE
  8
0
  6
CONTINUOUS
 10
194.846329
 20
35.108780
 11
188.299545
 21
35.108780
  0
LINE
  8
0
  6
CENTER
 10
199.402573
 20
139.568756
 11
216.699524
 21
139.568756
  0
LINE
  8
0
  6
CENTER
 10
289.487213
 20
139.568756
 11
314.068420
 21
139.568756
  0
LINE
  8
0
  6
CENTER
 10
198.256485
 20
19.568741
 11
216.868134
 21
19.568741
  0
LINE
  8
0
  6
CENTER
 10
288.924622
 20
19.568741
 11
313.730804
 21
19.568741
  0
LINE
  8
0
  6
CENTER
 10
298.049622
 20
148.728165
 11
298.049622
 21
130.587494
  0
LINE
  8
0
  6
CENTER
 10
208.049454
 20
148.475037
 11
208.049454
 21
131.009354
  0
LINE
  8
0
  6
CENTER
 10
208.049454
 20
28.746861
 11
208.049454
 21
2.337520
  0
LINE
  8
0
  6
CENTER
 10
298.049622
 20
28.915640
 11
298.049622
 21
3.012500
  0
CIRCLE
  8
0
  6
CONTINUOUS
 10
298.049622
 20
139.568756
 40
5.500000
  0
CIRCLE
  8
0
  6
CONTINUOUS
 10
208.049454
 20
139.568756
 40
5.500000
  0
CIRCLE
  8
0
  6
CONTINUOUS
 10
208.049454
 20
19.568741
 40
5.500000
  0
CIRCLE
  8
0
  6
CONTINUOUS
 10
298.049622
 20
19.568741
 40
5.500000
  0
ARC
  8
0
  6
CONTINUOUS
 10
298.049622
 20
139.568756
 40
12.000000
 50
0.000000
 51
90.000000
  0
ARC
  8
0
  6
CONTINUOUS
 10
208.049454
 20
139.568756
 40
12.000000
 50
90.000000
 51
180.000000
  0
ARC
  8
0
  6
CONTINUOUS
 10
208.049454
 20
19.568741
 40
12.000000
 50
180.000000
 51
270.000000
  0
ARC
  8
0
  6
CONTINUOUS
 10
298.049622
 20
19.568741
 40
12.000000
 50
-90.000000
 51
0.000000
  0
LINE
  8
0
  6
CONTINUOUS
 10
298.049622
 20
151.568756
 11
208.049454
 21
151.568756
  0
LINE
  8
0
  6
CONTINUOUS
 10
208.049530
 20
7.568740
 11
298.049622
 21
7.568740
  0
LINE
  8
0
  6
CONTINUOUS
 10
310.049622
 20
139.568756
 11
310.049622
 21
19.568741
  0
LINE
  8
0
  6
CONTINUOUS
 10
196.049454
 20
139.568726
 11
196.049454
 21
19.568720
  0
LINE
  8
0
  6
CONTINUOUS
 10
281.049622
 20
12.568740
 11
225.049530
 21
12.568740
  0
LINE
  8
0
  6
CONTINUOUS
 10
225.049530
 20
146.568756
 11
281.049622
 21
146.568756
  0
LINE
  8
0
  6
CONTINUOUS
 10
305.049622
 20
122.568741
 11
305.049622
 21
36.568760
  0
LINE
  8
0
  6
CONTINUOUS
 10
201.049454
 20
122.568741
 11
201.049454
 21
36.568760
  0
ARC
  8
0
  6
CONTINUOUS
 10
298.049622
 20
139.568756
 40
11.000000
 50
180.000000
 51
270.000000
  0
ARC
  8
0
  6
CONTINUOUS
 10
208.049454
 20
139.568756
 40
11.000000
 50
-90.000000
 51
0.000000
  0
ARC
  8
0
  6
CONTINUOUS
 10
208.049454
 20
19.568741
 40
11.000000
 50
0.000000
 51
90.000000
  0
ARC
  8
0
  6
CONTINUOUS
 10
298.049622
 20
19.568741
 40
11.000000
 50
90.000000
 51
180.000000
  0
LINE
  8
0
  6
CONTINUOUS
 10
207.049454
 20
30.568741
 11
208.049454
 21
30.568741
  0
LINE
  8
0
  6
CONTINUOUS
 10
219.049530
 20
18.568741
 11
219.049530
 21
19.568741
  0
ARC
  8
0
  6
CONTINUOUS
 10
207.049454
 20
36.568760
 40
6.000000
 50
180.000000
 51
270.000000
  0
ARC
  8
0
  6
CONTINUOUS
 10
225.049530
 20
18.568741
 40
6.000000
 50
180.000000
 51
270.000000
  0
LINE
  8
0
  6
CONTINUOUS
 10
299.049622
 20
30.568741
 11
298.049622
 21
30.568741
  0
LINE
  8
0
  6
CONTINUOUS
 10
287.049622
 20
18.568741
 11
287.049622
 21
19.568720
  0
ARC
  8
0
  6
CONTINUOUS
 10
299.049622
 20
36.568760
 40
6.000000
 50
-90.000000
 51
0.000000
  0
ARC
  8
0
  6
CONTINUOUS
 10
281.049622
 20
18.568741
 40
6.000000
 50
-90.000000
 51
0.000000
  0
LINE
  8
0
  6
CONTINUOUS
 10
299.049622
 20
128.568741
 11
298.049622
 21
128.568741
  0
LINE
  8
0
  6
CONTINUOUS
 10
287.049622
 20
140.568756
 11
287.049622
 21
139.568726
  0
ARC
  8
0
  6
CONTINUOUS
 10
281.049622
 20
140.568756
 40
6.000000
 50
0.000000
 51
90.000000
  0
ARC
  8
0
  6
CONTINUOUS
 10
299.049622
 20
122.568741
 40
6.000000
 50
0.000000
 51
90.000000
  0
LINE
  8
0
  6
CONTINUOUS
 10
207.049454
 20
128.568741
 11
208.049454
 21
128.568741
  0
LINE
  8
0
  6
CONTINUOUS
 10
219.049530
 20
140.568756
 11
219.049530
 21
139.568756
  0
ARC
  8
0
  6
CONTINUOUS
 10
225.049530
 20
140.568817
 40
6.000000
 50
90.000000
 51
180.000000
  0
ARC
  8
0
  6
CONTINUOUS
 10
207.049484
 20
122.568802
 40
6.000000
 50
90.000000
 51
180.000000
  0
LINE
  8
0
  6
CONTINUOUS
 10
194.861664
 20
10.752240
 11
195.412109
 21
19.008659
  0
ARC
  8
0
  6
CONTINUOUS
 10
196.010818
 20
18.968760
 40
0.600000
 50
90.000000
 51
176.186096
  0
ARC
  8
0
  6
CONTINUOUS
 10
193.863907
 20
10.818740
 40
1.000000
 50
270.000000
 51
356.185791
  0
ARC
  8
0
  6
CONTINUOUS
 10
273.049622
 20
57.208084
 40
30.000000
 50
-48.189449
 51
0.000000
  0
LINE
  8
0
  6
CONTINUOUS
 10
260.549530
 20
94.568764
 11
260.549530
 21
100.568741
  0
LINE
  8
0
  6
CONTINUOUS
 10
266.549530
 20
94.568718
 11
266.549530
 21
100.568718
  0
LINE
  8
0
  6
CONTINUOUS
 10
266.549530
 20
94.568718
 11
260.549530
 21
94.568764
  0
LINE
  8
0
  6
CONTINUOUS
 10
266.549530
 20
100.568718
 11
260.549530
 21
100.568741
  0
ARC
  8
0
  6
CONTINUOUS
 10
253.049530
 20
97.568764
 40
11.000000
 50
-344.173401
 51
-15.826600
  0
LINE
  8
0
  6
CONTINUOUS
 10
188.299545
 20
124.568764
 11
188.299545
 21
9.568760
  0
LINE
  8
0
  6
CENTER
 10
476.043365
 20
-9.977460
 11
476.043365
 21
160.766724
  0
LINE
  8
0
  6
CENTER
 10
404.076752
 20
67.068764
 11
542.303162
 21
67.068764
  0
LINE
  8
0
  6
CENTER
 10
373.043549
 20
97.568764
 11
574.886169
 21
97.568764
  0
LINE
  8
0
  6
CONTINUOUS
 10
418.043549
 20
86.568764
 11
418.043549
 21
7.568740
  0
LINE
  8
0
  6
CONTINUOUS
 10
430.043549
 20
127.818741
 11
430.043549
 21
149.568756
  0
LINE
  8
0
  6
CONTINUOUS
 10
428.125366
 20
151.568756
 11
418.043549
 21
151.568756
  0
LINE
  8
0
  6
CONTINUOUS
 10
428.125366
 20
7.568780
 11
418.043549
 21
7.568780
  0
LINE
  8
0
  6
CONTINUOUS
 10
508.043365
 20
18.051439
 11
508.043365
 21
141.086075
  0
LINE
  8
0
  6
CONTINUOUS
 10
507.061157
 20
142.085938
 11
432.008759
 21
143.395645
  0
LINE
  8
0
  6
CONTINUOUS
 10
507.061157
 20
17.051620
 11
432.008759
 21
15.741300
  0
LINE
  8
0
  6
CONTINUOUS
 10
434.600159
 20
119.568741
 11
506.976166
 21
119.568741
  0
LINE
  8
0
  6
CONTINUOUS
 10
431.952576
 20
39.568760
 11
506.653168
 21
39.568760
  0
LINE
  8
0
  6
CONTINUOUS
 10
430.540161
 20
9.421740
 11
431.649353
 21
13.561580
  0
LINE
  8
0
  6
CONTINUOUS
 10
430.540161
 20
149.715836
 11
431.649567
 21
145.575317
  0
ARC
  8
0
  6
CONTINUOUS
 10
434.547363
 20
146.351837
 40
3.000000
 50
195.000702
 51
269.000488
  0
ARC
  8
0
  6
CONTINUOUS
 10
428.043549
 20
149.568756
 40
2.000000
 50
0.000000
 51
90.000000
  0
ARC
  8
0
  6
CONTINUOUS
 10
432.043549
 20
145.395355
 40
2.000000
 50
180.000000
 51
269.000610
  0
ARC
  8
0
  6
CONTINUOUS
 10
434.547150
 20
12.785140
 40
3.000000
 50
91.000526
 51
165.000305
  0
ARC
  8
0
  6
CONTINUOUS
 10
432.043549
 20
13.741620
 40
2.000000
 50
91.000633
 51
180.000000
  0
ARC
  8
0
  6
CONTINUOUS
 10
428.043549
 20
9.568780
 40
2.000000
 50
-90.000000
 51
0.000000
  0
ARC
  8
0
  6
CONTINUOUS
 10
507.043365
 20
141.086075
 40
1.000000
 50
0.000000
 51
89.000359
  0
ARC
  8
0
  6
CONTINUOUS
 10
507.043365
 20
18.051439
 40
1.000000
 50
-88.999573
 51
0.000000
  0
LINE
  8
0
  6
CENTER
 10
412.549774
 20
139.568756
 11
435.186371
 21
139.568756
  0
LINE
  8
0
  6
CENTER
 10
412.549774
 20
19.568741
 11
435.186371
 21
19.568741
  0
LINE
  8
0
  6
DASHED
 10
418.043549
 20
145.068756
 11
430.043549
 21
145.068756
  0
LINE
  8
0
  6
DASHED
 10
418.043549
 20
134.068756
 11
430.043549
 21
134.068756
  0
LINE
  8
0
  6
DASHED
 10
418.043549
 20
25.068741
 11
430.043549
 21
25.068741
  0
LINE
  8
0
  6
DASHED
 10
418.043549
 20
14.068740
 11
430.043549
 21
14.068740
  0
LINE
  8
0
  6
CONTINUOUS
 10
524.043335
 20
72.375916
 11
524.043335
 21
122.761597
  0
LINE
  8
0
  6
CONTINUOUS
 10
514.043335
 20
39.373600
 11
514.043335
 21
99.638741
  0
LINE
  8
0
  6
CONTINUOUS
 10
521.813782
 20
125.661041
 11
510.273560
 21
128.726440
  0
LINE
  8
0
  6
CONTINUOUS
 10
521.813782
 20
69.476463
 11
516.273132
 21
68.004807
  0
LINE
  8
0
  6
CONTINUOUS
 10
511.816559
 20
36.474918
 11
510.270569
 21
36.062618
  0
ARC
  8
0
  6
CONTINUOUS
 10
521.043335
 20
122.761597
 40
3.000000
 50
0.000000
 51
75.124413
  0
ARC
  8
0
  6
CONTINUOUS
 10
521.043335
 20
72.375916
 40
3.000000
 50
-75.124207
 51
0.000000
  0
ARC
  8
0
  6
CONTINUOUS
 10
511.043365
 20
39.373600
 40
3.000000
 50
-75.068420
 51
0.000000
  0
ARC
  8
0
  6
CONTINUOUS
 10
511.043365
 20
131.625916
 40
3.000000
 50
180.000000
 51
255.124603
  0
ARC
  8
0
  6
CONTINUOUS
 10
517.043335
 20
65.105370
 40
3.000000
 50
104.876099
 51
180.000000
  0
ARC
  8
0
  6
CONTINUOUS
 10
511.043365
 20
33.163921
 40
3.000000
 50
104.931801
 51
180.000000
  0
LINE
  8
0
  6
CONTINUOUS
 10
523.543335
 20
24.568741
 11
523.543335
 21
33.620098
  0
LINE
  8
0
  6
CONTINUOUS
 10
518.543335
 20
19.568741
 11
509.492371
 21
19.568741
  0
ARC
  8
0
  6
CONTINUOUS
 10
476.043365
 20
67.068764
 40
57.250000
 50
-32.501888
 51
19.914110
  0
ARC
  8
0
  6
CONTINUOUS
 10
476.043365
 20
67.068764
 40
57.250000
 50
243.004898
 51
298.995514
  0
ARC
  8
0
  6
CONTINUOUS
 10
518.543335
 20
24.568741
 40
5.000000
 50
-90.000000
 51
0.000000
  0
ARC
  8
0
  6
CONTINUOUS
 10
528.543335
 20
33.620098
 40
5.000000
 50
147.498093
 51
180.000000
  0
ARC
  8
0
  6
CONTINUOUS
 10
509.492371
 20
14.568740
 40
5.000000
 50
90.000000
 51
106.842003
  0
LINE
  8
0
  6
CONTINUOUS
 10
428.043549
 20
72.375908
 11
428.043549
 21
122.761597
  0
LINE
  8
0
  6
CONTINUOUS
 10
430.273560
 20
69.476456
 11
433.074768
 21
68.732368
  0
LINE
  8
0
  6
CONTINUOUS
 10
430.273560
 20
125.661041
 11
432.097168
 21
126.145477
  0
ARC
  8
0
  6
CONTINUOUS
 10
431.043762
 20
122.761597
 40
3.000000
 50
104.876099
 51
180.000000
  0
ARC
  8
0
  6
CONTINUOUS
 10
431.043549
 20
72.375931
 40
3.000000
 50
180.000000
 51
255.124603
  0
LINE
  8
0
  6
CONTINUOUS
 10
435.543549
 20
117.318741
 11
437.043549
 21
111.068741
  0
LINE
  8
0
  6
CONTINUOUS
 10
437.043549
 20
111.068741
 11
436.043549
 21
105.568741
  0
LINE
  8
0
  6
CONTINUOUS
 10
436.043549
 20
105.568741
 11
438.293549
 21
99.818741
  0
LINE
  8
0
  6
CONTINUOUS
 10
438.293549
 20
99.818741
 11
436.543549
 21
94.068764
  0
LINE
  8
0
  6
CONTINUOUS
 10
436.543549
 20
94.068764
 11
434.543549
 21
89.068764
  0
LINE
  8
0
  6
CONTINUOUS
 10
434.543549
 20
89.068764
 11
435.043549
 21
80.318764
  0
LINE
  8
0
  6
CONTINUOUS
 10
435.043549
 20
80.318764
 11
433.793549
 21
75.818764
  0
LINE
  8
0
  6
CONTINUOUS
 10
433.793549
 20
75.818764
 11
433.793549
 21
71.068764
  0
LINE
  8
0
  6
CONTINUOUS
 10
433.793549
 20
71.068764
 11
431.793549
 21
64.568764
  0
LINE
  8
0
  6
CONTINUOUS
 10
431.793549
 20
64.568764
 11
432.043549
 21
60.568760
  0
LINE
  8
0
  6
CONTINUOUS
 10
432.043549
 20
60.568760
 11
431.043549
 21
56.193760
  0
LINE
  8
0
  6
CONTINUOUS
 10
431.043549
 20
56.193760
 11
427.543549
 21
53.568760
  0
LINE
  8
0
  6
CONTINUOUS
 10
427.543549
 20
53.568760
 11
424.918549
 21
50.318764
  0
LINE
  8
0
  6
CONTINUOUS
 10
424.918549
 20
50.318764
 11
422.043549
 21
48.568764
  0
LINE
  8
0
  6
CONTINUOUS
 10
422.043549
 20
48.568764
 11
419.668549
 21
46.443760
  0
LINE
  8
0
  6
CONTINUOUS
 10
419.668549
 20
46.443760
 11
418.043549
 21
46.072338
  0
LINE
  8
0
  6
CONTINUOUS
 10
427.918549
 20
129.443741
 11
424.418549
 21
130.318741
  0
LINE
  8
0
  6
CONTINUOUS
 10
424.418549
 20
130.318741
 11
421.043549
 21
130.943741
  0
LINE
  8
0
  6
CONTINUOUS
 10
421.043549
 20
130.943741
 11
418.043549
 21
131.943756
  0
LINE
  8
0
  6
CONTINUOUS
 10
418.043549
 20
151.568756
 11
418.043549
 21
108.568741
  0
LINE
  8
0
  6
CONTINUOUS
 10
430.043549
 20
9.568780
 11
430.043549
 21
55.443760
  0
LINE
  8
0
  6
CONTINUOUS
 10
427.918549
 20
129.443741
 11
430.043549
 21
127.818741
  0
LINE
  8
0
  6
CONTINUOUS
 10
430.043549
 20
127.818741
 11
433.418549
 21
125.068741
  0
LINE
  8
0
  6
CONTINUOUS
 10
433.418549
 20
125.068741
 11
433.918549
 21
121.193741
  0
LINE
  8
0
  6
CONTINUOUS
 10
433.918549
 20
121.193741
 11
435.543549
 21
117.318741
  0
LINE
  8
0
  6
CONTINUOUS
 10
425.043549
 20
86.568764
 11
425.043549
 21
50.473522
  0
LINE
  8
0
  6
CONTINUOUS
 10
425.043549
 20
130.162521
 11
425.043549
 21
108.568741
  0
LINE
  8
0
  6
CONTINUOUS
 10
566.043335
 20
86.568764
 11
566.043335
 21
108.568741
  0
LINE
  8
0
  6
CONTINUOUS
 10
526.043335
 20
108.568741
 11
566.043335
 21
108.568741
  0
LINE
  8
0
  6
CONTINUOUS
 10
526.043335
 20
86.568764
 11
566.043335
 21
86.568764
  0
LINE
  8
0
  6
CONTINUOUS
 10
526.043335
 20
110.068741
 11
526.043335
 21
85.068764
  0
LINE
  8
0
  6
CONTINUOUS
 10
524.043335
 20
110.068741
 11
526.043335
 21
110.068741
  0
LINE
  8
0
  6
CONTINUOUS
 10
524.043335
 20
85.068764
 11
526.043335
 21
85.068764
  0
ARC
  8
0
  6
CONTINUOUS
 10
534.043335
 20
97.568764
 40
3.000000
 50
90.000000
 51
270.000000
  0
LINE
  8
0
  6
CONTINUOUS
 10
534.043335
 20
100.568741
 11
566.043335
 21
100.568741
  0
LINE
  8
0
  6
CONTINUOUS
 10
534.043335
 20
94.568764
 11
566.043335
 21
94.568764
  0
LINE
  8
0
  6
CONTINUOUS
 10
386.043762
 20
86.568764
 11
386.043762
 21
108.568741
  0
LINE
  8
0
  6
CONTINUOUS
 10
426.043762
 20
108.568741
 11
386.043762
 21
108.568741
  0
LINE
  8
0
  6
CONTINUOUS
 10
426.043762
 20
86.568764
 11
386.043762
 21
86.568764
  0
LINE
  8
0
  6
CONTINUOUS
 10
426.043762
 20
110.068741
 11
426.043762
 21
85.068764
  0
LINE
  8
0
  6
CONTINUOUS
 10
428.043762
 20
110.068741
 11
426.043762
 21
110.068741
  0
LINE
  8
0
  6
CONTINUOUS
 10
428.043762
 20
85.068764
 11
426.043762
 21
85.068764
  0
ARC
  8
0
  6
CONTINUOUS
 10
418.043762
 20
97.568764
 40
3.000000
 50
-90.000000
 51
90.000000
  0
LINE
  8
0
  6
CONTINUOUS
 10
418.043762
 20
100.568741
 11
386.043762
 21
100.568741
  0
LINE
  8
0
  6
CONTINUOUS
 10
418.043762
 20
94.568764
 11
386.043762
 21
94.568764
  0
ARC
  8
0
  6
CONTINUOUS
 10
428.125366
 20
149.068756
 40
2.500000
 50
15.000760
 51
90.000000
  0
ARC
  8
0
  6
CONTINUOUS
 10
428.125366
 20
10.068780
 40
2.500000
 50
270.000000
 51
345.000214
  0
ARC
  8
0
  6
CONTINUOUS
 10
476.043365
 20
67.068764
 40
57.499821
 50
303.815704
 51
303.996307
  0
ARC
  8
0
  6
CONTINUOUS
 10
476.043365
 20
67.068764
 40
57.500000
 50
242.540298
 51
299.460602
  0
ARC
  8
0
  6
CONTINUOUS
 10
476.043365
 20
67.068764
 40
57.500000
 50
-33.996769
 51
19.823891
  0
ARC
  8
0
  6
CONTINUOUS
 10
476.043365
 20
67.068764
 40
57.500000
 50
303.815613
 51
303.997314
  0
LINE
  8
0
  6
CONTINUOUS
 10
199.511230
 20
339.283020
 11
199.308517
 21
331.543762
  0
ARC
  8
0
  6
CONTINUOUS
 10
201.010712
 20
339.243774
 40
1.500000
 50
90.000000
 51
178.499649
  0
ARC
  8
0
  6
CONTINUOUS
 10
197.049530
 20
261.743774
 40
1.000000
 50
90.000000
 51
180.000000
  0
ARC
  8
0
  6
CONTINUOUS
 10
196.530579
 20
263.675262
 40
1.000000
 50
285.039185
 51
358.499664
  0
LINE
  8
0
  6
CENTER
 10
253.049530
 20
404.945465
 11
253.049530
 21
208.519806
  0
LINE
  8
0
  6
CONTINUOUS
 10
227.856689
 20
356.743774
 11
278.242371
 21
356.743774
  0
LINE
  8
0
  6
CONTINUOUS
 10
283.205780
 20
346.743774
 11
286.492615
 21
346.743774
  0
ARC
  8
0
  6
CONTINUOUS
 10
278.242371
 20
353.743774
 40
3.000000
 50
-345.124329
 51
-270.000000
  0
LINE
  8
0
  6
CONTINUOUS
 10
289.392090
 20
344.513916
 11
289.801239
 21
342.973602
  0
ARC
  8
0
  6
CONTINUOUS
 10
286.492615
 20
343.743774
 40
3.000000
 50
-345.124329
 51
-270.000000
  0
ARC
  8
0
  6
CONTINUOUS
 10
292.700684
 20
343.743774
 40
3.000000
 50
-165.124313
 51
-90.000000
  0
LINE
  8
0
  6
CONTINUOUS
 10
283.205780
 20
346.743774
 11
281.141846
 21
354.513916
  0
LINE
  8
0
  6
CONTINUOUS
 10
216.706985
 20
344.513916
 11
216.297836
 21
342.973602
  0
ARC
  8
0
  6
CONTINUOUS
 10
219.606445
 20
343.743774
 40
3.000000
 50
90.000000
 51
165.124313
  0
ARC
  8
0
  6
CONTINUOUS
 10
213.398376
 20
343.743774
 40
3.000000
 50
-90.000000
 51
-14.875682
  0
LINE
  8
0
  6
CONTINUOUS
 10
222.893280
 20
346.743774
 11
219.606445
 21
346.743774
  0
ARC
  8
0
  6
CONTINUOUS
 10
227.856689
 20
353.743774
 40
3.000000
 50
90.000000
 51
165.124313
  0
LINE
  8
0
  6
CONTINUOUS
 10
222.893280
 20
346.743774
 11
224.957230
 21
354.513916
  0
LINE
  8
0
  6
CONTINUOUS
 10
242.049530
 20
218.743759
 11
266.549530
 21
218.743759
  0
LINE
  8
0
  6
CONTINUOUS
 10
242.049530
 20
250.743759
 11
242.049530
 21
218.743759
  0
LINE
  8
0
  6
CONTINUOUS
 10
266.549530
 20
250.743759
 11
266.549530
 21
218.743759
  0
LINE
  8
0
  6
CONTINUOUS
 10
263.632538
 20
218.743759
 11
263.632538
 21
250.743759
  0
LINE
  8
0
  6
CONTINUOUS
 10
242.049530
 20
398.743774
 11
266.549530
 21
398.743774
  0
LINE
  8
0
  6
CONTINUOUS
 10
264.049530
 20
358.743774
 11
264.049530
 21
363.743774
  0
LINE
  8
0
  6
CONTINUOUS
 10
242.049530
 20
358.743774
 11
242.049530
 21
398.743774
  0
LINE
  8
0
  6
CONTINUOUS
 10
265.549530
 20
356.743774
 11
265.549530
 21
358.743774
  0
LINE
  8
0
  6
CONTINUOUS
 10
240.549530
 20
356.743774
 11
240.549530
 21
358.743774
  0
LINE
  8
0
  6
CONTINUOUS
 10
240.549530
 20
358.743774
 11
265.549530
 21
358.743774
  0
LINE
  8
0
  6
CONTINUOUS
 10
266.549530
 20
363.743774
 11
266.549530
 21
398.743774
  0
LINE
  8
0
  6
CONTINUOUS
 10
263.632538
 20
398.743774
 11
263.632538
 21
363.743774
  0
LINE
  8
0
  6
CONTINUOUS
 10
263.632538
 20
363.743774
 11
266.549530
 21
363.743774
  0
ARC
  8
0
  6
CONTINUOUS
 10
137.865112
 20
310.337433
 40
65.000000
 50
-22.042076
 51
19.041388
  0
LINE
  8
0
  6
CONTINUOUS
 10
198.114166
 20
285.943756
 11
197.530228
 21
263.649078
  0
LINE
  8
0
  6
CONTINUOUS
 10
22.299532
 20
18.068781
 11
22.299532
 21
94.068764
  0
LINE
  8
0
  6
CONTINUOUS
 10
22.299532
 20
94.068741
 11
136.299530
 21
94.068741
  0
LINE
  8
0
  6
CONTINUOUS
 10
22.299532
 20
18.068781
 11
136.299530
 21
18.068781
  0
LINE
  8
0
  6
CONTINUOUS
 10
22.299532
 20
86.317741
 11
128.299530
 21
86.317741
  0
LINE
  8
0
  6
CONTINUOUS
 10
22.299532
 20
25.819780
 11
128.299530
 21
25.819780
  0
LINE
  8
0
  6
CONTINUOUS
 10
128.299530
 20
92.068741
 11
128.299530
 21
20.068760
  0
ARC
  8
0
  6
CONTINUOUS
 10
130.299530
 20
92.068764
 40
2.000000
 50
90.000000
 51
180.000000
  0
ARC
  8
0
  6
CONTINUOUS
 10
130.299530
 20
20.068781
 40
2.000000
 50
180.000000
 51
270.000000
  0
LINE
  8
0
  6
CONTINUOUS
 10
1.799531
 20
24.068760
 11
1.799531
 21
88.068764
  0
LINE
  8
0
  6
CONTINUOUS
 10
5.763611
 20
94.068764
 11
22.299532
 21
94.068764
  0
LINE
  8
0
  6
CONTINUOUS
 10
5.763627
 20
18.068760
 11
22.299532
 21
18.068760
  0
LINE
  8
0
  6
CONTINUOUS
 10
2.299531
 20
21.068760
 11
2.299531
 21
91.068764
  0
LINE
  8
0
  6
CONTINUOUS
 10
1.799531
 20
88.068764
 11
2.299531
 21
88.568764
  0
LINE
  8
0
  6
CONTINUOUS
 10
1.799531
 20
24.068760
 11
2.299531
 21
23.568760
  0
LINE
  8
0
  6
CONTINUOUS
 10
3.165544
 20
92.568741
 11
2.299531
 21
91.068764
  0
ARC
  8
0
  6
CONTINUOUS
 10
5.763627
 20
91.068779
 40
3.000000
 50
90.000000
 51
150.000397
  0
LINE
  8
0
  6
CONTINUOUS
 10
3.165544
 20
19.568781
 11
2.299531
 21
21.068760
  0
ARC
  8
0
  6
CONTINUOUS
 10
5.763627
 20
21.068760
 40
3.000000
 50
-150.000397
 51
-90.000000
  0
LINE
  8
0
  6
CONTINUOUS
 10
3.881165
 20
86.317764
 11
22.299532
 21
86.317764
  0
LINE
  8
0
  6
CONTINUOUS
 10
22.299532
 20
25.819759
 11
3.881165
 21
25.819759
  0
LINE
  8
0
  6
CONTINUOUS
 10
177.886780
 20
95.521019
 11
136.299530
 21
94.068764
  0
LINE
  8
0
  6
CONTINUOUS
 10
188.299530
 20
16.252880
 11
136.299530
 21
18.068760
  0
LINE
  8
0
  6
CONTINUOUS
 10
180.299530
 20
123.568764
 11
180.299530
 21
96.568764
  0
LINE
  8
0
  6
CONTINUOUS
 10
181.299530
 20
124.568764
 11
188.299545
 21
124.568764
  0
LINE
  8
0
  6
CONTINUOUS
 10
182.799530
 20
9.568760
 11
188.299530
 21
9.568760
  0
LINE
  8
0
  6
CONTINUOUS
 10
180.299530
 20
97.068764
 11
180.299530
 21
26.156103
  0
LINE
  8
0
  6
CONTINUOUS
 10
136.299530
 20
94.068764
 11
136.299530
 21
18.068760
  0
LINE
  8
0
  6
CONTINUOUS
 10
178.886398
 20
107.386566
 11
152.942978
 21
94.862152
  0
ARC
  8
0
  6
CONTINUOUS
 10
181.299530
 20
123.568764
 40
1.000000
 50
90.000000
 51
180.000000
  0
ARC
  8
0
  6
CONTINUOUS
 10
177.799530
 20
109.637939
 40
2.500000
 50
-64.230675
 51
0.000000
  0
ARC
  8
0
  6
CONTINUOUS
 10
177.799530
 20
98.019493
 40
2.500000
 50
-88.000000
 51
0.000000
  0
ARC
  8
0
  6
CONTINUOUS
 10
151.856110
 20
97.113533
 40
2.500000
 50
272.000000
 51
295.769318
  0
LINE
  8
0
  6
CONTINUOUS
 10
181.424606
 20
23.914761
 11
188.299530
 21
23.914761
  0
LINE
  8
0
  6
CONTINUOUS
 10
180.299530
 20
12.068760
 11
180.299530
 21
14.118024
  0
ARC
  8
0
  6
CONTINUOUS
 10
182.799530
 20
12.068760
 40
2.500000
 50
180.000000
 51
270.000000
  0
ARC
  8
0
  6
CONTINUOUS
 10
177.799530
 20
14.118024
 40
2.500000
 50
0.000000
 51
88.000000
  0
LINE
  8
0
  6
CENTER
 10
-10.275469
 20
56.068760
 11
221.049530
 21
56.068760
  0
LINE
  8
0
  6
CONTINUOUS
 10
182.799530
 20
251.243759
 11
188.299530
 21
251.243759
  0
LINE
  8
0
  6
CONTINUOUS
 10
182.799530
 20
366.243774
 11
188.299530
 21
366.243774
  0
LINE
  8
0
  6
CONTINUOUS
 10
180.299530
 20
253.743759
 11
180.299530
 21
363.743774
  0
LINE
  8
0
  6
CONTINUOUS
 10
136.299530
 20
346.743774
 11
136.299530
 21
270.743774
  0
LINE
  8
0
  6
CONTINUOUS
 10
177.886780
 20
348.196014
 11
136.299530
 21
346.743774
  0
LINE
  8
0
  6
CONTINUOUS
 10
177.886780
 20
269.291504
 11
136.299530
 21
270.743774
  0
ARC
  8
0
  6
CONTINUOUS
 10
182.799530
 20
363.743774
 40
2.500000
 50
90.000000
 51
180.000000
  0
ARC
  8
0
  6
CONTINUOUS
 10
182.799530
 20
253.743759
 40
2.500000
 50
180.000000
 51
270.000000
  0
LINE
  8
0
  6
CONTINUOUS
 10
136.299530
 20
346.743774
 11
136.299530
 21
270.743774
  0
LINE
  8
0
  6
CONTINUOUS
 10
22.299652
 20
270.743774
 11
22.299652
 21
283.743744
  0
LINE
  8
0
  6
CONTINUOUS
 10
22.299652
 20
346.743744
 11
136.299652
 21
346.743744
  0
LINE
  8
0
  6
CONTINUOUS
 10
22.299652
 20
270.743774
 11
136.299652
 21
270.743774
  0
LINE
  8
0
  6
CONTINUOUS
 10
128.299652
 20
344.743744
 11
128.299652
 21
331.743774
  0
ARC
  8
0
  6
CONTINUOUS
 10
130.299652
 20
344.743774
 40
2.000000
 50
90.000000
 51
180.000000
  0
ARC
  8
0
  6
CONTINUOUS
 10
130.299652
 20
272.743774
 40
2.000000
 50
180.000000
 51
270.000000
  0
LINE
  8
0
  6
CONTINUOUS
 10
1.799653
 20
276.743774
 11
1.799653
 21
340.743774
  0
LINE
  8
0
  6
CONTINUOUS
 10
5.763733
 20
346.743774
 11
22.299652
 21
346.743774
  0
LINE
  8
0
  6
CONTINUOUS
 10
5.763753
 20
270.743774
 11
22.299652
 21
270.743774
  0
LINE
  8
0
  6
CONTINUOUS
 10
2.299653
 20
273.743774
 11
2.299653
 21
343.743774
  0
LINE
  8
0
  6
CONTINUOUS
 10
1.799653
 20
340.743774
 11
2.299653
 21
341.243774
  0
LINE
  8
0
  6
CONTINUOUS
 10
1.799653
 20
276.743774
 11
2.299653
 21
276.243774
  0
LINE
  8
0
  6
CONTINUOUS
 10
3.165673
 20
345.243744
 11
2.299653
 21
343.743774
  0
ARC
  8
0
  6
CONTINUOUS
 10
5.763753
 20
343.743774
 40
3.000000
 50
90.000000
 51
150.000397
  0
LINE
  8
0
  6
CONTINUOUS
 10
3.165673
 20
272.243774
 11
2.299653
 21
273.743774
  0
ARC
  8
0
  6
CONTINUOUS
 10
5.763753
 20
273.743774
 40
3.000000
 50
-150.000397
 51
-90.000000
  0
LINE
  8
0
  6
CONTINUOUS
 10
63.299644
 20
331.743774
 11
128.299652
 21
331.743774
  0
LINE
  8
0
  6
CONTINUOUS
 10
13.299653
 20
331.743774
 11
3.881283
 21
331.743774
  0
LINE
  8
0
  6
CONTINUOUS
 10
63.299648
 20
285.743774
 11
128.299652
 21
285.743774
  0
LINE
  8
0
  6
CONTINUOUS
 10
13.299653
 20
285.743774
 11
3.881283
 21
285.743774
  0
LINE
  8
0
  6
CONTINUOUS
 10
128.299652
 20
285.743774
 11
128.299652
 21
272.743774
  0
LINE
  8
0
  6
CONTINUOUS
 10
22.299652
 20
333.743744
 11
22.299652
 21
346.743774
  0
ARC
  8
0
  6
CONTINUOUS
 10
167.469162
 20
308.743774
 40
15.000000
 50
130.747620
 51
229.252380
  0
LINE
  8
0
  6
CONTINUOUS
 10
179.431351
 20
338.849762
 11
157.678238
 21
320.107635
  0
LINE
  8
0
  6
CONTINUOUS
 10
179.431351
 20
278.637756
 11
157.678238
 21
297.379883
  0
ARC
  8
0
  6
CONTINUOUS
 10
177.799530
 20
340.743744
 40
2.500000
 50
-49.252373
 51
0.000000
  0
ARC
  8
0
  6
CONTINUOUS
 10
177.799530
 20
350.694489
 40
2.500000
 50
-88.000000
 51
0.000000
  0
ARC
  8
0
  6
CONTINUOUS
 10
177.799530
 20
276.743774
 40
2.500000
 50
0.000000
 51
49.252373
  0
ARC
  8
0
  6
CONTINUOUS
 10
177.799530
 20
266.793030
 40
2.500000
 50
0.000000
 51
88.000000
  0
LINE
  8
0
  6
CONTINUOUS
 10
12.299653
 20
316.243744
 11
13.299653
 21
316.243744
  0
ARC
  8
0
  6
CONTINUOUS
 10
12.299673
 20
315.243744
 40
1.000000
 50
90.000000
 51
180.000000
  0
LINE
  8
0
  6
CONTINUOUS
 10
7.799668
 20
312.743744
 11
7.799668
 21
304.743744
  0
LINE
  8
0
  6
CONTINUOUS
 10
7.799668
 20
312.743744
 11
11.299668
 21
314.243744
  0
LINE
  8
0
  6
CONTINUOUS
 10
7.799653
 20
304.743744
 11
11.299653
 21
303.243744
  0
LINE
  8
0
  6
CONTINUOUS
 10
11.299668
 20
315.243744
 11
11.299668
 21
302.243744
  0
LINE
  8
0
  6
CONTINUOUS
 10
12.299653
 20
301.243744
 11
13.299653
 21
301.243744
  0
ARC
  8
0
  6
CONTINUOUS
 10
12.299673
 20
302.243744
 40
1.000000
 50
-180.000000
 51
-90.000000
  0
LINE
  8
0
  6
CONTINUOUS
 10
13.299653
 20
285.743744
 11
13.299653
 21
331.743744
  0
LINE
  8
0
  6
CONTINUOUS
 10
15.299653
 20
333.743744
 11
13.299653
 21
331.743744
  0
LINE
  8
0
  6
CONTINUOUS
 10
15.299653
 20
333.743744
 11
61.299644
 21
333.743744
  0
LINE
  8
0
  6
CONTINUOUS
 10
55.799652
 20
329.243744
 11
55.799652
 21
333.743744
  0
ARC
  8
0
  6
CONTINUOUS
 10
58.799652
 20
329.243744
 40
3.000000
 50
180.000000
 51
270.000000
  0
LINE
  8
0
  6
CONTINUOUS
 10
58.799652
 20
326.243744
 11
63.299644
 21
326.243744
  0
CIRCLE
  8
0
  6
CONTINUOUS
 10
59.799652
 20
330.243744
 40
2.250000
  0
LINE
  8
0
  6
CONTINUOUS
 10
63.299648
 20
285.743744
 11
63.299644
 21
331.743744
  0
LINE
  8
0
  6
CONTINUOUS
 10
61.299644
 20
333.743744
 11
63.299644
 21
331.743744
  0
LINE
  8
0
  6
CONTINUOUS
 10
61.299648
 20
283.743744
 11
63.299648
 21
285.743744
  0
LINE
  8
0
  6
CONTINUOUS
 10
61.299648
 20
283.743744
 11
15.299653
 21
283.743744
  0
LINE
  8
0
  6
CONTINUOUS
 10
13.299653
 20
285.743744
 11
15.299653
 21
283.743744
  0
LINE
  8
0
  6
CONTINUOUS
 10
17.799652
 20
291.243744
 11
13.299663
 21
291.243744
  0
CIRCLE
  8
0
  6
CONTINUOUS
 10
16.799652
 20
287.243744
 40
2.250000
  0
ARC
  8
0
  6
CONTINUOUS
 10
17.799652
 20
288.243744
 40
3.000000
 50
0.000000
 51
90.000000
  0
LINE
  8
0
  6
CONTINUOUS
 10
20.799652
 20
288.243744
 11
20.799652
 21
283.743744
  0
LINE
  8
0
  6
CENTER
 10
38.299652
 20
276.277954
 11
38.299652
 21
340.410004
  0
LINE
  8
0
  6
CONTINUOUS
 10
15.713872
 20
332.743744
 11
14.299659
 21
331.329529
  0
LINE
  8
0
  6
CONTINUOUS
 10
14.299659
 20
291.243744
 11
14.299659
 21
331.329529
  0
LINE
  8
0
  6
CONTINUOUS
 10
55.799652
 20
332.743744
 11
15.713872
 21
332.743744
  0
LINE
  8
0
  6
CONTINUOUS
 10
62.299648
 20
326.243744
 11
62.299648
 21
286.157959
  0
LINE
  8
0
  6
CONTINUOUS
 10
20.799652
 20
284.743744
 11
60.885433
 21
284.743744
  0
LINE
  8
0
  6
CONTINUOUS
 10
60.885433
 20
284.743744
 11
62.299648
 21
286.157959
  0
LINE
  8
0
  6
CONTINUOUS
 10
14.799531
 20
95.568764
 11
61.299530
 21
95.568764
  0
LINE
  8
0
  6
CONTINUOUS
 10
63.299522
 20
125.568764
 11
63.299530
 21
97.568764
  0
LINE
  8
0
  6
CONTINUOUS
 10
13.299531
 20
125.568764
 11
13.299531
 21
97.568764
  0
LINE
  8
0
  6
CONTINUOUS
 10
11.299531
 20
107.568764
 11
63.299530
 21
107.568764
  0
LINE
  8
0
  6
CONTINUOUS
 10
61.299530
 20
95.568764
 11
63.299530
 21
97.568764
  0
LINE
  8
0
  6
CONTINUOUS
 10
13.299531
 20
97.568764
 11
15.299531
 21
95.568764
  0
LINE
  8
0
  6
CONTINUOUS
 10
13.299531
 20
97.568764
 11
63.299530
 21
97.568764
  0
LINE
  8
0
  6
CONTINUOUS
 10
14.299531
 20
126.568764
 11
62.299522
 21
126.568764
  0
LINE
  8
0
  6
CONTINUOUS
 10
62.299522
 20
126.568764
 11
63.299522
 21
125.568764
  0
LINE
  8
0
  6
CONTINUOUS
 10
14.299531
 20
126.568764
 11
13.299531
 21
125.568764
  0
LINE
  8
0
  6
CONTINUOUS
 10
13.299531
 20
125.568764
 11
63.299522
 21
125.568764
  0
LINE
  8
0
  6
CENTER
 10
5.355775
 20
117.068764
 11
17.430780
 21
117.068764
  0
LINE
  8
0
  6
CONTINUOUS
 10
11.299546
 20
123.568764
 11
11.299531
 21
107.568764
  0
LINE
  8
0
  6
CONTINUOUS
 10
12.299531
 20
124.568764
 11
13.299531
 21
124.568764
  0
ARC
  8
0
  6
CONTINUOUS
 10
12.299551
 20
123.568764
 40
1.000000
 50
90.000000
 51
180.000000
  0
LINE
  8
0
  6
CONTINUOUS
 10
7.799546
 20
121.068764
 11
7.799546
 21
113.068764
  0
LINE
  8
0
  6
CONTINUOUS
 10
7.799546
 20
121.068764
 11
11.299546
 21
122.568764
  0
LINE
  8
0
  6
CONTINUOUS
 10
7.799531
 20
113.068764
 11
11.299531
 21
111.568764
  0
LINE
  8
0
  6
CENTER
 10
38.299530
 20
90.875008
 11
38.299530
 21
131.956253
  0
LINE
  8
0
  6
CONTINUOUS
 10
14.799531
 20
95.568764
 11
14.799531
 21
94.068764
  0
LINE
  8
0
  6
CONTINUOUS
 10
60.799530
 20
95.568764
 11
60.799530
 21
94.068764
  0
LINE
  8
0
  6
CENTER
 10
298.049622
 20
265.937500
 11
298.049622
 21
247.103119
  0
LINE
  8
0
  6
DASHED
 10
292.549622
 20
262.743774
 11
292.549622
 21
250.743759
  0
LINE
  8
0
  6
DASHED
 10
303.549622
 20
262.743774
 11
303.549622
 21
250.743759
  0
LINE
  8
0
  6
DASHED
 10
213.549454
 20
262.743774
 11
213.549454
 21
250.743759
  0
LINE
  8
0
  6
CENTER
 10
208.049454
 20
265.937500
 11
208.049454
 21
247.103119
  0
LINE
  8
0
  6
DASHED
 10
202.549454
 20
262.743774
 11
202.549454
 21
250.743759
  0
LINE
  8
0
  6
CONTINUOUS
 10
136.299530
 20
46.668758
 11
180.299530
 21
46.668758
  0
LINE
  8
0
  6
CONTINUOUS
 10
136.299530
 20
36.468761
 11
180.299530
 21
36.468761
  0
TEXT
  8
0
 10
-13.000000
 20
-9.000000
 40
4.000000
 41
1.000000
  1
HFM-22T-300~900-T25WT
 50
0.000000
  0
ENDSEC
  0
EOF
