  0
SECTION
  2
HEADER
  9
$CLAYER
  8
1
  9
$LTSCALE
 40
3.0
  0
ENDSEC
  0
SECTION
  2
TABLES
  0
TABLE
  2
LTYPE
 70
     4
  0
LTYPE
  2
CONTINUOUS
  3
solid line
 70
    64
 72
    65
 73
     0
 40
0.0
  0
LTYPE
  2
DASHED
  3
__ __ __ __ __ __ __ __ __ __ __ __ __ __ __
 70
    64
 72
    65
 73
     2
 40
0.75
 49
0.5
 49
-0.25
  0
LTYPE
  2
CENTER
  3
____ _ ____ _ ____ _ ____ _ ____ _ ____ _ ____
 70
    64
 72
    65
 73
     4
 40
2.0
 49
1.25
 49
-0.25
 49
0.25
 49
-0.25
  0
LTYPE
  2
PHANTOM
  3
_____ _ _ _____ _ _ _____ _ _ _____ _ _ ____
 70
    64
 72
    65
 73
     6
 40
2.5
 49
1.25
 49
-0.25
 49
0.25
 49
-0.25
 49
0.25
 49
-0.25
  0
ENDTAB
  0
TABLE
  2
LAYER
 70
     1
  0
LAYER
  2
0
 70
    64
 62
     7
  6
CONTINUOUS
  0
ENDTAB
  0
TABLE
  2
STYLE
 70
     1
  0
STYLE
  2
STANDARD
 70
     0
 40
0.000000
 41
1.000000
 50
0.000000
 71
     0
 42
3.000000
  3
txt
  4
BIGFONT
  0
ENDTAB
  0
ENDSEC
  0
SECTION
  2
BLOCKS
  0
ENDSEC
  0
SECTION
  2
ENTITIES
  0
LINE
  8
0
  6
CENTER
 10
351.925140
 20
300.218750
 11
-10.182780
 21
300.218750
  0
LINE
  8
0
  6
CONTINUOUS
 10
227.939529
 20
242.968765
 11
225.439529
 21
242.968765
  0
LINE
  8
0
  6
CONTINUOUS
 10
229.956924
 20
357.468750
 11
225.439529
 21
357.468750
  0
LINE
  8
0
  6
CONTINUOUS
 10
232.689529
 20
242.968765
 11
225.439529
 21
242.968765
  0
LINE
  8
0
  6
CONTINUOUS
 10
234.143753
 20
268.218750
 11
225.439529
 21
268.218750
  0
LINE
  8
0
  6
CONTINUOUS
 10
232.706131
 20
252.718765
 11
225.439529
 21
252.718765
  0
LINE
  8
0
  6
CONTINUOUS
 10
230.799927
 20
347.718750
 11
225.439529
 21
347.718750
  0
LINE
  8
0
  6
CONTINUOUS
 10
225.439529
 20
332.218750
 11
342.228333
 21
332.218750
  0
LINE
  8
0
  6
CONTINUOUS
 10
230.956726
 20
356.486267
 11
231.294617
 21
337.131500
  0
ARC
  8
0
  6
CONTINUOUS
 10
229.956833
 20
356.468750
 40
1.000000
 50
1.000700
 51
90.000000
  0
ARC
  8
0
  6
CONTINUOUS
 10
236.293930
 20
337.218750
 40
5.000000
 50
-178.999802
 51
-90.000000
  0
LINE
  8
0
  6
CONTINUOUS
 10
225.439529
 20
357.718750
 11
225.439529
 21
242.718765
  0
LINE
  8
0
  6
CONTINUOUS
 10
347.189545
 20
242.218765
 11
233.189529
 21
242.218765
  0
LINE
  8
0
  6
CONTINUOUS
 10
270.189545
 20
332.218750
 11
270.189545
 21
255.021057
  0
LINE
  8
0
  6
CONTINUOUS
 10
310.189545
 20
332.218750
 11
310.189545
 21
255.021057
  0
LINE
  8
0
  6
CONTINUOUS
 10
343.727844
 20
330.758057
 11
345.711517
 21
255.021057
  0
ARC
  8
0
  6
CONTINUOUS
 10
342.228241
 20
330.718750
 40
1.500000
 50
1.500200
 51
90.000000
  0
LINE
  8
0
  6
CONTINUOUS
 10
234.189529
 20
254.218765
 11
345.901031
 21
254.218765
  0
LINE
  8
0
  6
CONTINUOUS
 10
233.189529
 20
253.218765
 11
233.189529
 21
242.218765
  0
LINE
  8
0
  6
CONTINUOUS
 10
347.189545
 20
242.218765
 11
346.900726
 21
253.244965
  0
ARC
  8
0
  6
CONTINUOUS
 10
345.901031
 20
253.218765
 40
1.000000
 50
1.500100
 51
90.000000
  0
ARC
  8
0
  6
CONTINUOUS
 10
346.710938
 20
255.047256
 40
1.000000
 50
-178.499603
 51
-113.891197
  0
ARC
  8
0
  6
CONTINUOUS
 10
232.689529
 20
242.468765
 40
0.500000
 50
0.000000
 51
90.000000
  0
LINE
  8
0
  6
CENTER
 10
187.815002
 20
58.543758
 11
257.383331
 21
58.543758
  0
LINE
  8
0
  6
CENTER
 10
290.189545
 20
154.125015
 11
290.189545
 21
-13.612500
  0
LINE
  8
0
  6
CENTER
 10
237.757507
 20
89.043762
 11
355.258423
 21
89.043762
  0
LINE
  8
0
  6
CONTINUOUS
 10
240.189453
 20
93.404457
 11
240.189453
 21
48.683071
  0
LINE
  8
0
  6
CONTINUOUS
 10
340.189606
 20
93.404419
 11
340.189606
 21
48.683071
  0
ARC
  8
0
  6
CONTINUOUS
 10
290.189545
 20
71.043770
 40
60.000000
 50
48.189621
 51
131.810394
  0
ARC
  8
0
  6
CONTINUOUS
 10
290.189545
 20
71.043770
 40
60.000000
 50
228.189697
 51
311.810303
  0
ARC
  8
0
  6
CONTINUOUS
 10
310.189606
 20
93.404419
 40
30.000000
 50
0.000000
 51
48.189629
  0
CIRCLE
  8
0
  6
CONTINUOUS
 10
290.189545
 20
89.043762
 40
27.500000
  0
ARC
  8
0
  6
CONTINUOUS
 10
290.189545
 20
89.043762
 40
31.750000
 50
7.552697
 51
172.447403
  0
ARC
  8
0
  6
CONTINUOUS
 10
273.439545
 20
47.543762
 40
20.600000
 50
172.447403
 51
270.000000
  0
ARC
  8
0
  6
CONTINUOUS
 10
306.939545
 20
47.543762
 40
20.600000
 50
-90.000000
 51
7.552700
  0
LINE
  8
0
  6
CONTINUOUS
 10
321.664215
 20
93.216919
 11
327.360809
 21
50.251389
  0
LINE
  8
0
  6
CONTINUOUS
 10
253.018127
 20
50.251350
 11
258.714966
 21
93.216858
  0
LINE
  8
0
  6
CONTINUOUS
 10
273.439545
 20
26.943760
 11
306.939545
 21
26.943760
  0
ARC
  8
0
  6
CONTINUOUS
 10
273.439545
 20
47.543762
 40
19.000000
 50
172.447601
 51
270.000000
  0
ARC
  8
0
  6
CONTINUOUS
 10
306.939545
 20
47.543762
 40
19.000000
 50
-90.000000
 51
7.552700
  0
ARC
  8
0
  6
CONTINUOUS
 10
290.189545
 20
89.043762
 40
30.150000
 50
-187.552597
 51
7.552697
  0
LINE
  8
0
  6
CONTINUOUS
 10
254.604324
 20
50.041058
 11
260.301117
 21
93.006577
  0
LINE
  8
0
  6
CONTINUOUS
 10
320.078003
 20
93.006599
 11
325.774811
 21
50.041088
  0
LINE
  8
0
  6
CONTINUOUS
 10
273.439545
 20
28.543760
 11
306.939545
 21
28.543760
  0
LINE
  8
0
  6
CONTINUOUS
 10
279.893127
 20
36.043758
 11
275.732727
 21
36.043758
  0
LINE
  8
0
  6
CONTINUOUS
 10
282.189545
 20
43.012512
 11
282.189545
 21
36.043758
  0
LINE
  8
0
  6
CONTINUOUS
 10
286.189545
 20
45.543762
 11
286.189545
 21
48.043762
  0
LINE
  8
0
  6
CONTINUOUS
 10
294.189545
 20
45.543762
 11
294.189545
 21
48.043762
  0
LINE
  8
0
  6
CONTINUOUS
 10
289.408325
 20
46.575012
 11
289.408325
 21
37.356258
  0
LINE
  8
0
  6
CONTINUOUS
 10
290.908325
 20
46.575012
 11
290.908325
 21
37.356258
  0
LINE
  8
0
  6
CONTINUOUS
 10
298.783325
 20
46.575012
 11
298.783325
 21
37.293758
  0
LINE
  8
0
  6
CONTINUOUS
 10
300.158325
 20
41.653137
 11
300.158325
 21
37.293758
  0
LINE
  8
0
  6
CONTINUOUS
 10
280.291565
 20
46.450012
 11
276.436523
 21
46.450012
  0
LINE
  8
0
  6
CONTINUOUS
 10
276.436523
 20
46.450012
 11
275.533325
 21
45.330017
  0
LINE
  8
0
  6
CONTINUOUS
 10
275.641937
 20
48.043762
 11
274.189545
 21
46.184010
  0
LINE
  8
0
  6
CONTINUOUS
 10
275.533325
 20
38.416698
 11
276.450928
 21
37.450001
  0
LINE
  8
0
  6
CONTINUOUS
 10
274.189545
 20
37.600941
 11
275.732727
 21
36.043758
  0
LINE
  8
0
  6
CONTINUOUS
 10
274.189545
 20
46.184010
 11
274.189545
 21
37.600941
  0
LINE
  8
0
  6
CONTINUOUS
 10
275.533325
 20
45.330017
 11
275.533325
 21
38.416698
  0
LINE
  8
0
  6
CONTINUOUS
 10
281.033325
 20
45.732910
 11
280.276337
 21
46.450012
  0
LINE
  8
0
  6
CONTINUOUS
 10
281.021332
 20
48.043762
 11
282.189545
 21
46.747269
  0
LINE
  8
0
  6
CONTINUOUS
 10
281.033325
 20
45.543762
 11
282.189545
 21
45.543762
  0
LINE
  8
0
  6
CONTINUOUS
 10
275.641937
 20
48.043762
 11
281.021332
 21
48.043762
  0
LINE
  8
0
  6
CONTINUOUS
 10
278.939545
 20
43.012512
 11
282.189545
 21
43.012512
  0
LINE
  8
0
  6
CONTINUOUS
 10
281.033325
 20
41.700016
 11
278.939545
 21
41.700016
  0
LINE
  8
0
  6
CONTINUOUS
 10
278.533325
 20
37.450001
 11
276.450928
 21
37.450001
  0
LINE
  8
0
  6
CONTINUOUS
 10
281.033325
 20
40.450016
 11
281.033325
 21
41.450016
  0
ARC
  8
0
  6
CONTINUOUS
 10
278.533325
 20
39.950008
 40
2.500000
 50
-89.999786
 51
0.000109
  0
LINE
  8
0
  6
CONTINUOUS
 10
281.033325
 20
37.000320
 11
281.033325
 21
36.043758
  0
LINE
  8
0
  6
CONTINUOUS
 10
282.189545
 20
46.747269
 11
282.189545
 21
45.543762
  0
LINE
  8
0
  6
CONTINUOUS
 10
281.033325
 20
41.700016
 11
281.033325
 21
39.950016
  0
LINE
  8
0
  6
CONTINUOUS
 10
278.939545
 20
43.012512
 11
278.939545
 21
41.700016
  0
LINE
  8
0
  6
CONTINUOUS
 10
281.033325
 20
36.043758
 11
282.189545
 21
36.043758
  0
LINE
  8
0
  6
CONTINUOUS
 10
281.033325
 20
37.000320
 11
279.893127
 21
36.043758
  0
LINE
  8
0
  6
CONTINUOUS
 10
290.908325
 20
37.356258
 11
291.408325
 21
37.356258
  0
LINE
  8
0
  6
CONTINUOUS
 10
288.814545
 20
37.356258
 11
288.814545
 21
36.043758
  0
LINE
  8
0
  6
CONTINUOUS
 10
291.408325
 20
37.356258
 11
291.408325
 21
36.043758
  0
LINE
  8
0
  6
CONTINUOUS
 10
293.355133
 20
45.543762
 11
294.189545
 21
45.543762
  0
LINE
  8
0
  6
CONTINUOUS
 10
286.189545
 20
45.543762
 11
287.077545
 21
45.543762
  0
LINE
  8
0
  6
CONTINUOUS
 10
286.189545
 20
48.043762
 11
294.189545
 21
48.043762
  0
LINE
  8
0
  6
CONTINUOUS
 10
288.814545
 20
36.043758
 11
291.408325
 21
36.043758
  0
LINE
  8
0
  6
CONTINUOUS
 10
288.814545
 20
37.356258
 11
289.408325
 21
37.356258
  0
ARC
  8
0
  6
CONTINUOUS
 10
302.986328
 20
44.840637
 40
3.203126
 50
-73.981873
 51
90.003510
  0
ARC
  8
0
  6
CONTINUOUS
 10
302.986328
 20
44.840637
 40
1.954124
 50
-82.585274
 51
62.411850
  0
LINE
  8
0
  6
CONTINUOUS
 10
298.189545
 20
48.043762
 11
302.986328
 21
48.043762
  0
LINE
  8
0
  6
CONTINUOUS
 10
303.238525
 20
42.902851
 11
300.158325
 21
42.902851
  0
LINE
  8
0
  6
CONTINUOUS
 10
298.189545
 20
48.043762
 11
298.189545
 21
46.575012
  0
LINE
  8
0
  6
CONTINUOUS
 10
300.158325
 20
46.575012
 11
300.158325
 21
42.902851
  0
LINE
  8
0
  6
CONTINUOUS
 10
303.870331
 20
41.761875
 11
305.852753
 21
37.293758
  0
LINE
  8
0
  6
CONTINUOUS
 10
302.718750
 20
41.653137
 11
304.594940
 21
37.293758
  0
LINE
  8
0
  6
CONTINUOUS
 10
298.189545
 20
37.293758
 11
298.783325
 21
37.293758
  0
LINE
  8
0
  6
CONTINUOUS
 10
300.158325
 20
37.293758
 11
300.705139
 21
37.293758
  0
LINE
  8
0
  6
CONTINUOUS
 10
300.705139
 20
36.043758
 11
298.189545
 21
36.043758
  0
LINE
  8
0
  6
CONTINUOUS
 10
304.345734
 20
37.293758
 11
304.594940
 21
37.293758
  0
LINE
  8
0
  6
CONTINUOUS
 10
304.345734
 20
36.043758
 11
306.189545
 21
36.043758
  0
LINE
  8
0
  6
CONTINUOUS
 10
304.345734
 20
37.293758
 11
304.345734
 21
36.043758
  0
LINE
  8
0
  6
CONTINUOUS
 10
300.705139
 20
37.293758
 11
300.705139
 21
36.043758
  0
LINE
  8
0
  6
CONTINUOUS
 10
298.189545
 20
37.293758
 11
298.189545
 21
36.043758
  0
LINE
  8
0
  6
CONTINUOUS
 10
287.507324
 20
46.575012
 11
287.077545
 21
45.543762
  0
LINE
  8
0
  6
CONTINUOUS
 10
292.992737
 20
46.575012
 11
293.355133
 21
45.543762
  0
LINE
  8
0
  6
CONTINUOUS
 10
290.908325
 20
46.575012
 11
292.992737
 21
46.575012
  0
LINE
  8
0
  6
CONTINUOUS
 10
289.408325
 20
46.575012
 11
287.507324
 21
46.575012
  0
LINE
  8
0
  6
CONTINUOUS
 10
300.158325
 20
41.653137
 11
302.718750
 21
41.653137
  0
LINE
  8
0
  6
CONTINUOUS
 10
298.189545
 20
46.575012
 11
298.783325
 21
46.575012
  0
LINE
  8
0
  6
CONTINUOUS
 10
300.158325
 20
46.575012
 11
303.891327
 21
46.572590
  0
LINE
  8
0
  6
CONTINUOUS
 10
281.033325
 20
45.732910
 11
281.033325
 21
45.543762
  0
ARC
  8
0
  6
CONTINUOUS
 10
270.189545
 20
93.404457
 40
30.000000
 50
131.810394
 51
180.000000
  0
ARC
  8
0
  6
CONTINUOUS
 10
270.189545
 20
48.683071
 40
30.000000
 50
180.000000
 51
228.189697
  0
LINE
  8
0
  6
CONTINUOUS
 10
225.439545
 20
115.793739
 11
233.189453
 21
115.793739
  0
LINE
  8
0
  6
CONTINUOUS
 10
231.003906
 20
1.293740
 11
225.439545
 21
1.293740
  0
LINE
  8
0
  6
CONTINUOUS
 10
231.986328
 20
106.043739
 11
225.439545
 21
106.043739
  0
LINE
  8
0
  6
CONTINUOUS
 10
225.439545
 20
11.043740
 11
233.189453
 21
11.043740
  0
LINE
  8
0
  6
CONTINUOUS
 10
231.986328
 20
90.503777
 11
225.439545
 21
90.503777
  0
LINE
  8
0
  6
CONTINUOUS
 10
231.986328
 20
26.583780
 11
225.439545
 21
26.583780
  0
LINE
  8
0
  6
CENTER
 10
236.542572
 20
131.043762
 11
253.839539
 21
131.043762
  0
LINE
  8
0
  6
CENTER
 10
326.627197
 20
131.043762
 11
345.126862
 21
131.043762
  0
LINE
  8
0
  6
CENTER
 10
235.396484
 20
11.043740
 11
254.008133
 21
11.043740
  0
LINE
  8
0
  6
CENTER
 10
326.064606
 20
11.043740
 11
345.485626
 21
11.043740
  0
LINE
  8
0
  6
CENTER
 10
335.189606
 20
140.203156
 11
335.189606
 21
122.062500
  0
LINE
  8
0
  6
CENTER
 10
245.189453
 20
139.950043
 11
245.189453
 21
122.484360
  0
LINE
  8
0
  6
CENTER
 10
245.189453
 20
20.221861
 11
245.189453
 21
0.906250
  0
LINE
  8
0
  6
CENTER
 10
335.189606
 20
20.390640
 11
335.189606
 21
0.726875
  0
CIRCLE
  8
0
  6
CONTINUOUS
 10
335.189606
 20
131.043762
 40
5.500000
  0
CIRCLE
  8
0
  6
CONTINUOUS
 10
245.189453
 20
131.043762
 40
5.500000
  0
CIRCLE
  8
0
  6
CONTINUOUS
 10
245.189453
 20
11.043740
 40
5.500000
  0
CIRCLE
  8
0
  6
CONTINUOUS
 10
335.189606
 20
11.043740
 40
5.500000
  0
ARC
  8
0
  6
CONTINUOUS
 10
335.189606
 20
131.043762
 40
12.000000
 50
0.000000
 51
90.000000
  0
ARC
  8
0
  6
CONTINUOUS
 10
245.189453
 20
131.043762
 40
12.000000
 50
90.000000
 51
180.000000
  0
ARC
  8
0
  6
CONTINUOUS
 10
245.189453
 20
11.043740
 40
12.000000
 50
180.000000
 51
270.000000
  0
ARC
  8
0
  6
CONTINUOUS
 10
335.189606
 20
11.043740
 40
12.000000
 50
-90.000000
 51
0.000000
  0
LINE
  8
0
  6
CONTINUOUS
 10
335.189606
 20
143.043762
 11
245.189453
 21
143.043762
  0
LINE
  8
0
  6
CONTINUOUS
 10
245.189529
 20
-0.956260
 11
335.189606
 21
-0.956260
  0
LINE
  8
0
  6
CONTINUOUS
 10
347.189606
 20
131.043762
 11
347.189606
 21
11.043740
  0
LINE
  8
0
  6
CONTINUOUS
 10
233.189453
 20
131.043716
 11
233.189453
 21
11.043720
  0
LINE
  8
0
  6
CONTINUOUS
 10
318.189606
 20
4.043740
 11
262.189545
 21
4.043740
  0
LINE
  8
0
  6
CONTINUOUS
 10
262.189545
 20
138.043762
 11
318.189606
 21
138.043762
  0
LINE
  8
0
  6
CONTINUOUS
 10
342.189606
 20
114.043739
 11
342.189606
 21
28.043760
  0
LINE
  8
0
  6
CONTINUOUS
 10
238.189453
 20
114.043739
 11
238.189453
 21
28.043760
  0
ARC
  8
0
  6
CONTINUOUS
 10
335.189606
 20
131.043762
 40
11.000000
 50
180.000000
 51
270.000000
  0
ARC
  8
0
  6
CONTINUOUS
 10
245.189453
 20
131.043762
 40
11.000000
 50
-90.000000
 51
0.000000
  0
ARC
  8
0
  6
CONTINUOUS
 10
245.189453
 20
11.043740
 40
11.000000
 50
0.000000
 51
90.000000
  0
ARC
  8
0
  6
CONTINUOUS
 10
335.189606
 20
11.043740
 40
11.000000
 50
90.000000
 51
180.000000
  0
LINE
  8
0
  6
CONTINUOUS
 10
244.189453
 20
22.043739
 11
245.189453
 21
22.043739
  0
LINE
  8
0
  6
CONTINUOUS
 10
256.189545
 20
10.043740
 11
256.189545
 21
11.043740
  0
ARC
  8
0
  6
CONTINUOUS
 10
244.189453
 20
28.043760
 40
6.000000
 50
180.000000
 51
270.000000
  0
ARC
  8
0
  6
CONTINUOUS
 10
262.189545
 20
10.043740
 40
6.000000
 50
180.000000
 51
270.000000
  0
LINE
  8
0
  6
CONTINUOUS
 10
336.189606
 20
22.043739
 11
335.189606
 21
22.043739
  0
LINE
  8
0
  6
CONTINUOUS
 10
324.189606
 20
10.043740
 11
324.189606
 21
11.043720
  0
ARC
  8
0
  6
CONTINUOUS
 10
336.189606
 20
28.043760
 40
6.000000
 50
-90.000000
 51
0.000000
  0
ARC
  8
0
  6
CONTINUOUS
 10
318.189606
 20
10.043740
 40
6.000000
 50
-90.000000
 51
0.000000
  0
LINE
  8
0
  6
CONTINUOUS
 10
336.189606
 20
120.043739
 11
335.189606
 21
120.043739
  0
LINE
  8
0
  6
CONTINUOUS
 10
324.189606
 20
132.043762
 11
324.189606
 21
131.043716
  0
ARC
  8
0
  6
CONTINUOUS
 10
318.189606
 20
132.043762
 40
6.000000
 50
0.000000
 51
90.000000
  0
ARC
  8
0
  6
CONTINUOUS
 10
336.189606
 20
114.043739
 40
6.000000
 50
0.000000
 51
90.000000
  0
LINE
  8
0
  6
CONTINUOUS
 10
244.189453
 20
120.043739
 11
245.189453
 21
120.043739
  0
LINE
  8
0
  6
CONTINUOUS
 10
256.189545
 20
132.043762
 11
256.189545
 21
131.043762
  0
ARC
  8
0
  6
CONTINUOUS
 10
262.189545
 20
132.043823
 40
6.000000
 50
90.000000
 51
180.000000
  0
ARC
  8
0
  6
CONTINUOUS
 10
244.189484
 20
114.043800
 40
6.000000
 50
90.000000
 51
180.000000
  0
LINE
  8
0
  6
CONTINUOUS
 10
232.001678
 20
2.227240
 11
232.552109
 21
10.483660
  0
ARC
  8
0
  6
CONTINUOUS
 10
233.150818
 20
10.443760
 40
0.600000
 50
90.000000
 51
176.186096
  0
ARC
  8
0
  6
CONTINUOUS
 10
231.003906
 20
2.293740
 40
1.000000
 50
270.000000
 51
356.185791
  0
ARC
  8
0
  6
CONTINUOUS
 10
310.189606
 20
48.683086
 40
30.000000
 50
-48.189449
 51
0.000000
  0
LINE
  8
0
  6
CONTINUOUS
 10
297.689545
 20
86.043762
 11
297.689545
 21
92.043739
  0
LINE
  8
0
  6
CONTINUOUS
 10
303.689545
 20
86.043716
 11
303.689545
 21
92.043716
  0
LINE
  8
0
  6
CONTINUOUS
 10
303.689545
 20
86.043716
 11
297.689545
 21
86.043762
  0
LINE
  8
0
  6
CONTINUOUS
 10
303.689545
 20
92.043716
 11
297.689545
 21
92.043739
  0
ARC
  8
0
  6
CONTINUOUS
 10
290.189545
 20
89.043762
 40
11.000000
 50
-344.173401
 51
-15.826600
  0
LINE
  8
0
  6
CONTINUOUS
 10
225.439545
 20
116.043762
 11
225.439545
 21
1.043760
  0
LINE
  8
0
  6
CENTER
 10
513.183350
 20
-18.502460
 11
513.183350
 21
152.241714
  0
LINE
  8
0
  6
CENTER
 10
441.216766
 20
58.543758
 11
579.443176
 21
58.543758
  0
LINE
  8
0
  6
CENTER
 10
410.183563
 20
89.043762
 11
612.026184
 21
89.043762
  0
LINE
  8
0
  6
CONTINUOUS
 10
455.183563
 20
78.043762
 11
455.183563
 21
-0.956260
  0
LINE
  8
0
  6
CONTINUOUS
 10
467.183563
 20
119.293739
 11
467.183563
 21
141.043762
  0
LINE
  8
0
  6
CONTINUOUS
 10
465.265350
 20
143.043762
 11
455.183563
 21
143.043762
  0
LINE
  8
0
  6
CONTINUOUS
 10
465.265350
 20
-0.956220
 11
455.183563
 21
-0.956220
  0
LINE
  8
0
  6
CONTINUOUS
 10
545.183350
 20
9.526440
 11
545.183350
 21
132.561081
  0
LINE
  8
0
  6
CONTINUOUS
 10
544.201172
 20
133.560944
 11
469.148773
 21
134.870636
  0
LINE
  8
0
  6
CONTINUOUS
 10
544.201172
 20
8.526620
 11
469.148773
 21
7.216300
  0
LINE
  8
0
  6
CONTINUOUS
 10
471.740173
 20
111.043739
 11
544.116150
 21
111.043739
  0
LINE
  8
0
  6
CONTINUOUS
 10
469.092560
 20
31.043760
 11
543.793152
 21
31.043760
  0
LINE
  8
0
  6
CONTINUOUS
 10
467.680176
 20
0.896740
 11
468.789368
 21
5.036580
  0
LINE
  8
0
  6
CONTINUOUS
 10
467.680176
 20
141.190842
 11
468.789551
 21
137.050323
  0
ARC
  8
0
  6
CONTINUOUS
 10
471.687347
 20
137.826843
 40
3.000000
 50
195.000702
 51
269.000488
  0
ARC
  8
0
  6
CONTINUOUS
 10
465.183563
 20
141.043762
 40
2.000000
 50
0.000000
 51
90.000000
  0
ARC
  8
0
  6
CONTINUOUS
 10
469.183563
 20
136.870361
 40
2.000000
 50
180.000000
 51
269.000610
  0
ARC
  8
0
  6
CONTINUOUS
 10
471.687164
 20
4.260140
 40
3.000000
 50
91.000526
 51
165.000305
  0
ARC
  8
0
  6
CONTINUOUS
 10
469.183563
 20
5.216620
 40
2.000000
 50
91.000633
 51
180.000000
  0
ARC
  8
0
  6
CONTINUOUS
 10
465.183563
 20
1.043780
 40
2.000000
 50
-90.000000
 51
0.000000
  0
ARC
  8
0
  6
CONTINUOUS
 10
544.183350
 20
132.561081
 40
1.000000
 50
0.000000
 51
89.000359
  0
ARC
  8
0
  6
CONTINUOUS
 10
544.183350
 20
9.526440
 40
1.000000
 50
-88.999573
 51
0.000000
  0
LINE
  8
0
  6
CENTER
 10
449.689758
 20
131.043762
 11
472.326355
 21
131.043762
  0
LINE
  8
0
  6
CENTER
 10
449.689758
 20
11.043740
 11
472.326355
 21
11.043740
  0
LINE
  8
0
  6
DASHED
 10
455.183563
 20
136.543762
 11
467.183563
 21
136.543762
  0
LINE
  8
0
  6
DASHED
 10
455.183563
 20
125.543762
 11
467.183563
 21
125.543762
  0
LINE
  8
0
  6
DASHED
 10
455.183563
 20
16.543739
 11
467.183563
 21
16.543739
  0
LINE
  8
0
  6
DASHED
 10
455.183563
 20
5.543740
 11
467.183563
 21
5.543740
  0
LINE
  8
0
  6
CONTINUOUS
 10
561.183350
 20
63.850910
 11
561.183350
 21
114.236603
  0
LINE
  8
0
  6
CONTINUOUS
 10
551.183350
 20
30.848600
 11
551.183350
 21
91.113739
  0
LINE
  8
0
  6
CONTINUOUS
 10
558.953735
 20
117.136040
 11
547.413574
 21
120.201439
  0
LINE
  8
0
  6
CONTINUOUS
 10
558.953735
 20
60.951462
 11
553.413147
 21
59.479805
  0
LINE
  8
0
  6
CONTINUOUS
 10
548.956543
 20
27.949921
 11
547.410583
 21
27.537621
  0
ARC
  8
0
  6
CONTINUOUS
 10
558.183350
 20
114.236603
 40
3.000000
 50
0.000000
 51
75.124413
  0
ARC
  8
0
  6
CONTINUOUS
 10
558.183350
 20
63.850910
 40
3.000000
 50
-75.124207
 51
0.000000
  0
ARC
  8
0
  6
CONTINUOUS
 10
548.183350
 20
30.848600
 40
3.000000
 50
-75.068420
 51
0.000000
  0
ARC
  8
0
  6
CONTINUOUS
 10
548.183350
 20
123.100922
 40
3.000000
 50
180.000000
 51
255.124603
  0
ARC
  8
0
  6
CONTINUOUS
 10
554.183350
 20
56.580364
 40
3.000000
 50
104.876099
 51
180.000000
  0
ARC
  8
0
  6
CONTINUOUS
 10
548.183350
 20
24.638920
 40
3.000000
 50
104.931801
 51
180.000000
  0
LINE
  8
0
  6
CONTINUOUS
 10
560.683350
 20
16.043739
 11
560.683350
 21
25.095100
  0
LINE
  8
0
  6
CONTINUOUS
 10
555.683350
 20
11.043740
 11
546.632385
 21
11.043740
  0
ARC
  8
0
  6
CONTINUOUS
 10
513.183350
 20
58.543758
 40
57.250000
 50
-32.501888
 51
19.914110
  0
ARC
  8
0
  6
CONTINUOUS
 10
513.183350
 20
58.543758
 40
57.250000
 50
243.004898
 51
298.995514
  0
ARC
  8
0
  6
CONTINUOUS
 10
555.683350
 20
16.043739
 40
5.000000
 50
-90.000000
 51
0.000000
  0
ARC
  8
0
  6
CONTINUOUS
 10
565.683350
 20
25.095100
 40
5.000000
 50
147.498093
 51
180.000000
  0
ARC
  8
0
  6
CONTINUOUS
 10
546.632385
 20
6.043740
 40
5.000000
 50
90.000000
 51
106.842003
  0
LINE
  8
0
  6
CONTINUOUS
 10
465.183563
 20
63.850906
 11
465.183563
 21
114.236603
  0
LINE
  8
0
  6
CONTINUOUS
 10
467.413574
 20
60.951450
 11
470.214752
 21
60.207367
  0
LINE
  8
0
  6
CONTINUOUS
 10
467.413574
 20
117.136040
 11
469.237152
 21
117.620483
  0
ARC
  8
0
  6
CONTINUOUS
 10
468.183746
 20
114.236603
 40
3.000000
 50
104.876099
 51
180.000000
  0
ARC
  8
0
  6
CONTINUOUS
 10
468.183563
 20
63.850929
 40
3.000000
 50
180.000000
 51
255.124603
  0
LINE
  8
0
  6
CONTINUOUS
 10
472.683563
 20
108.793739
 11
474.183563
 21
102.543739
  0
LINE
  8
0
  6
CONTINUOUS
 10
474.183563
 20
102.543739
 11
473.183563
 21
97.043739
  0
LINE
  8
0
  6
CONTINUOUS
 10
473.183563
 20
97.043739
 11
475.433563
 21
91.293739
  0
LINE
  8
0
  6
CONTINUOUS
 10
475.433563
 20
91.293739
 11
473.683563
 21
85.543762
  0
LINE
  8
0
  6
CONTINUOUS
 10
473.683563
 20
85.543762
 11
471.683563
 21
80.543762
  0
LINE
  8
0
  6
CONTINUOUS
 10
471.683563
 20
80.543762
 11
472.183563
 21
71.793762
  0
LINE
  8
0
  6
CONTINUOUS
 10
472.183563
 20
71.793762
 11
470.933563
 21
67.293762
  0
LINE
  8
0
  6
CONTINUOUS
 10
470.933563
 20
67.293762
 11
470.933563
 21
62.543758
  0
LINE
  8
0
  6
CONTINUOUS
 10
470.933563
 20
62.543758
 11
468.933563
 21
56.043758
  0
LINE
  8
0
  6
CONTINUOUS
 10
468.933563
 20
56.043758
 11
469.183563
 21
52.043758
  0
LINE
  8
0
  6
CONTINUOUS
 10
469.183563
 20
52.043758
 11
468.183563
 21
47.668758
  0
LINE
  8
0
  6
CONTINUOUS
 10
468.183563
 20
47.668758
 11
464.683563
 21
45.043758
  0
LINE
  8
0
  6
CONTINUOUS
 10
464.683563
 20
45.043758
 11
462.058563
 21
41.793762
  0
LINE
  8
0
  6
CONTINUOUS
 10
462.058563
 20
41.793762
 11
459.183563
 21
40.043762
  0
LINE
  8
0
  6
CONTINUOUS
 10
459.183563
 20
40.043762
 11
456.808563
 21
37.918758
  0
LINE
  8
0
  6
CONTINUOUS
 10
456.808563
 20
37.918758
 11
455.183563
 21
37.547340
  0
LINE
  8
0
  6
CONTINUOUS
 10
465.058563
 20
120.918739
 11
461.558563
 21
121.793739
  0
LINE
  8
0
  6
CONTINUOUS
 10
461.558563
 20
121.793739
 11
458.183563
 21
122.418739
  0
LINE
  8
0
  6
CONTINUOUS
 10
458.183563
 20
122.418739
 11
455.183563
 21
123.418762
  0
LINE
  8
0
  6
CONTINUOUS
 10
455.183563
 20
143.043762
 11
455.183563
 21
100.043739
  0
LINE
  8
0
  6
CONTINUOUS
 10
467.183563
 20
1.043780
 11
467.183563
 21
46.918758
  0
LINE
  8
0
  6
CONTINUOUS
 10
465.058563
 20
120.918739
 11
467.183563
 21
119.293739
  0
LINE
  8
0
  6
CONTINUOUS
 10
467.183563
 20
119.293739
 11
470.558563
 21
116.543739
  0
LINE
  8
0
  6
CONTINUOUS
 10
470.558563
 20
116.543739
 11
471.058563
 21
112.668739
  0
LINE
  8
0
  6
CONTINUOUS
 10
471.058563
 20
112.668739
 11
472.683563
 21
108.793739
  0
LINE
  8
0
  6
CONTINUOUS
 10
462.183563
 20
78.043762
 11
462.183563
 21
41.948521
  0
LINE
  8
0
  6
CONTINUOUS
 10
462.183563
 20
121.637520
 11
462.183563
 21
100.043739
  0
LINE
  8
0
  6
CONTINUOUS
 10
603.183350
 20
78.043762
 11
603.183350
 21
100.043739
  0
LINE
  8
0
  6
CONTINUOUS
 10
563.183350
 20
100.043739
 11
603.183350
 21
100.043739
  0
LINE
  8
0
  6
CONTINUOUS
 10
563.183350
 20
78.043762
 11
603.183350
 21
78.043762
  0
LINE
  8
0
  6
CONTINUOUS
 10
563.183350
 20
101.543739
 11
563.183350
 21
76.543762
  0
LINE
  8
0
  6
CONTINUOUS
 10
561.183350
 20
101.543739
 11
563.183350
 21
101.543739
  0
LINE
  8
0
  6
CONTINUOUS
 10
561.183350
 20
76.543762
 11
563.183350
 21
76.543762
  0
ARC
  8
0
  6
CONTINUOUS
 10
571.183350
 20
89.043762
 40
3.000000
 50
90.000000
 51
270.000000
  0
LINE
  8
0
  6
CONTINUOUS
 10
571.183350
 20
92.043739
 11
603.183350
 21
92.043739
  0
LINE
  8
0
  6
CONTINUOUS
 10
571.183350
 20
86.043762
 11
603.183350
 21
86.043762
  0
LINE
  8
0
  6
CONTINUOUS
 10
423.183746
 20
78.043762
 11
423.183746
 21
100.043739
  0
LINE
  8
0
  6
CONTINUOUS
 10
463.183746
 20
100.043739
 11
423.183746
 21
100.043739
  0
LINE
  8
0
  6
CONTINUOUS
 10
463.183746
 20
78.043762
 11
423.183746
 21
78.043762
  0
LINE
  8
0
  6
CONTINUOUS
 10
463.183746
 20
101.543739
 11
463.183746
 21
76.543762
  0
LINE
  8
0
  6
CONTINUOUS
 10
465.183746
 20
101.543739
 11
463.183746
 21
101.543739
  0
LINE
  8
0
  6
CONTINUOUS
 10
465.183746
 20
76.543762
 11
463.183746
 21
76.543762
  0
ARC
  8
0
  6
CONTINUOUS
 10
455.183746
 20
89.043762
 40
3.000000
 50
-90.000000
 51
90.000000
  0
LINE
  8
0
  6
CONTINUOUS
 10
455.183746
 20
92.043739
 11
423.183746
 21
92.043739
  0
LINE
  8
0
  6
CONTINUOUS
 10
455.183746
 20
86.043762
 11
423.183746
 21
86.043762
  0
ARC
  8
0
  6
CONTINUOUS
 10
465.265350
 20
140.543762
 40
2.500000
 50
15.000760
 51
90.000000
  0
ARC
  8
0
  6
CONTINUOUS
 10
465.265350
 20
1.543780
 40
2.500000
 50
270.000000
 51
345.000214
  0
ARC
  8
0
  6
CONTINUOUS
 10
513.183350
 20
58.543758
 40
57.499821
 50
303.815704
 51
303.996307
  0
ARC
  8
0
  6
CONTINUOUS
 10
513.183350
 20
58.543758
 40
57.500000
 50
242.540298
 51
299.460602
  0
ARC
  8
0
  6
CONTINUOUS
 10
513.183350
 20
58.543758
 40
57.500000
 50
-33.996769
 51
19.823891
  0
ARC
  8
0
  6
CONTINUOUS
 10
513.183350
 20
58.543758
 40
57.500000
 50
303.815613
 51
303.997314
  0
LINE
  8
0
  6
CONTINUOUS
 10
236.651230
 20
330.758026
 11
236.448517
 21
323.018768
  0
ARC
  8
0
  6
CONTINUOUS
 10
238.150711
 20
330.718750
 40
1.500000
 50
90.000000
 51
178.499649
  0
ARC
  8
0
  6
CONTINUOUS
 10
234.189529
 20
253.218765
 40
1.000000
 50
90.000000
 51
180.000000
  0
ARC
  8
0
  6
CONTINUOUS
 10
233.670578
 20
255.150253
 40
1.000000
 50
285.039185
 51
358.499664
  0
LINE
  8
0
  6
CENTER
 10
290.189545
 20
396.420441
 11
290.189545
 21
199.994797
  0
LINE
  8
0
  6
CONTINUOUS
 10
264.996674
 20
348.218750
 11
315.382385
 21
348.218750
  0
LINE
  8
0
  6
CONTINUOUS
 10
320.345795
 20
338.218750
 11
323.632629
 21
338.218750
  0
ARC
  8
0
  6
CONTINUOUS
 10
315.382385
 20
345.218750
 40
3.000000
 50
-345.124329
 51
-270.000000
  0
LINE
  8
0
  6
CONTINUOUS
 10
326.532074
 20
335.988922
 11
326.941223
 21
334.448608
  0
ARC
  8
0
  6
CONTINUOUS
 10
323.632629
 20
335.218750
 40
3.000000
 50
-345.124329
 51
-270.000000
  0
ARC
  8
0
  6
CONTINUOUS
 10
329.840698
 20
335.218750
 40
3.000000
 50
-165.124313
 51
-90.000000
  0
LINE
  8
0
  6
CONTINUOUS
 10
320.345795
 20
338.218750
 11
318.281830
 21
345.988922
  0
LINE
  8
0
  6
CONTINUOUS
 10
253.846985
 20
335.988922
 11
253.437836
 21
334.448578
  0
ARC
  8
0
  6
CONTINUOUS
 10
256.746429
 20
335.218750
 40
3.000000
 50
90.000000
 51
165.124313
  0
ARC
  8
0
  6
CONTINUOUS
 10
250.538376
 20
335.218750
 40
3.000000
 50
-90.000000
 51
-14.875682
  0
LINE
  8
0
  6
CONTINUOUS
 10
260.033295
 20
338.218750
 11
256.746429
 21
338.218750
  0
ARC
  8
0
  6
CONTINUOUS
 10
264.996674
 20
345.218750
 40
3.000000
 50
90.000000
 51
165.124313
  0
LINE
  8
0
  6
CONTINUOUS
 10
260.033295
 20
338.218750
 11
262.097229
 21
345.988922
  0
LINE
  8
0
  6
CONTINUOUS
 10
279.189545
 20
210.218765
 11
303.689545
 21
210.218765
  0
LINE
  8
0
  6
CONTINUOUS
 10
279.189545
 20
242.218765
 11
279.189545
 21
210.218765
  0
LINE
  8
0
  6
CONTINUOUS
 10
303.689545
 20
242.218765
 11
303.689545
 21
210.218765
  0
LINE
  8
0
  6
CONTINUOUS
 10
300.772552
 20
210.218765
 11
300.772552
 21
242.218765
  0
LINE
  8
0
  6
CONTINUOUS
 10
279.189545
 20
390.218750
 11
303.689545
 21
390.218750
  0
LINE
  8
0
  6
CONTINUOUS
 10
301.189545
 20
350.218750
 11
301.189545
 21
355.218750
  0
LINE
  8
0
  6
CONTINUOUS
 10
279.189545
 20
350.218750
 11
279.189545
 21
390.218750
  0
LINE
  8
0
  6
CONTINUOUS
 10
302.689545
 20
348.218750
 11
302.689545
 21
350.218750
  0
LINE
  8
0
  6
CONTINUOUS
 10
277.689545
 20
348.218750
 11
277.689545
 21
350.218750
  0
LINE
  8
0
  6
CONTINUOUS
 10
277.689545
 20
350.218750
 11
302.689545
 21
350.218750
  0
LINE
  8
0
  6
CONTINUOUS
 10
303.689545
 20
355.218750
 11
303.689545
 21
390.218750
  0
LINE
  8
0
  6
CONTINUOUS
 10
300.772552
 20
390.218750
 11
300.772552
 21
355.218750
  0
LINE
  8
0
  6
CONTINUOUS
 10
300.772552
 20
355.218750
 11
303.689545
 21
355.218750
  0
ARC
  8
0
  6
CONTINUOUS
 10
175.005112
 20
301.812439
 40
65.000000
 50
-22.042076
 51
19.041388
  0
LINE
  8
0
  6
CONTINUOUS
 10
235.254166
 20
277.418762
 11
234.670227
 21
255.124069
  0
LINE
  8
0
  6
CONTINUOUS
 10
59.439529
 20
85.543739
 11
173.439529
 21
85.543739
  0
LINE
  8
0
  6
CONTINUOUS
 10
59.439529
 20
9.543780
 11
173.439529
 21
9.543780
  0
LINE
  8
0
  6
CONTINUOUS
 10
59.439529
 20
77.792740
 11
165.439529
 21
77.792740
  0
LINE
  8
0
  6
CONTINUOUS
 10
59.439529
 20
17.294781
 11
165.439529
 21
17.294781
  0
LINE
  8
0
  6
CONTINUOUS
 10
165.439529
 20
83.543739
 11
165.439529
 21
11.543760
  0
ARC
  8
0
  6
CONTINUOUS
 10
167.439529
 20
83.543762
 40
2.000000
 50
90.000000
 51
180.000000
  0
ARC
  8
0
  6
CONTINUOUS
 10
167.439529
 20
11.543780
 40
2.000000
 50
180.000000
 51
270.000000
  0
LINE
  8
0
  6
CONTINUOUS
 10
215.026779
 20
86.996017
 11
173.439529
 21
85.543762
  0
LINE
  8
0
  6
CONTINUOUS
 10
225.439529
 20
7.727880
 11
173.439529
 21
9.543760
  0
LINE
  8
0
  6
CONTINUOUS
 10
217.439529
 20
115.043762
 11
217.439529
 21
88.043762
  0
LINE
  8
0
  6
CONTINUOUS
 10
218.439529
 20
116.043762
 11
225.439545
 21
116.043762
  0
LINE
  8
0
  6
CONTINUOUS
 10
219.939529
 20
1.043760
 11
225.439529
 21
1.043760
  0
LINE
  8
0
  6
CONTINUOUS
 10
217.439529
 20
88.543762
 11
217.439529
 21
17.631104
  0
LINE
  8
0
  6
CONTINUOUS
 10
173.439529
 20
85.543762
 11
173.439529
 21
9.543760
  0
LINE
  8
0
  6
CONTINUOUS
 10
216.026398
 20
98.861565
 11
190.082977
 21
86.337151
  0
ARC
  8
0
  6
CONTINUOUS
 10
218.439529
 20
115.043762
 40
1.000000
 50
90.000000
 51
180.000000
  0
ARC
  8
0
  6
CONTINUOUS
 10
214.939529
 20
101.112946
 40
2.500000
 50
-64.230675
 51
0.000000
  0
ARC
  8
0
  6
CONTINUOUS
 10
214.939529
 20
89.494499
 40
2.500000
 50
-88.000000
 51
0.000000
  0
ARC
  8
0
  6
CONTINUOUS
 10
188.996109
 20
88.588531
 40
2.500000
 50
272.000000
 51
295.769318
  0
LINE
  8
0
  6
CONTINUOUS
 10
218.564606
 20
15.389760
 11
225.439529
 21
15.389760
  0
LINE
  8
0
  6
CONTINUOUS
 10
217.439529
 20
3.543760
 11
217.439529
 21
5.593024
  0
ARC
  8
0
  6
CONTINUOUS
 10
219.939529
 20
3.543760
 40
2.500000
 50
180.000000
 51
270.000000
  0
ARC
  8
0
  6
CONTINUOUS
 10
214.939529
 20
5.593024
 40
2.500000
 50
0.000000
 51
88.000000
  0
LINE
  8
0
  6
CENTER
 10
-10.697500
 20
47.543758
 11
258.189545
 21
47.543758
  0
LINE
  8
0
  6
CONTINUOUS
 10
219.939529
 20
242.718765
 11
225.439529
 21
242.718765
  0
LINE
  8
0
  6
CONTINUOUS
 10
219.939529
 20
357.718750
 11
225.439529
 21
357.718750
  0
LINE
  8
0
  6
CONTINUOUS
 10
217.439529
 20
245.218765
 11
217.439529
 21
355.218750
  0
LINE
  8
0
  6
CONTINUOUS
 10
173.439529
 20
338.218750
 11
173.439529
 21
262.218750
  0
LINE
  8
0
  6
CONTINUOUS
 10
215.026779
 20
339.671021
 11
173.439529
 21
338.218750
  0
LINE
  8
0
  6
CONTINUOUS
 10
215.026779
 20
260.766510
 11
173.439529
 21
262.218750
  0
ARC
  8
0
  6
CONTINUOUS
 10
219.939529
 20
355.218750
 40
2.500000
 50
90.000000
 51
180.000000
  0
ARC
  8
0
  6
CONTINUOUS
 10
219.939529
 20
245.218765
 40
2.500000
 50
180.000000
 51
270.000000
  0
LINE
  8
0
  6
CONTINUOUS
 10
173.439529
 20
338.218750
 11
173.439529
 21
262.218750
  0
LINE
  8
0
  6
CONTINUOUS
 10
59.439651
 20
338.218750
 11
173.439651
 21
338.218750
  0
LINE
  8
0
  6
CONTINUOUS
 10
59.439651
 20
262.218781
 11
173.439651
 21
262.218781
  0
LINE
  8
0
  6
CONTINUOUS
 10
165.439651
 20
336.218750
 11
165.439651
 21
323.218750
  0
ARC
  8
0
  6
CONTINUOUS
 10
167.439651
 20
336.218750
 40
2.000000
 50
90.000000
 51
180.000000
  0
ARC
  8
0
  6
CONTINUOUS
 10
167.439651
 20
264.218781
 40
2.000000
 50
180.000000
 51
270.000000
  0
LINE
  8
0
  6
CONTINUOUS
 10
59.439651
 20
323.218750
 11
165.439651
 21
323.218750
  0
LINE
  8
0
  6
CONTINUOUS
 10
59.439651
 20
277.218750
 11
165.439651
 21
277.218750
  0
LINE
  8
0
  6
CONTINUOUS
 10
165.439651
 20
277.218750
 11
165.439651
 21
264.218750
  0
ARC
  8
0
  6
CONTINUOUS
 10
204.609161
 20
300.218750
 40
15.000000
 50
130.747620
 51
229.252380
  0
LINE
  8
0
  6
CONTINUOUS
 10
216.571350
 20
330.324738
 11
194.818237
 21
311.582642
  0
LINE
  8
0
  6
CONTINUOUS
 10
216.571350
 20
270.112762
 11
194.818237
 21
288.854889
  0
ARC
  8
0
  6
CONTINUOUS
 10
214.939529
 20
332.218719
 40
2.500000
 50
-49.252373
 51
0.000000
  0
ARC
  8
0
  6
CONTINUOUS
 10
214.939529
 20
342.169495
 40
2.500000
 50
-88.000000
 51
0.000000
  0
ARC
  8
0
  6
CONTINUOUS
 10
214.939529
 20
268.218781
 40
2.500000
 50
0.000000
 51
49.252373
  0
ARC
  8
0
  6
CONTINUOUS
 10
214.939529
 20
258.268036
 40
2.500000
 50
0.000000
 51
88.000000
  0
LINE
  8
0
  6
CONTINUOUS
 10
59.439651
 20
338.218750
 11
59.439651
 21
307.084778
  0
LINE
  8
0
  6
CONTINUOUS
 10
59.439651
 20
338.218750
 11
49.939651
 21
338.218750
  0
LINE
  8
0
  6
CONTINUOUS
 10
59.439651
 20
262.218750
 11
49.939651
 21
262.218750
  0
LINE
  8
0
  6
CONTINUOUS
 10
59.439651
 20
277.218750
 11
49.939651
 21
277.218750
  0
LINE
  8
0
  6
CONTINUOUS
 10
59.439651
 20
323.218750
 11
49.939651
 21
323.218750
  0
LINE
  8
0
  6
CONTINUOUS
 10
52.939651
 20
294.218750
 11
52.939651
 21
306.218750
  0
LINE
  8
0
  6
CONTINUOUS
 10
59.939651
 20
294.218750
 11
59.939651
 21
306.218750
  0
LINE
  8
0
  6
CONTINUOUS
 10
53.939651
 20
307.218750
 11
58.939651
 21
307.218750
  0
LINE
  8
0
  6
CONTINUOUS
 10
58.939651
 20
293.218750
 11
53.939651
 21
293.218750
  0
ARC
  8
0
  6
CONTINUOUS
 10
58.939651
 20
306.218750
 40
1.000000
 50
0.000000
 51
90.000000
  0
ARC
  8
0
  6
CONTINUOUS
 10
53.939651
 20
306.218750
 40
1.000000
 50
90.000000
 51
180.000000
  0
ARC
  8
0
  6
CONTINUOUS
 10
53.939651
 20
294.218750
 40
1.000000
 50
180.000000
 51
270.000000
  0
ARC
  8
0
  6
CONTINUOUS
 10
58.939651
 20
294.218750
 40
1.000000
 50
-90.000000
 51
0.000000
  0
LINE
  8
0
  6
CONTINUOUS
 10
57.439651
 20
296.718750
 11
57.439651
 21
303.718750
  0
LINE
  8
0
  6
CONTINUOUS
 10
55.439651
 20
296.718750
 11
55.439651
 21
303.718750
  0
ARC
  8
0
  6
CONTINUOUS
 10
56.439651
 20
303.718750
 40
1.000000
 50
90.000000
 51
180.000000
  0
ARC
  8
0
  6
CONTINUOUS
 10
56.439651
 20
303.718750
 40
1.000000
 50
0.000000
 51
90.000000
  0
ARC
  8
0
  6
CONTINUOUS
 10
56.439651
 20
296.718750
 40
1.000000
 50
180.000000
 51
270.000000
  0
ARC
  8
0
  6
CONTINUOUS
 10
56.439651
 20
296.718750
 40
1.000000
 50
-90.000000
 51
0.000000
  0
LINE
  8
0
  6
CONTINUOUS
 10
59.439651
 20
293.352722
 11
59.439651
 21
262.218750
  0
LINE
  8
0
  6
CONTINUOUS
 10
49.939651
 20
260.218750
 11
49.939651
 21
340.218750
  0
LINE
  8
0
  6
CONTINUOUS
 10
5.939653
 20
340.218750
 11
49.939651
 21
340.218750
  0
LINE
  8
0
  6
CONTINUOUS
 10
5.939653
 20
260.218750
 11
49.939651
 21
260.218750
  0
LINE
  8
0
  6
CONTINUOUS
 10
0.939653
 20
265.218750
 11
0.939653
 21
335.218750
  0
ARC
  8
0
  6
CONTINUOUS
 10
5.939653
 20
335.218750
 40
5.000000
 50
90.000000
 51
180.000000
  0
ARC
  8
0
  6
CONTINUOUS
 10
5.939653
 20
265.218750
 40
5.000000
 50
180.000000
 51
270.000000
  0
LINE
  8
0
  6
CONTINUOUS
 10
3.439653
 20
324.218750
 11
49.939651
 21
324.218750
  0
LINE
  8
0
  6
CONTINUOUS
 10
3.439653
 20
274.218750
 11
49.939651
 21
274.218750
  0
LINE
  8
0
  6
CONTINUOUS
 10
49.939529
 20
85.543739
 11
59.439529
 21
85.543739
  0
LINE
  8
0
  6
CONTINUOUS
 10
49.939529
 20
9.543740
 11
59.439529
 21
9.543740
  0
LINE
  8
0
  6
CONTINUOUS
 10
49.939529
 20
7.543740
 11
49.939529
 21
87.543739
  0
LINE
  8
0
  6
CONTINUOUS
 10
59.939529
 20
87.043739
 11
59.939529
 21
85.543739
  0
LINE
  8
0
  6
CONTINUOUS
 10
52.939529
 20
87.043739
 11
52.939529
 21
85.543739
  0
LINE
  8
0
  6
CONTINUOUS
 10
52.939529
 20
87.043739
 11
59.939529
 21
87.043739
  0
LINE
  8
0
  6
CONTINUOUS
 10
57.339520
 20
100.043739
 11
57.339520
 21
87.043739
  0
LINE
  8
0
  6
CONTINUOUS
 10
55.539539
 20
100.668739
 11
55.539539
 21
87.043739
  0
LINE
  8
0
  6
CONTINUOUS
 10
53.739532
 20
98.606239
 11
53.739532
 21
87.043739
  0
LINE
  8
0
  6
CONTINUOUS
 10
59.139530
 20
99.418739
 11
59.139530
 21
87.043739
  0
LINE
  8
0
  6
CONTINUOUS
 10
55.539539
 20
100.668739
 11
57.339520
 21
100.043739
  0
LINE
  8
0
  6
CONTINUOUS
 10
53.739532
 20
98.606239
 11
55.539539
 21
99.231239
  0
LINE
  8
0
  6
CONTINUOUS
 10
59.139530
 20
99.418739
 11
57.340530
 21
98.971039
  0
LINE
  8
0
  6
CONTINUOUS
 10
49.939529
 20
77.792740
 11
59.439529
 21
77.792740
  0
LINE
  8
0
  6
CONTINUOUS
 10
49.939529
 20
17.294741
 11
59.439529
 21
17.294741
  0
LINE
  8
0
  6
CONTINUOUS
 10
5.939531
 20
87.543739
 11
49.939529
 21
87.543739
  0
LINE
  8
0
  6
CONTINUOUS
 10
5.939531
 20
7.543740
 11
49.939529
 21
7.543740
  0
LINE
  8
0
  6
CONTINUOUS
 10
0.939531
 20
12.543740
 11
0.939531
 21
82.543739
  0
ARC
  8
0
  6
CONTINUOUS
 10
5.939531
 20
82.543739
 40
5.000000
 50
90.000000
 51
180.000000
  0
ARC
  8
0
  6
CONTINUOUS
 10
5.939531
 20
12.543740
 40
5.000000
 50
180.000000
 51
270.000000
  0
LINE
  8
0
  6
CONTINUOUS
 10
3.439531
 20
73.543739
 11
49.939529
 21
73.543739
  0
LINE
  8
0
  6
CONTINUOUS
 10
3.439531
 20
23.543739
 11
49.939529
 21
23.543739
  0
LINE
  8
0
  6
CONTINUOUS
 10
59.439529
 20
9.543760
 11
59.439529
 21
85.543739
  0
LINE
  8
0
  6
DASHED
 10
329.689606
 20
254.218765
 11
329.689606
 21
242.218765
  0
LINE
  8
0
  6
CENTER
 10
335.189606
 20
258.743744
 11
335.189606
 21
238.115631
  0
LINE
  8
0
  6
DASHED
 10
340.689606
 20
254.218765
 11
340.689606
 21
242.218765
  0
LINE
  8
0
  6
DASHED
 10
250.689453
 20
254.218765
 11
250.689453
 21
242.218765
  0
LINE
  8
0
  6
CENTER
 10
245.189453
 20
258.743744
 11
245.189453
 21
238.115631
  0
LINE
  8
0
  6
DASHED
 10
239.689453
 20
254.218765
 11
239.689453
 21
242.218765
  0
LINE
  8
0
  6
CONTINUOUS
 10
173.439529
 20
38.143761
 11
217.439529
 21
38.143761
  0
LINE
  8
0
  6
CONTINUOUS
 10
173.439529
 20
27.943760
 11
217.439529
 21
27.943760
  0
TEXT
  8
0
 10
-10.000000
 20
-18.000000
 40
4.000000
 41
1.000000
  1
HFM-22T-300~450-T60
 50
0.000000
  0
ENDSEC
  0
EOF
