  0
SECTION
  2
HEADER
  9
$CLAYER
  8
1
  9
$LTSCALE
 40
3.0
  0
ENDSEC
  0
SECTION
  2
TABLES
  0
TABLE
  2
LTYPE
 70
     4
  0
LTYPE
  2
CONTINUOUS
  3
solid line
 70
    64
 72
    65
 73
     0
 40
0.0
  0
LTYPE
  2
DASHED
  3
__ __ __ __ __ __ __ __ __ __ __ __ __ __ __
 70
    64
 72
    65
 73
     2
 40
0.75
 49
0.5
 49
-0.25
  0
LTYPE
  2
CENTER
  3
____ _ ____ _ ____ _ ____ _ ____ _ ____ _ ____
 70
    64
 72
    65
 73
     4
 40
2.0
 49
1.25
 49
-0.25
 49
0.25
 49
-0.25
  0
LTYPE
  2
PHANTOM
  3
_____ _ _ _____ _ _ _____ _ _ _____ _ _ ____
 70
    64
 72
    65
 73
     6
 40
2.5
 49
1.25
 49
-0.25
 49
0.25
 49
-0.25
 49
0.25
 49
-0.25
  0
ENDTAB
  0
TABLE
  2
LAYER
 70
     1
  0
LAYER
  2
0
 70
    64
 62
     7
  6
CONTINUOUS
  0
ENDTAB
  0
TABLE
  2
STYLE
 70
     1
  0
STYLE
  2
STANDARD
 70
     0
 40
0.000000
 41
1.000000
 50
0.000000
 71
     0
 42
3.000000
  3
txt
  4
BIGFONT
  0
ENDTAB
  0
ENDSEC
  0
SECTION
  2
BLOCKS
  0
ENDSEC
  0
SECTION
  2
ENTITIES
  0
LINE
  8
0
  6
CENTER
 10
354.965118
 20
306.128754
 11
-7.142780
 21
306.128754
  0
LINE
  8
0
  6
CONTINUOUS
 10
230.979538
 20
248.878754
 11
228.479538
 21
248.878754
  0
LINE
  8
0
  6
CONTINUOUS
 10
232.996933
 20
363.378754
 11
228.479538
 21
363.378754
  0
LINE
  8
0
  6
CONTINUOUS
 10
235.729538
 20
248.878754
 11
228.479538
 21
248.878754
  0
LINE
  8
0
  6
CONTINUOUS
 10
237.183746
 20
274.128754
 11
228.479538
 21
274.128754
  0
LINE
  8
0
  6
CONTINUOUS
 10
235.746124
 20
258.628754
 11
228.479538
 21
258.628754
  0
LINE
  8
0
  6
CONTINUOUS
 10
233.839935
 20
353.628754
 11
228.479538
 21
353.628754
  0
LINE
  8
0
  6
CONTINUOUS
 10
228.479538
 20
338.128754
 11
345.268341
 21
338.128754
  0
LINE
  8
0
  6
CONTINUOUS
 10
233.996735
 20
362.396271
 11
234.334610
 21
343.041473
  0
ARC
  8
0
  6
CONTINUOUS
 10
232.996826
 20
362.378754
 40
1.000000
 50
1.000700
 51
90.000000
  0
ARC
  8
0
  6
CONTINUOUS
 10
239.333939
 20
343.128754
 40
5.000000
 50
-178.999802
 51
-90.000000
  0
LINE
  8
0
  6
CONTINUOUS
 10
228.479538
 20
363.628754
 11
228.479538
 21
248.628754
  0
LINE
  8
0
  6
CONTINUOUS
 10
350.229523
 20
248.128754
 11
236.229538
 21
248.128754
  0
LINE
  8
0
  6
CONTINUOUS
 10
273.229523
 20
338.128754
 11
273.229523
 21
260.931061
  0
LINE
  8
0
  6
CONTINUOUS
 10
313.229523
 20
338.128754
 11
313.229523
 21
260.931061
  0
LINE
  8
0
  6
CONTINUOUS
 10
346.767822
 20
336.668060
 11
348.751526
 21
260.931061
  0
ARC
  8
0
  6
CONTINUOUS
 10
345.268219
 20
336.628754
 40
1.500000
 50
1.500200
 51
90.000000
  0
LINE
  8
0
  6
CONTINUOUS
 10
237.229538
 20
260.128754
 11
348.941040
 21
260.128754
  0
LINE
  8
0
  6
CONTINUOUS
 10
236.229538
 20
259.128754
 11
236.229538
 21
248.128754
  0
LINE
  8
0
  6
CONTINUOUS
 10
350.229523
 20
248.128754
 11
349.940735
 21
259.154968
  0
ARC
  8
0
  6
CONTINUOUS
 10
348.941040
 20
259.128754
 40
1.000000
 50
1.500100
 51
90.000000
  0
ARC
  8
0
  6
CONTINUOUS
 10
349.750946
 20
260.957245
 40
1.000000
 50
-178.499603
 51
-113.891197
  0
ARC
  8
0
  6
CONTINUOUS
 10
235.729538
 20
248.378754
 40
0.500000
 50
0.000000
 51
90.000000
  0
LINE
  8
0
  6
CENTER
 10
152.468750
 20
64.453758
 11
260.423340
 21
64.453758
  0
LINE
  8
0
  6
CENTER
 10
293.229523
 20
160.035019
 11
293.229523
 21
-7.702500
  0
LINE
  8
0
  6
CENTER
 10
240.797501
 20
94.953758
 11
358.298401
 21
94.953758
  0
LINE
  8
0
  6
CONTINUOUS
 10
243.229446
 20
99.314461
 11
243.229446
 21
54.593071
  0
LINE
  8
0
  6
CONTINUOUS
 10
343.229614
 20
99.314423
 11
343.229614
 21
54.593071
  0
ARC
  8
0
  6
CONTINUOUS
 10
293.229523
 20
76.953773
 40
60.000000
 50
48.189621
 51
131.810394
  0
ARC
  8
0
  6
CONTINUOUS
 10
293.229523
 20
76.953773
 40
60.000000
 50
228.189697
 51
311.810303
  0
ARC
  8
0
  6
CONTINUOUS
 10
313.229614
 20
99.314423
 40
30.000000
 50
0.000000
 51
48.189629
  0
CIRCLE
  8
0
  6
CONTINUOUS
 10
293.229523
 20
94.953758
 40
27.500000
  0
ARC
  8
0
  6
CONTINUOUS
 10
293.229523
 20
94.953758
 40
31.750000
 50
7.552697
 51
172.447403
  0
ARC
  8
0
  6
CONTINUOUS
 10
276.479523
 20
53.453766
 40
20.600000
 50
172.447403
 51
270.000000
  0
ARC
  8
0
  6
CONTINUOUS
 10
309.979523
 20
53.453766
 40
20.600000
 50
-90.000000
 51
7.552700
  0
LINE
  8
0
  6
CONTINUOUS
 10
324.704224
 20
99.126923
 11
330.400818
 21
56.161388
  0
LINE
  8
0
  6
CONTINUOUS
 10
256.058136
 20
56.161350
 11
261.754944
 21
99.126862
  0
LINE
  8
0
  6
CONTINUOUS
 10
276.479523
 20
32.853760
 11
309.979523
 21
32.853760
  0
ARC
  8
0
  6
CONTINUOUS
 10
276.479523
 20
53.453766
 40
19.000000
 50
172.447601
 51
270.000000
  0
ARC
  8
0
  6
CONTINUOUS
 10
309.979523
 20
53.453766
 40
19.000000
 50
-90.000000
 51
7.552700
  0
ARC
  8
0
  6
CONTINUOUS
 10
293.229523
 20
94.953758
 40
30.150000
 50
-187.552597
 51
7.552697
  0
LINE
  8
0
  6
CONTINUOUS
 10
257.644318
 20
55.951057
 11
263.341125
 21
98.916580
  0
LINE
  8
0
  6
CONTINUOUS
 10
323.118011
 20
98.916603
 11
328.814819
 21
55.951092
  0
LINE
  8
0
  6
CONTINUOUS
 10
276.479523
 20
34.453758
 11
309.979523
 21
34.453758
  0
LINE
  8
0
  6
CONTINUOUS
 10
282.933136
 20
41.953758
 11
278.772736
 21
41.953758
  0
LINE
  8
0
  6
CONTINUOUS
 10
285.229523
 20
48.922516
 11
285.229523
 21
41.953758
  0
LINE
  8
0
  6
CONTINUOUS
 10
289.229523
 20
51.453766
 11
289.229523
 21
53.953766
  0
LINE
  8
0
  6
CONTINUOUS
 10
297.229523
 20
51.453766
 11
297.229523
 21
53.953766
  0
LINE
  8
0
  6
CONTINUOUS
 10
292.448334
 20
52.485016
 11
292.448334
 21
43.266258
  0
LINE
  8
0
  6
CONTINUOUS
 10
293.948334
 20
52.485016
 11
293.948334
 21
43.266258
  0
LINE
  8
0
  6
CONTINUOUS
 10
301.823334
 20
52.485016
 11
301.823334
 21
43.203758
  0
LINE
  8
0
  6
CONTINUOUS
 10
303.198334
 20
47.563137
 11
303.198334
 21
43.203758
  0
LINE
  8
0
  6
CONTINUOUS
 10
283.331543
 20
52.360016
 11
279.476532
 21
52.360016
  0
LINE
  8
0
  6
CONTINUOUS
 10
279.476532
 20
52.360016
 11
278.573334
 21
51.240017
  0
LINE
  8
0
  6
CONTINUOUS
 10
278.681946
 20
53.953766
 11
277.229523
 21
52.094009
  0
LINE
  8
0
  6
CONTINUOUS
 10
278.573334
 20
44.326698
 11
279.490936
 21
43.360001
  0
LINE
  8
0
  6
CONTINUOUS
 10
277.229523
 20
43.510941
 11
278.772736
 21
41.953758
  0
LINE
  8
0
  6
CONTINUOUS
 10
277.229523
 20
52.094009
 11
277.229523
 21
43.510941
  0
LINE
  8
0
  6
CONTINUOUS
 10
278.573334
 20
51.240017
 11
278.573334
 21
44.326698
  0
LINE
  8
0
  6
CONTINUOUS
 10
284.073334
 20
51.642914
 11
283.316345
 21
52.360016
  0
LINE
  8
0
  6
CONTINUOUS
 10
284.061340
 20
53.953766
 11
285.229523
 21
52.657269
  0
LINE
  8
0
  6
CONTINUOUS
 10
284.073334
 20
51.453766
 11
285.229523
 21
51.453766
  0
LINE
  8
0
  6
CONTINUOUS
 10
278.681946
 20
53.953766
 11
284.061340
 21
53.953766
  0
LINE
  8
0
  6
CONTINUOUS
 10
281.979523
 20
48.922516
 11
285.229523
 21
48.922516
  0
LINE
  8
0
  6
CONTINUOUS
 10
284.073334
 20
47.610016
 11
281.979523
 21
47.610016
  0
LINE
  8
0
  6
CONTINUOUS
 10
281.573334
 20
43.360001
 11
279.490936
 21
43.360001
  0
LINE
  8
0
  6
CONTINUOUS
 10
284.073334
 20
46.360016
 11
284.073334
 21
47.360016
  0
ARC
  8
0
  6
CONTINUOUS
 10
281.573334
 20
45.860008
 40
2.500000
 50
-89.999786
 51
0.000109
  0
LINE
  8
0
  6
CONTINUOUS
 10
284.073334
 20
42.910320
 11
284.073334
 21
41.953758
  0
LINE
  8
0
  6
CONTINUOUS
 10
285.229523
 20
52.657269
 11
285.229523
 21
51.453766
  0
LINE
  8
0
  6
CONTINUOUS
 10
284.073334
 20
47.610016
 11
284.073334
 21
45.860016
  0
LINE
  8
0
  6
CONTINUOUS
 10
281.979523
 20
48.922516
 11
281.979523
 21
47.610016
  0
LINE
  8
0
  6
CONTINUOUS
 10
284.073334
 20
41.953758
 11
285.229523
 21
41.953758
  0
LINE
  8
0
  6
CONTINUOUS
 10
284.073334
 20
42.910320
 11
282.933136
 21
41.953758
  0
LINE
  8
0
  6
CONTINUOUS
 10
293.948334
 20
43.266258
 11
294.448334
 21
43.266258
  0
LINE
  8
0
  6
CONTINUOUS
 10
291.854523
 20
43.266258
 11
291.854523
 21
41.953758
  0
LINE
  8
0
  6
CONTINUOUS
 10
294.448334
 20
43.266258
 11
294.448334
 21
41.953758
  0
LINE
  8
0
  6
CONTINUOUS
 10
296.395142
 20
51.453766
 11
297.229523
 21
51.453766
  0
LINE
  8
0
  6
CONTINUOUS
 10
289.229523
 20
51.453766
 11
290.117523
 21
51.453766
  0
LINE
  8
0
  6
CONTINUOUS
 10
289.229523
 20
53.953766
 11
297.229523
 21
53.953766
  0
LINE
  8
0
  6
CONTINUOUS
 10
291.854523
 20
41.953758
 11
294.448334
 21
41.953758
  0
LINE
  8
0
  6
CONTINUOUS
 10
291.854523
 20
43.266258
 11
292.448334
 21
43.266258
  0
ARC
  8
0
  6
CONTINUOUS
 10
306.026337
 20
50.750637
 40
3.203126
 50
-73.981873
 51
90.003510
  0
ARC
  8
0
  6
CONTINUOUS
 10
306.026337
 20
50.750637
 40
1.954124
 50
-82.585274
 51
62.411850
  0
LINE
  8
0
  6
CONTINUOUS
 10
301.229523
 20
53.953766
 11
306.026337
 21
53.953766
  0
LINE
  8
0
  6
CONTINUOUS
 10
306.278534
 20
48.812851
 11
303.198334
 21
48.812851
  0
LINE
  8
0
  6
CONTINUOUS
 10
301.229523
 20
53.953766
 11
301.229523
 21
52.485016
  0
LINE
  8
0
  6
CONTINUOUS
 10
303.198334
 20
52.485016
 11
303.198334
 21
48.812851
  0
LINE
  8
0
  6
CONTINUOUS
 10
306.910339
 20
47.671875
 11
308.892761
 21
43.203758
  0
LINE
  8
0
  6
CONTINUOUS
 10
305.758759
 20
47.563137
 11
307.634918
 21
43.203758
  0
LINE
  8
0
  6
CONTINUOUS
 10
301.229523
 20
43.203758
 11
301.823334
 21
43.203758
  0
LINE
  8
0
  6
CONTINUOUS
 10
303.198334
 20
43.203758
 11
303.745117
 21
43.203758
  0
LINE
  8
0
  6
CONTINUOUS
 10
303.745117
 20
41.953758
 11
301.229523
 21
41.953758
  0
LINE
  8
0
  6
CONTINUOUS
 10
307.385742
 20
43.203758
 11
307.634918
 21
43.203758
  0
LINE
  8
0
  6
CONTINUOUS
 10
307.385742
 20
41.953758
 11
309.229523
 21
41.953758
  0
LINE
  8
0
  6
CONTINUOUS
 10
307.385742
 20
43.203758
 11
307.385742
 21
41.953758
  0
LINE
  8
0
  6
CONTINUOUS
 10
303.745117
 20
43.203758
 11
303.745117
 21
41.953758
  0
LINE
  8
0
  6
CONTINUOUS
 10
301.229523
 20
43.203758
 11
301.229523
 21
41.953758
  0
LINE
  8
0
  6
CONTINUOUS
 10
290.547333
 20
52.485016
 11
290.117523
 21
51.453766
  0
LINE
  8
0
  6
CONTINUOUS
 10
296.032745
 20
52.485016
 11
296.395142
 21
51.453766
  0
LINE
  8
0
  6
CONTINUOUS
 10
293.948334
 20
52.485016
 11
296.032745
 21
52.485016
  0
LINE
  8
0
  6
CONTINUOUS
 10
292.448334
 20
52.485016
 11
290.547333
 21
52.485016
  0
LINE
  8
0
  6
CONTINUOUS
 10
303.198334
 20
47.563137
 11
305.758759
 21
47.563137
  0
LINE
  8
0
  6
CONTINUOUS
 10
301.229523
 20
52.485016
 11
301.823334
 21
52.485016
  0
LINE
  8
0
  6
CONTINUOUS
 10
303.198334
 20
52.485016
 11
306.931335
 21
52.482590
  0
LINE
  8
0
  6
CONTINUOUS
 10
284.073334
 20
51.642914
 11
284.073334
 21
51.453766
  0
ARC
  8
0
  6
CONTINUOUS
 10
273.229523
 20
99.314461
 40
30.000000
 50
131.810394
 51
180.000000
  0
ARC
  8
0
  6
CONTINUOUS
 10
273.229523
 20
54.593071
 40
30.000000
 50
180.000000
 51
228.189697
  0
LINE
  8
0
  6
CONTINUOUS
 10
228.479553
 20
121.703743
 11
236.229446
 21
121.703743
  0
LINE
  8
0
  6
CONTINUOUS
 10
234.043915
 20
7.203740
 11
228.479553
 21
7.203740
  0
LINE
  8
0
  6
CONTINUOUS
 10
235.026337
 20
111.953743
 11
228.479553
 21
111.953743
  0
LINE
  8
0
  6
CONTINUOUS
 10
228.479553
 20
16.953739
 11
236.229446
 21
16.953739
  0
LINE
  8
0
  6
CONTINUOUS
 10
235.026337
 20
96.413780
 11
228.479553
 21
96.413780
  0
LINE
  8
0
  6
CONTINUOUS
 10
235.026337
 20
32.493778
 11
228.479553
 21
32.493778
  0
LINE
  8
0
  6
CENTER
 10
239.582565
 20
136.953766
 11
256.879517
 21
136.953766
  0
LINE
  8
0
  6
CENTER
 10
329.667206
 20
136.953766
 11
354.248413
 21
136.953766
  0
LINE
  8
0
  6
CENTER
 10
238.436493
 20
16.953739
 11
257.048126
 21
16.953739
  0
LINE
  8
0
  6
CENTER
 10
329.104614
 20
16.953739
 11
353.910797
 21
16.953739
  0
LINE
  8
0
  6
CENTER
 10
338.229614
 20
263.322510
 11
338.229614
 21
244.488129
  0
LINE
  8
0
  6
CENTER
 10
248.229446
 20
145.860046
 11
248.229446
 21
128.394363
  0
LINE
  8
0
  6
CENTER
 10
248.229446
 20
26.131861
 11
248.229446
 21
-0.277480
  0
LINE
  8
0
  6
CENTER
 10
338.229614
 20
26.300640
 11
338.229614
 21
0.397500
  0
CIRCLE
  8
0
  6
CONTINUOUS
 10
338.229614
 20
136.953766
 40
5.500000
  0
CIRCLE
  8
0
  6
CONTINUOUS
 10
248.229446
 20
136.953766
 40
5.500000
  0
CIRCLE
  8
0
  6
CONTINUOUS
 10
248.229446
 20
16.953739
 40
5.500000
  0
CIRCLE
  8
0
  6
CONTINUOUS
 10
338.229614
 20
16.953739
 40
5.500000
  0
ARC
  8
0
  6
CONTINUOUS
 10
338.229614
 20
136.953766
 40
12.000000
 50
0.000000
 51
90.000000
  0
ARC
  8
0
  6
CONTINUOUS
 10
248.229446
 20
136.953766
 40
12.000000
 50
90.000000
 51
180.000000
  0
ARC
  8
0
  6
CONTINUOUS
 10
248.229446
 20
16.953739
 40
12.000000
 50
180.000000
 51
270.000000
  0
ARC
  8
0
  6
CONTINUOUS
 10
338.229614
 20
16.953739
 40
12.000000
 50
-90.000000
 51
0.000000
  0
LINE
  8
0
  6
CONTINUOUS
 10
338.229614
 20
148.953766
 11
248.229446
 21
148.953766
  0
LINE
  8
0
  6
CONTINUOUS
 10
248.229538
 20
4.953740
 11
338.229614
 21
4.953740
  0
LINE
  8
0
  6
CONTINUOUS
 10
350.229614
 20
136.953766
 11
350.229614
 21
16.953739
  0
LINE
  8
0
  6
CONTINUOUS
 10
236.229446
 20
136.953720
 11
236.229446
 21
16.953720
  0
LINE
  8
0
  6
CONTINUOUS
 10
321.229614
 20
9.953740
 11
265.229523
 21
9.953740
  0
LINE
  8
0
  6
CONTINUOUS
 10
265.229523
 20
143.953766
 11
321.229614
 21
143.953766
  0
LINE
  8
0
  6
CONTINUOUS
 10
345.229614
 20
119.953743
 11
345.229614
 21
33.953758
  0
LINE
  8
0
  6
CONTINUOUS
 10
241.229446
 20
119.953743
 11
241.229446
 21
33.953758
  0
ARC
  8
0
  6
CONTINUOUS
 10
338.229614
 20
136.953766
 40
11.000000
 50
180.000000
 51
270.000000
  0
ARC
  8
0
  6
CONTINUOUS
 10
248.229446
 20
136.953766
 40
11.000000
 50
-90.000000
 51
0.000000
  0
ARC
  8
0
  6
CONTINUOUS
 10
248.229446
 20
16.953739
 40
11.000000
 50
0.000000
 51
90.000000
  0
ARC
  8
0
  6
CONTINUOUS
 10
338.229614
 20
16.953739
 40
11.000000
 50
90.000000
 51
180.000000
  0
LINE
  8
0
  6
CONTINUOUS
 10
247.229446
 20
27.953739
 11
248.229446
 21
27.953739
  0
LINE
  8
0
  6
CONTINUOUS
 10
259.229523
 20
15.953740
 11
259.229523
 21
16.953739
  0
ARC
  8
0
  6
CONTINUOUS
 10
247.229446
 20
33.953758
 40
6.000000
 50
180.000000
 51
270.000000
  0
ARC
  8
0
  6
CONTINUOUS
 10
265.229523
 20
15.953740
 40
6.000000
 50
180.000000
 51
270.000000
  0
LINE
  8
0
  6
CONTINUOUS
 10
339.229614
 20
27.953739
 11
338.229614
 21
27.953739
  0
LINE
  8
0
  6
CONTINUOUS
 10
327.229614
 20
15.953740
 11
327.229614
 21
16.953720
  0
ARC
  8
0
  6
CONTINUOUS
 10
339.229614
 20
33.953758
 40
6.000000
 50
-90.000000
 51
0.000000
  0
ARC
  8
0
  6
CONTINUOUS
 10
321.229614
 20
15.953740
 40
6.000000
 50
-90.000000
 51
0.000000
  0
LINE
  8
0
  6
CONTINUOUS
 10
339.229614
 20
125.953743
 11
338.229614
 21
125.953743
  0
LINE
  8
0
  6
CONTINUOUS
 10
327.229614
 20
137.953766
 11
327.229614
 21
136.953720
  0
ARC
  8
0
  6
CONTINUOUS
 10
321.229614
 20
137.953766
 40
6.000000
 50
0.000000
 51
90.000000
  0
ARC
  8
0
  6
CONTINUOUS
 10
339.229614
 20
119.953743
 40
6.000000
 50
0.000000
 51
90.000000
  0
LINE
  8
0
  6
CONTINUOUS
 10
247.229446
 20
125.953743
 11
248.229446
 21
125.953743
  0
LINE
  8
0
  6
CONTINUOUS
 10
259.229523
 20
137.953766
 11
259.229523
 21
136.953766
  0
ARC
  8
0
  6
CONTINUOUS
 10
265.229523
 20
137.953827
 40
6.000000
 50
90.000000
 51
180.000000
  0
ARC
  8
0
  6
CONTINUOUS
 10
247.229492
 20
119.953796
 40
6.000000
 50
90.000000
 51
180.000000
  0
LINE
  8
0
  6
CONTINUOUS
 10
235.041672
 20
8.137240
 11
235.592117
 21
16.393660
  0
ARC
  8
0
  6
CONTINUOUS
 10
236.190811
 20
16.353760
 40
0.600000
 50
90.000000
 51
176.186096
  0
ARC
  8
0
  6
CONTINUOUS
 10
234.043915
 20
8.203740
 40
1.000000
 50
270.000000
 51
356.185791
  0
ARC
  8
0
  6
CONTINUOUS
 10
313.229614
 20
54.593086
 40
30.000000
 50
-48.189449
 51
0.000000
  0
LINE
  8
0
  6
CONTINUOUS
 10
300.729523
 20
91.953758
 11
300.729523
 21
97.953743
  0
LINE
  8
0
  6
CONTINUOUS
 10
306.729523
 20
91.953720
 11
306.729523
 21
97.953720
  0
LINE
  8
0
  6
CONTINUOUS
 10
306.729523
 20
91.953720
 11
300.729523
 21
91.953758
  0
LINE
  8
0
  6
CONTINUOUS
 10
306.729523
 20
97.953720
 11
300.729523
 21
97.953743
  0
ARC
  8
0
  6
CONTINUOUS
 10
293.229523
 20
94.953758
 40
11.000000
 50
-344.173401
 51
-15.826600
  0
LINE
  8
0
  6
CONTINUOUS
 10
228.479553
 20
121.953758
 11
228.479553
 21
6.953760
  0
LINE
  8
0
  6
CENTER
 10
516.223389
 20
-12.592460
 11
516.223389
 21
158.151718
  0
LINE
  8
0
  6
CENTER
 10
444.256775
 20
64.453758
 11
582.483154
 21
64.453758
  0
LINE
  8
0
  6
CENTER
 10
413.223572
 20
94.953758
 11
615.066162
 21
94.953758
  0
LINE
  8
0
  6
CONTINUOUS
 10
458.223572
 20
83.953758
 11
458.223572
 21
4.953740
  0
LINE
  8
0
  6
CONTINUOUS
 10
470.223572
 20
125.203743
 11
470.223572
 21
146.953766
  0
LINE
  8
0
  6
CONTINUOUS
 10
468.305359
 20
148.953766
 11
458.223572
 21
148.953766
  0
LINE
  8
0
  6
CONTINUOUS
 10
468.305359
 20
4.953780
 11
458.223572
 21
4.953780
  0
LINE
  8
0
  6
CONTINUOUS
 10
548.223389
 20
15.436440
 11
548.223389
 21
138.471085
  0
LINE
  8
0
  6
CONTINUOUS
 10
547.241150
 20
139.470947
 11
472.188751
 21
140.780640
  0
LINE
  8
0
  6
CONTINUOUS
 10
547.241150
 20
14.436620
 11
472.188751
 21
13.126300
  0
LINE
  8
0
  6
CONTINUOUS
 10
474.780151
 20
116.953743
 11
547.156189
 21
116.953743
  0
LINE
  8
0
  6
CONTINUOUS
 10
472.132568
 20
36.953758
 11
546.833191
 21
36.953758
  0
LINE
  8
0
  6
CONTINUOUS
 10
470.720154
 20
6.806740
 11
471.829376
 21
10.946580
  0
LINE
  8
0
  6
CONTINUOUS
 10
470.720154
 20
147.100845
 11
471.829559
 21
142.960327
  0
ARC
  8
0
  6
CONTINUOUS
 10
474.727356
 20
143.736847
 40
3.000000
 50
195.000702
 51
269.000488
  0
ARC
  8
0
  6
CONTINUOUS
 10
468.223572
 20
146.953766
 40
2.000000
 50
0.000000
 51
90.000000
  0
ARC
  8
0
  6
CONTINUOUS
 10
472.223572
 20
142.780365
 40
2.000000
 50
180.000000
 51
269.000610
  0
ARC
  8
0
  6
CONTINUOUS
 10
474.727173
 20
10.170140
 40
3.000000
 50
91.000526
 51
165.000305
  0
ARC
  8
0
  6
CONTINUOUS
 10
472.223572
 20
11.126620
 40
2.000000
 50
91.000633
 51
180.000000
  0
ARC
  8
0
  6
CONTINUOUS
 10
468.223572
 20
6.953780
 40
2.000000
 50
-90.000000
 51
0.000000
  0
ARC
  8
0
  6
CONTINUOUS
 10
547.223389
 20
138.471085
 40
1.000000
 50
0.000000
 51
89.000359
  0
ARC
  8
0
  6
CONTINUOUS
 10
547.223389
 20
15.436440
 40
1.000000
 50
-88.999573
 51
0.000000
  0
LINE
  8
0
  6
CENTER
 10
452.729767
 20
136.953766
 11
475.366364
 21
136.953766
  0
LINE
  8
0
  6
CENTER
 10
452.729767
 20
16.953739
 11
475.366364
 21
16.953739
  0
LINE
  8
0
  6
DASHED
 10
458.223572
 20
142.453766
 11
470.223572
 21
142.453766
  0
LINE
  8
0
  6
DASHED
 10
458.223572
 20
131.453766
 11
470.223572
 21
131.453766
  0
LINE
  8
0
  6
DASHED
 10
458.223572
 20
22.453739
 11
470.223572
 21
22.453739
  0
LINE
  8
0
  6
DASHED
 10
458.223572
 20
11.453740
 11
470.223572
 21
11.453740
  0
LINE
  8
0
  6
CONTINUOUS
 10
564.223389
 20
69.760910
 11
564.223389
 21
120.146599
  0
LINE
  8
0
  6
CONTINUOUS
 10
554.223389
 20
36.758598
 11
554.223389
 21
97.023743
  0
LINE
  8
0
  6
CONTINUOUS
 10
561.993774
 20
123.046043
 11
550.453552
 21
126.111443
  0
LINE
  8
0
  6
CONTINUOUS
 10
561.993774
 20
66.861465
 11
556.453186
 21
65.389801
  0
LINE
  8
0
  6
CONTINUOUS
 10
551.996582
 20
33.859921
 11
550.450562
 21
33.447620
  0
ARC
  8
0
  6
CONTINUOUS
 10
561.223389
 20
120.146599
 40
3.000000
 50
0.000000
 51
75.124413
  0
ARC
  8
0
  6
CONTINUOUS
 10
561.223389
 20
69.760910
 40
3.000000
 50
-75.124207
 51
0.000000
  0
ARC
  8
0
  6
CONTINUOUS
 10
551.223389
 20
36.758598
 40
3.000000
 50
-75.068420
 51
0.000000
  0
ARC
  8
0
  6
CONTINUOUS
 10
551.223389
 20
129.010925
 40
3.000000
 50
180.000000
 51
255.124603
  0
ARC
  8
0
  6
CONTINUOUS
 10
557.223389
 20
62.490368
 40
3.000000
 50
104.876099
 51
180.000000
  0
ARC
  8
0
  6
CONTINUOUS
 10
551.223389
 20
30.548920
 40
3.000000
 50
104.931801
 51
180.000000
  0
LINE
  8
0
  6
CONTINUOUS
 10
563.723389
 20
21.953739
 11
563.723389
 21
31.005100
  0
LINE
  8
0
  6
CONTINUOUS
 10
558.723389
 20
16.953739
 11
549.672363
 21
16.953739
  0
ARC
  8
0
  6
CONTINUOUS
 10
516.223389
 20
64.453758
 40
57.250000
 50
-32.501888
 51
19.914110
  0
ARC
  8
0
  6
CONTINUOUS
 10
516.223389
 20
64.453758
 40
57.250000
 50
243.004898
 51
298.995514
  0
ARC
  8
0
  6
CONTINUOUS
 10
558.723389
 20
21.953739
 40
5.000000
 50
-90.000000
 51
0.000000
  0
ARC
  8
0
  6
CONTINUOUS
 10
568.723389
 20
31.005100
 40
5.000000
 50
147.498093
 51
180.000000
  0
ARC
  8
0
  6
CONTINUOUS
 10
549.672363
 20
11.953740
 40
5.000000
 50
90.000000
 51
106.842003
  0
LINE
  8
0
  6
CONTINUOUS
 10
468.223572
 20
69.760910
 11
468.223572
 21
120.146599
  0
LINE
  8
0
  6
CONTINUOUS
 10
470.453552
 20
66.861450
 11
473.254761
 21
66.117363
  0
LINE
  8
0
  6
CONTINUOUS
 10
470.453552
 20
123.046043
 11
472.277161
 21
123.530479
  0
ARC
  8
0
  6
CONTINUOUS
 10
471.223755
 20
120.146599
 40
3.000000
 50
104.876099
 51
180.000000
  0
ARC
  8
0
  6
CONTINUOUS
 10
471.223572
 20
69.760925
 40
3.000000
 50
180.000000
 51
255.124603
  0
LINE
  8
0
  6
CONTINUOUS
 10
475.723572
 20
114.703743
 11
477.223572
 21
108.453743
  0
LINE
  8
0
  6
CONTINUOUS
 10
477.223572
 20
108.453743
 11
476.223572
 21
102.953743
  0
LINE
  8
0
  6
CONTINUOUS
 10
476.223572
 20
102.953743
 11
478.473572
 21
97.203743
  0
LINE
  8
0
  6
CONTINUOUS
 10
478.473572
 20
97.203743
 11
476.723572
 21
91.453758
  0
LINE
  8
0
  6
CONTINUOUS
 10
476.723572
 20
91.453758
 11
474.723572
 21
86.453758
  0
LINE
  8
0
  6
CONTINUOUS
 10
474.723572
 20
86.453758
 11
475.223572
 21
77.703758
  0
LINE
  8
0
  6
CONTINUOUS
 10
475.223572
 20
77.703758
 11
473.973572
 21
73.203758
  0
LINE
  8
0
  6
CONTINUOUS
 10
473.973572
 20
73.203758
 11
473.973572
 21
68.453758
  0
LINE
  8
0
  6
CONTINUOUS
 10
473.973572
 20
68.453758
 11
471.973572
 21
61.953758
  0
LINE
  8
0
  6
CONTINUOUS
 10
471.973572
 20
61.953758
 11
472.223572
 21
57.953758
  0
LINE
  8
0
  6
CONTINUOUS
 10
472.223572
 20
57.953758
 11
471.223572
 21
53.578758
  0
LINE
  8
0
  6
CONTINUOUS
 10
471.223572
 20
53.578758
 11
467.723572
 21
50.953758
  0
LINE
  8
0
  6
CONTINUOUS
 10
467.723572
 20
50.953758
 11
465.098572
 21
47.703762
  0
LINE
  8
0
  6
CONTINUOUS
 10
465.098572
 20
47.703762
 11
462.223572
 21
45.953762
  0
LINE
  8
0
  6
CONTINUOUS
 10
462.223572
 20
45.953762
 11
459.848572
 21
43.828758
  0
LINE
  8
0
  6
CONTINUOUS
 10
459.848572
 20
43.828758
 11
458.223572
 21
43.457340
  0
LINE
  8
0
  6
CONTINUOUS
 10
468.098572
 20
126.828743
 11
464.598572
 21
127.703743
  0
LINE
  8
0
  6
CONTINUOUS
 10
464.598572
 20
127.703743
 11
461.223572
 21
128.328735
  0
LINE
  8
0
  6
CONTINUOUS
 10
461.223572
 20
128.328735
 11
458.223572
 21
129.328766
  0
LINE
  8
0
  6
CONTINUOUS
 10
458.223572
 20
148.953766
 11
458.223572
 21
105.953743
  0
LINE
  8
0
  6
CONTINUOUS
 10
470.223572
 20
6.953780
 11
470.223572
 21
52.828758
  0
LINE
  8
0
  6
CONTINUOUS
 10
468.098572
 20
126.828743
 11
470.223572
 21
125.203743
  0
LINE
  8
0
  6
CONTINUOUS
 10
470.223572
 20
125.203743
 11
473.598572
 21
122.453743
  0
LINE
  8
0
  6
CONTINUOUS
 10
473.598572
 20
122.453743
 11
474.098572
 21
118.578743
  0
LINE
  8
0
  6
CONTINUOUS
 10
474.098572
 20
118.578743
 11
475.723572
 21
114.703743
  0
LINE
  8
0
  6
CONTINUOUS
 10
465.223572
 20
83.953758
 11
465.223572
 21
47.858521
  0
LINE
  8
0
  6
CONTINUOUS
 10
465.223572
 20
127.547523
 11
465.223572
 21
105.953743
  0
LINE
  8
0
  6
CONTINUOUS
 10
606.223389
 20
83.953758
 11
606.223389
 21
105.953743
  0
LINE
  8
0
  6
CONTINUOUS
 10
566.223389
 20
105.953743
 11
606.223389
 21
105.953743
  0
LINE
  8
0
  6
CONTINUOUS
 10
566.223389
 20
83.953758
 11
606.223389
 21
83.953758
  0
LINE
  8
0
  6
CONTINUOUS
 10
566.223389
 20
107.453743
 11
566.223389
 21
82.453758
  0
LINE
  8
0
  6
CONTINUOUS
 10
564.223389
 20
107.453743
 11
566.223389
 21
107.453743
  0
LINE
  8
0
  6
CONTINUOUS
 10
564.223389
 20
82.453758
 11
566.223389
 21
82.453758
  0
ARC
  8
0
  6
CONTINUOUS
 10
574.223389
 20
94.953758
 40
3.000000
 50
90.000000
 51
270.000000
  0
LINE
  8
0
  6
CONTINUOUS
 10
574.223389
 20
97.953743
 11
606.223389
 21
97.953743
  0
LINE
  8
0
  6
CONTINUOUS
 10
574.223389
 20
91.953758
 11
606.223389
 21
91.953758
  0
LINE
  8
0
  6
CONTINUOUS
 10
426.223755
 20
83.953758
 11
426.223755
 21
105.953743
  0
LINE
  8
0
  6
CONTINUOUS
 10
466.223755
 20
105.953743
 11
426.223755
 21
105.953743
  0
LINE
  8
0
  6
CONTINUOUS
 10
466.223755
 20
83.953758
 11
426.223755
 21
83.953758
  0
LINE
  8
0
  6
CONTINUOUS
 10
466.223755
 20
107.453743
 11
466.223755
 21
82.453758
  0
LINE
  8
0
  6
CONTINUOUS
 10
468.223755
 20
107.453743
 11
466.223755
 21
107.453743
  0
LINE
  8
0
  6
CONTINUOUS
 10
468.223755
 20
82.453758
 11
466.223755
 21
82.453758
  0
ARC
  8
0
  6
CONTINUOUS
 10
458.223755
 20
94.953758
 40
3.000000
 50
-90.000000
 51
90.000000
  0
LINE
  8
0
  6
CONTINUOUS
 10
458.223755
 20
97.953743
 11
426.223755
 21
97.953743
  0
LINE
  8
0
  6
CONTINUOUS
 10
458.223755
 20
91.953758
 11
426.223755
 21
91.953758
  0
ARC
  8
0
  6
CONTINUOUS
 10
468.305359
 20
146.453766
 40
2.500000
 50
15.000760
 51
90.000000
  0
ARC
  8
0
  6
CONTINUOUS
 10
468.305359
 20
7.453780
 40
2.500000
 50
270.000000
 51
345.000214
  0
LINE
  8
0
  6
CONTINUOUS
 10
458.223572
 20
76.453728
 11
457.223572
 21
76.453728
  0
LINE
  8
0
  6
CONTINUOUS
 10
458.223572
 20
52.453796
 11
457.223572
 21
52.453796
  0
ARC
  8
0
  6
CONTINUOUS
 10
516.223389
 20
64.453758
 40
57.499821
 50
303.815704
 51
303.996307
  0
ARC
  8
0
  6
CONTINUOUS
 10
516.223389
 20
64.453758
 40
57.500000
 50
242.540298
 51
299.460602
  0
LINE
  8
0
  6
CONTINUOUS
 10
457.223358
 20
76.453758
 11
457.223358
 21
52.453758
  0
ARC
  8
0
  6
CONTINUOUS
 10
516.223389
 20
64.453758
 40
57.500000
 50
-33.996769
 51
19.823891
  0
ARC
  8
0
  6
CONTINUOUS
 10
516.223389
 20
64.453758
 40
57.500000
 50
303.815613
 51
303.997314
  0
LINE
  8
0
  6
CONTINUOUS
 10
239.691223
 20
336.668030
 11
239.488525
 21
328.928772
  0
ARC
  8
0
  6
CONTINUOUS
 10
241.190720
 20
336.628754
 40
1.500000
 50
90.000000
 51
178.499649
  0
ARC
  8
0
  6
CONTINUOUS
 10
237.229538
 20
259.128754
 40
1.000000
 50
90.000000
 51
180.000000
  0
ARC
  8
0
  6
CONTINUOUS
 10
236.710571
 20
261.060272
 40
1.000000
 50
285.039185
 51
358.499664
  0
LINE
  8
0
  6
CENTER
 10
293.229523
 20
402.330444
 11
293.229523
 21
205.904800
  0
LINE
  8
0
  6
CONTINUOUS
 10
268.036682
 20
354.128754
 11
318.422363
 21
354.128754
  0
LINE
  8
0
  6
CONTINUOUS
 10
323.385773
 20
344.128754
 11
326.672638
 21
344.128754
  0
ARC
  8
0
  6
CONTINUOUS
 10
318.422363
 20
351.128754
 40
3.000000
 50
-345.124329
 51
-270.000000
  0
LINE
  8
0
  6
CONTINUOUS
 10
329.572083
 20
341.898926
 11
329.981232
 21
340.358582
  0
ARC
  8
0
  6
CONTINUOUS
 10
326.672638
 20
341.128754
 40
3.000000
 50
-345.124329
 51
-270.000000
  0
ARC
  8
0
  6
CONTINUOUS
 10
332.880676
 20
341.128754
 40
3.000000
 50
-165.124313
 51
-90.000000
  0
LINE
  8
0
  6
CONTINUOUS
 10
323.385773
 20
344.128754
 11
321.321838
 21
351.898926
  0
LINE
  8
0
  6
CONTINUOUS
 10
256.886993
 20
341.898926
 11
256.477844
 21
340.358582
  0
ARC
  8
0
  6
CONTINUOUS
 10
259.786438
 20
341.128754
 40
3.000000
 50
90.000000
 51
165.124313
  0
ARC
  8
0
  6
CONTINUOUS
 10
253.578369
 20
341.128754
 40
3.000000
 50
-90.000000
 51
-14.875682
  0
LINE
  8
0
  6
CONTINUOUS
 10
263.073273
 20
344.128754
 11
259.786438
 21
344.128754
  0
ARC
  8
0
  6
CONTINUOUS
 10
268.036682
 20
351.128754
 40
3.000000
 50
90.000000
 51
165.124313
  0
LINE
  8
0
  6
CONTINUOUS
 10
263.073273
 20
344.128754
 11
265.137238
 21
351.898926
  0
LINE
  8
0
  6
CONTINUOUS
 10
282.229523
 20
216.128754
 11
306.729523
 21
216.128754
  0
LINE
  8
0
  6
CONTINUOUS
 10
282.229523
 20
248.128754
 11
282.229523
 21
216.128754
  0
LINE
  8
0
  6
CONTINUOUS
 10
306.729523
 20
248.128754
 11
306.729523
 21
216.128754
  0
LINE
  8
0
  6
CONTINUOUS
 10
303.812531
 20
216.128754
 11
303.812531
 21
248.128754
  0
LINE
  8
0
  6
CONTINUOUS
 10
282.229523
 20
396.128754
 11
306.729523
 21
396.128754
  0
LINE
  8
0
  6
CONTINUOUS
 10
304.229523
 20
356.128754
 11
304.229523
 21
361.128754
  0
LINE
  8
0
  6
CONTINUOUS
 10
282.229523
 20
356.128754
 11
282.229523
 21
396.128754
  0
LINE
  8
0
  6
CONTINUOUS
 10
305.729523
 20
354.128754
 11
305.729523
 21
356.128754
  0
LINE
  8
0
  6
CONTINUOUS
 10
280.729523
 20
354.128754
 11
280.729523
 21
356.128754
  0
LINE
  8
0
  6
CONTINUOUS
 10
280.729523
 20
356.128754
 11
305.729523
 21
356.128754
  0
LINE
  8
0
  6
CONTINUOUS
 10
306.729523
 20
361.128754
 11
306.729523
 21
396.128754
  0
LINE
  8
0
  6
CONTINUOUS
 10
303.812531
 20
396.128754
 11
303.812531
 21
361.128754
  0
LINE
  8
0
  6
CONTINUOUS
 10
303.812531
 20
361.128754
 11
306.729523
 21
361.128754
  0
ARC
  8
0
  6
CONTINUOUS
 10
178.045120
 20
307.722443
 40
65.000000
 50
-22.042076
 51
19.041388
  0
LINE
  8
0
  6
CONTINUOUS
 10
238.294174
 20
283.328766
 11
237.710236
 21
261.034088
  0
LINE
  8
0
  6
CONTINUOUS
 10
62.479530
 20
91.453743
 11
176.479538
 21
91.453743
  0
LINE
  8
0
  6
CONTINUOUS
 10
62.479530
 20
15.453780
 11
176.479538
 21
15.453780
  0
LINE
  8
0
  6
CONTINUOUS
 10
62.479530
 20
83.702744
 11
168.479538
 21
83.702744
  0
LINE
  8
0
  6
CONTINUOUS
 10
62.479530
 20
23.204781
 11
168.479538
 21
23.204781
  0
LINE
  8
0
  6
CONTINUOUS
 10
168.479538
 20
89.453743
 11
168.479538
 21
17.453760
  0
ARC
  8
0
  6
CONTINUOUS
 10
170.479538
 20
89.453758
 40
2.000000
 50
90.000000
 51
180.000000
  0
ARC
  8
0
  6
CONTINUOUS
 10
170.479538
 20
17.453779
 40
2.000000
 50
180.000000
 51
270.000000
  0
LINE
  8
0
  6
CONTINUOUS
 10
218.066772
 20
92.906021
 11
176.479523
 21
91.453758
  0
LINE
  8
0
  6
CONTINUOUS
 10
228.479538
 20
13.637880
 11
176.479523
 21
15.453760
  0
LINE
  8
0
  6
CONTINUOUS
 10
220.479538
 20
120.953758
 11
220.479538
 21
93.953758
  0
LINE
  8
0
  6
CONTINUOUS
 10
221.479538
 20
121.953758
 11
228.479553
 21
121.953758
  0
LINE
  8
0
  6
CONTINUOUS
 10
222.979538
 20
6.953760
 11
228.479538
 21
6.953760
  0
LINE
  8
0
  6
CONTINUOUS
 10
220.479538
 20
94.453758
 11
220.479538
 21
23.541103
  0
LINE
  8
0
  6
CONTINUOUS
 10
176.479538
 20
91.453758
 11
176.479538
 21
15.453760
  0
LINE
  8
0
  6
CONTINUOUS
 10
219.066406
 20
104.771561
 11
193.122971
 21
92.247154
  0
ARC
  8
0
  6
CONTINUOUS
 10
221.479538
 20
120.953758
 40
1.000000
 50
90.000000
 51
180.000000
  0
ARC
  8
0
  6
CONTINUOUS
 10
217.979538
 20
107.022942
 40
2.500000
 50
-64.230675
 51
0.000000
  0
ARC
  8
0
  6
CONTINUOUS
 10
217.979538
 20
95.404495
 40
2.500000
 50
-88.000000
 51
0.000000
  0
ARC
  8
0
  6
CONTINUOUS
 10
192.036102
 20
94.498528
 40
2.500000
 50
272.000000
 51
295.769318
  0
LINE
  8
0
  6
CONTINUOUS
 10
221.604614
 20
21.299761
 11
228.479538
 21
21.299761
  0
LINE
  8
0
  6
CONTINUOUS
 10
220.479538
 20
9.453760
 11
220.479538
 21
11.503024
  0
ARC
  8
0
  6
CONTINUOUS
 10
222.979538
 20
9.453760
 40
2.500000
 50
180.000000
 51
270.000000
  0
ARC
  8
0
  6
CONTINUOUS
 10
217.979538
 20
11.503024
 40
2.500000
 50
0.000000
 51
88.000000
  0
LINE
  8
0
  6
CENTER
 10
-7.657500
 20
53.453758
 11
261.229523
 21
53.453758
  0
LINE
  8
0
  6
CONTINUOUS
 10
222.979538
 20
248.628754
 11
228.479538
 21
248.628754
  0
LINE
  8
0
  6
CONTINUOUS
 10
222.979538
 20
363.628754
 11
228.479538
 21
363.628754
  0
LINE
  8
0
  6
CONTINUOUS
 10
220.479538
 20
251.128754
 11
220.479538
 21
361.128754
  0
LINE
  8
0
  6
CONTINUOUS
 10
176.479538
 20
344.128754
 11
176.479538
 21
268.128754
  0
LINE
  8
0
  6
CONTINUOUS
 10
218.066772
 20
345.581024
 11
176.479538
 21
344.128754
  0
LINE
  8
0
  6
CONTINUOUS
 10
218.066772
 20
266.676514
 11
176.479538
 21
268.128754
  0
ARC
  8
0
  6
CONTINUOUS
 10
222.979538
 20
361.128754
 40
2.500000
 50
90.000000
 51
180.000000
  0
ARC
  8
0
  6
CONTINUOUS
 10
222.979538
 20
251.128754
 40
2.500000
 50
180.000000
 51
270.000000
  0
LINE
  8
0
  6
CONTINUOUS
 10
176.479538
 20
344.128754
 11
176.479538
 21
268.128754
  0
LINE
  8
0
  6
CONTINUOUS
 10
62.479652
 20
344.128754
 11
176.479660
 21
344.128754
  0
LINE
  8
0
  6
CONTINUOUS
 10
62.479652
 20
268.128784
 11
176.479660
 21
268.128784
  0
LINE
  8
0
  6
CONTINUOUS
 10
168.479660
 20
342.128754
 11
168.479660
 21
329.128754
  0
ARC
  8
0
  6
CONTINUOUS
 10
170.479660
 20
342.128754
 40
2.000000
 50
90.000000
 51
180.000000
  0
ARC
  8
0
  6
CONTINUOUS
 10
170.479660
 20
270.128784
 40
2.000000
 50
180.000000
 51
270.000000
  0
LINE
  8
0
  6
CONTINUOUS
 10
103.479645
 20
329.128754
 11
168.479660
 21
329.128754
  0
LINE
  8
0
  6
CONTINUOUS
 10
103.479645
 20
283.128754
 11
168.479660
 21
283.128754
  0
LINE
  8
0
  6
CONTINUOUS
 10
168.479660
 20
283.128754
 11
168.479660
 21
270.128754
  0
ARC
  8
0
  6
CONTINUOUS
 10
207.649170
 20
306.128754
 40
15.000000
 50
130.747620
 51
229.252380
  0
LINE
  8
0
  6
CONTINUOUS
 10
219.611359
 20
336.234741
 11
197.858246
 21
317.492645
  0
LINE
  8
0
  6
CONTINUOUS
 10
219.611359
 20
276.022766
 11
197.858246
 21
294.764893
  0
ARC
  8
0
  6
CONTINUOUS
 10
217.979538
 20
338.128723
 40
2.500000
 50
-49.252373
 51
0.000000
  0
ARC
  8
0
  6
CONTINUOUS
 10
217.979538
 20
348.079498
 40
2.500000
 50
-88.000000
 51
0.000000
  0
ARC
  8
0
  6
CONTINUOUS
 10
217.979538
 20
274.128784
 40
2.500000
 50
0.000000
 51
49.252373
  0
ARC
  8
0
  6
CONTINUOUS
 10
217.979538
 20
264.178009
 40
2.500000
 50
0.000000
 51
88.000000
  0
LINE
  8
0
  6
CONTINUOUS
 10
62.479652
 20
344.128754
 11
62.479652
 21
331.128754
  0
LINE
  8
0
  6
CONTINUOUS
 10
62.479652
 20
344.128754
 11
52.979652
 21
344.128754
  0
LINE
  8
0
  6
CONTINUOUS
 10
62.479652
 20
268.128754
 11
52.979652
 21
268.128754
  0
LINE
  8
0
  6
CONTINUOUS
 10
53.479652
 20
283.128754
 11
52.979652
 21
283.128754
  0
LINE
  8
0
  6
CONTINUOUS
 10
53.479652
 20
329.128754
 11
52.979652
 21
329.128754
  0
LINE
  8
0
  6
CONTINUOUS
 10
62.479652
 20
281.128754
 11
62.479652
 21
268.128754
  0
LINE
  8
0
  6
CONTINUOUS
 10
52.979652
 20
266.128754
 11
52.979652
 21
298.628754
  0
LINE
  8
0
  6
CONTINUOUS
 10
8.979653
 20
346.128754
 11
52.979652
 21
346.128754
  0
LINE
  8
0
  6
CONTINUOUS
 10
8.979653
 20
266.128754
 11
52.979652
 21
266.128754
  0
LINE
  8
0
  6
CONTINUOUS
 10
3.979653
 20
271.128754
 11
3.979653
 21
341.128754
  0
ARC
  8
0
  6
CONTINUOUS
 10
8.979653
 20
341.128754
 40
5.000000
 50
90.000000
 51
180.000000
  0
ARC
  8
0
  6
CONTINUOUS
 10
8.979653
 20
271.128754
 40
5.000000
 50
180.000000
 51
270.000000
  0
LINE
  8
0
  6
CONTINUOUS
 10
6.479653
 20
330.128754
 11
52.979652
 21
330.128754
  0
LINE
  8
0
  6
CONTINUOUS
 10
6.479653
 20
280.128754
 11
52.979652
 21
280.128754
  0
LINE
  8
0
  6
CONTINUOUS
 10
52.979530
 20
91.453743
 11
62.479530
 21
91.453743
  0
LINE
  8
0
  6
CONTINUOUS
 10
52.979530
 20
15.453740
 11
62.479530
 21
15.453740
  0
LINE
  8
0
  6
CONTINUOUS
 10
52.979530
 20
13.453740
 11
52.979530
 21
93.453743
  0
LINE
  8
0
  6
CONTINUOUS
 10
52.979530
 20
83.702744
 11
62.479530
 21
83.702744
  0
LINE
  8
0
  6
CONTINUOUS
 10
52.979530
 20
23.204741
 11
62.479530
 21
23.204741
  0
LINE
  8
0
  6
CONTINUOUS
 10
8.979531
 20
93.453743
 11
52.979530
 21
93.453743
  0
LINE
  8
0
  6
CONTINUOUS
 10
8.979531
 20
13.453740
 11
52.979530
 21
13.453740
  0
LINE
  8
0
  6
CONTINUOUS
 10
3.979531
 20
18.453739
 11
3.979531
 21
88.453743
  0
ARC
  8
0
  6
CONTINUOUS
 10
8.979531
 20
88.453743
 40
5.000000
 50
90.000000
 51
180.000000
  0
ARC
  8
0
  6
CONTINUOUS
 10
8.979531
 20
18.453739
 40
5.000000
 50
180.000000
 51
270.000000
  0
LINE
  8
0
  6
CONTINUOUS
 10
6.479531
 20
79.453743
 11
52.979530
 21
79.453743
  0
LINE
  8
0
  6
CONTINUOUS
 10
6.479531
 20
29.453739
 11
52.979530
 21
29.453739
  0
LINE
  8
0
  6
CONTINUOUS
 10
62.479530
 20
15.453760
 11
62.479530
 21
91.453743
  0
LINE
  8
0
  6
CONTINUOUS
 10
52.479652
 20
313.628754
 11
53.479652
 21
313.628754
  0
ARC
  8
0
  6
CONTINUOUS
 10
52.479671
 20
312.628754
 40
1.000000
 50
90.000000
 51
180.000000
  0
LINE
  8
0
  6
CONTINUOUS
 10
47.979668
 20
310.128754
 11
47.979668
 21
302.128754
  0
LINE
  8
0
  6
CONTINUOUS
 10
47.979668
 20
310.128754
 11
51.479668
 21
311.628754
  0
LINE
  8
0
  6
CONTINUOUS
 10
47.979652
 20
302.128754
 11
51.479652
 21
300.628754
  0
LINE
  8
0
  6
CONTINUOUS
 10
51.479668
 20
312.628754
 11
51.479668
 21
299.628754
  0
LINE
  8
0
  6
CONTINUOUS
 10
52.479652
 20
298.628754
 11
53.479652
 21
298.628754
  0
ARC
  8
0
  6
CONTINUOUS
 10
52.479671
 20
299.628754
 40
1.000000
 50
-180.000000
 51
-90.000000
  0
LINE
  8
0
  6
CONTINUOUS
 10
53.479652
 20
283.128754
 11
53.479652
 21
329.128754
  0
LINE
  8
0
  6
CONTINUOUS
 10
55.479652
 20
331.128754
 11
53.479652
 21
329.128754
  0
LINE
  8
0
  6
CONTINUOUS
 10
55.479652
 20
331.128754
 11
101.479645
 21
331.128754
  0
LINE
  8
0
  6
CONTINUOUS
 10
95.979652
 20
326.628754
 11
95.979652
 21
331.128754
  0
ARC
  8
0
  6
CONTINUOUS
 10
98.979652
 20
326.628754
 40
3.000000
 50
180.000000
 51
270.000000
  0
LINE
  8
0
  6
CONTINUOUS
 10
98.979652
 20
323.628754
 11
103.479645
 21
323.628754
  0
CIRCLE
  8
0
  6
CONTINUOUS
 10
99.979652
 20
327.628754
 40
2.250000
  0
LINE
  8
0
  6
CONTINUOUS
 10
103.479645
 20
283.128754
 11
103.479645
 21
329.128754
  0
LINE
  8
0
  6
CONTINUOUS
 10
101.479645
 20
331.128754
 11
103.479645
 21
329.128754
  0
LINE
  8
0
  6
CONTINUOUS
 10
101.479645
 20
281.128754
 11
103.479645
 21
283.128754
  0
LINE
  8
0
  6
CONTINUOUS
 10
101.479645
 20
281.128754
 11
55.479652
 21
281.128754
  0
LINE
  8
0
  6
CONTINUOUS
 10
53.479652
 20
283.128754
 11
55.479652
 21
281.128754
  0
LINE
  8
0
  6
CONTINUOUS
 10
57.979652
 20
288.628754
 11
53.479664
 21
288.628754
  0
CIRCLE
  8
0
  6
CONTINUOUS
 10
56.979652
 20
284.628754
 40
2.250000
  0
ARC
  8
0
  6
CONTINUOUS
 10
57.979652
 20
285.628754
 40
3.000000
 50
0.000000
 51
90.000000
  0
LINE
  8
0
  6
CONTINUOUS
 10
60.979652
 20
285.628754
 11
60.979652
 21
281.128754
  0
LINE
  8
0
  6
CENTER
 10
78.479652
 20
273.662964
 11
78.479652
 21
337.794983
  0
LINE
  8
0
  6
CONTINUOUS
 10
55.893871
 20
330.128754
 11
54.479660
 21
328.714539
  0
LINE
  8
0
  6
CONTINUOUS
 10
54.479660
 20
288.628754
 11
54.479660
 21
328.714539
  0
LINE
  8
0
  6
CONTINUOUS
 10
95.979652
 20
330.128754
 11
55.893871
 21
330.128754
  0
LINE
  8
0
  6
CONTINUOUS
 10
102.479645
 20
323.628754
 11
102.479645
 21
283.542969
  0
LINE
  8
0
  6
CONTINUOUS
 10
60.979652
 20
282.128754
 11
101.065437
 21
282.128754
  0
LINE
  8
0
  6
CONTINUOUS
 10
101.065437
 20
282.128754
 11
102.479645
 21
283.542969
  0
LINE
  8
0
  6
CONTINUOUS
 10
52.979652
 20
313.628754
 11
52.979652
 21
346.128754
  0
LINE
  8
0
  6
CONTINUOUS
 10
54.979530
 20
92.953758
 11
101.479530
 21
92.953758
  0
LINE
  8
0
  6
CONTINUOUS
 10
103.479523
 20
122.953758
 11
103.479530
 21
94.953758
  0
LINE
  8
0
  6
CONTINUOUS
 10
53.479530
 20
122.953758
 11
53.479530
 21
94.953758
  0
LINE
  8
0
  6
CONTINUOUS
 10
51.479530
 20
104.953758
 11
103.479530
 21
104.953758
  0
LINE
  8
0
  6
CONTINUOUS
 10
101.479530
 20
92.953758
 11
103.479530
 21
94.953758
  0
LINE
  8
0
  6
CONTINUOUS
 10
53.479530
 20
94.953758
 11
55.479530
 21
92.953758
  0
LINE
  8
0
  6
CONTINUOUS
 10
53.479530
 20
94.953758
 11
103.479530
 21
94.953758
  0
LINE
  8
0
  6
CONTINUOUS
 10
54.479530
 20
123.953758
 11
102.479523
 21
123.953758
  0
LINE
  8
0
  6
CONTINUOUS
 10
102.479523
 20
123.953758
 11
103.479523
 21
122.953758
  0
LINE
  8
0
  6
CONTINUOUS
 10
54.479530
 20
123.953758
 11
53.479530
 21
122.953758
  0
LINE
  8
0
  6
CONTINUOUS
 10
53.479530
 20
122.953758
 11
103.479523
 21
122.953758
  0
LINE
  8
0
  6
CENTER
 10
45.535774
 20
114.453758
 11
57.610783
 21
114.453758
  0
LINE
  8
0
  6
CONTINUOUS
 10
51.479546
 20
120.953758
 11
51.479530
 21
104.953758
  0
LINE
  8
0
  6
CONTINUOUS
 10
52.479530
 20
121.953758
 11
53.479530
 21
121.953758
  0
ARC
  8
0
  6
CONTINUOUS
 10
52.479549
 20
120.953758
 40
1.000000
 50
90.000000
 51
180.000000
  0
LINE
  8
0
  6
CONTINUOUS
 10
47.979546
 20
118.453758
 11
47.979546
 21
110.453758
  0
LINE
  8
0
  6
CONTINUOUS
 10
47.979546
 20
118.453758
 11
51.479546
 21
119.953758
  0
LINE
  8
0
  6
CONTINUOUS
 10
47.979530
 20
110.453758
 11
51.479530
 21
108.953758
  0
LINE
  8
0
  6
CENTER
 10
78.479530
 20
88.260010
 11
78.479530
 21
129.341263
  0
LINE
  8
0
  6
CONTINUOUS
 10
54.979530
 20
92.953758
 11
54.979530
 21
91.453758
  0
LINE
  8
0
  6
CONTINUOUS
 10
100.979530
 20
92.953758
 11
100.979530
 21
91.453758
  0
LINE
  8
0
  6
CENTER
 10
338.229614
 20
147.715317
 11
338.229614
 21
127.972504
  0
LINE
  8
0
  6
DASHED
 10
332.729614
 20
260.128754
 11
332.729614
 21
248.128754
  0
LINE
  8
0
  6
DASHED
 10
343.729614
 20
260.128754
 11
343.729614
 21
248.128754
  0
LINE
  8
0
  6
CENTER
 10
248.229446
 20
263.322510
 11
248.229446
 21
244.488129
  0
LINE
  8
0
  6
DASHED
 10
253.729446
 20
260.128754
 11
253.729446
 21
248.128754
  0
LINE
  8
0
  6
DASHED
 10
242.729446
 20
260.128754
 11
242.729446
 21
248.128754
  0
LINE
  8
0
  6
CONTINUOUS
 10
176.479538
 20
44.053761
 11
220.479538
 21
44.053761
  0
LINE
  8
0
  6
CONTINUOUS
 10
176.479538
 20
33.853760
 11
220.479538
 21
33.853760
  0
TEXT
  8
0
 10
-7.000000
 20
-12.000000
 40
4.000000
 41
1.000000
  1
HFM-22T-300~450-T60WT
 50
0.000000
  0
ENDSEC
  0
EOF
