  0
SECTION
  2
HEADER
  9
$ACADVER
  1
AC1014
  9
$ACADMAINTVER
 70
     9
  9
$DWGCODEPAGE
  3
ANSI_932
  9
$INSBASE
 10
0.0
 20
0.0
 30
0.0
  9
$EXTMIN
 10
32.30331497209022
 20
40.23862350932802
 30
0.0
  9
$EXTMAX
 10
700.3018512623294
 20
363.5908795953614
 30
0.0
  9
$LIMMIN
 10
-107.3289668298007
 20
-8.371018330417086
  9
$LIMMAX
 10
821.8158960612374
 20
416.2341402169062
  9
$ORTHOMODE
 70
     1
  9
$REGENMODE
 70
     1
  9
$FILLMODE
 70
     1
  9
$QTEXTMODE
 70
     0
  9
$MIRRTEXT
 70
     0
  9
$DRAGMODE
 70
     2
  9
$LTSCALE
 40
2.0
  9
$OSMODE
 70
    37
  9
$ATTMODE
 70
     1
  9
$TEXTSIZE
 40
2.0
  9
$TRACEWID
 40
1.0
  9
$TEXTSTYLE
  7
STANDARD
  9
$CLAYER
  8
0
  9
$CELTYPE
  6
BYLAYER
  9
$CECOLOR
 62
   256
  9
$CELTSCALE
 40
1.0
  9
$DELOBJ
 70
     1
  9
$DISPSILH
 70
     0
  9
$DIMSCALE
 40
2.0
  9
$DIMASZ
 40
1.8
  9
$DIMEXO
 40
0.625
  9
$DIMDLI
 40
3.75
  9
$DIMRND
 40
0.0
  9
$DIMDLE
 40
0.0
  9
$DIMEXE
 40
0.8
  9
$DIMTP
 40
0.0
  9
$DIMTM
 40
0.0
  9
$DIMTXT
 40
1.8
  9
$DIMCEN
 40
2.5
  9
$DIMTSZ
 40
0.0
  9
$DIMTOL
 70
     0
  9
$DIMLIM
 70
     0
  9
$DIMTIH
 70
     0
  9
$DIMTOH
 70
     0
  9
$DIMSE1
 70
     0
  9
$DIMSE2
 70
     0
  9
$DIMTAD
 70
     1
  9
$DIMZIN
 70
     8
  9
$DIMBLK
  1

  9
$DIMASO
 70
     1
  9
$DIMSHO
 70
     1
  9
$DIMPOST
  1

  9
$DIMAPOST
  1

  9
$DIMALT
 70
     0
  9
$DIMALTD
 70
     4
  9
$DIMALTF
 40
0.0394
  9
$DIMLFAC
 40
1.0
  9
$DIMTOFL
 70
     1
  9
$DIMTVP
 40
0.0
  9
$DIMTIX
 70
     0
  9
$DIMSOXD
 70
     0
  9
$DIMSAH
 70
     0
  9
$DIMBLK1
  1

  9
$DIMBLK2
  1

  9
$DIMSTYLE
  2
STANDARD
  9
$DIMCLRD
 70
     0
  9
$DIMCLRE
 70
     0
  9
$DIMCLRT
 70
     0
  9
$DIMTFAC
 40
1.0
  9
$DIMGAP
 40
0.75
  9
$DIMJUST
 70
     0
  9
$DIMSD1
 70
     0
  9
$DIMSD2
 70
     0
  9
$DIMTOLJ
 70
     1
  9
$DIMTZIN
 70
     0
  9
$DIMALTZ
 70
     0
  9
$DIMALTTZ
 70
     0
  9
$DIMFIT
 70
     3
  9
$DIMUPT
 70
     0
  9
$DIMUNIT
 70
     8
  9
$DIMDEC
 70
     2
  9
$DIMTDEC
 70
     2
  9
$DIMALTU
 70
     8
  9
$DIMALTTD
 70
     4
  9
$DIMTXSTY
  7
STANDARD
  9
$DIMAUNIT
 70
     0
  9
$LUNITS
 70
     2
  9
$LUPREC
 70
     3
  9
$SKETCHINC
 40
1.0
  9
$FILLETRAD
 40
10.0
  9
$AUNITS
 70
     0
  9
$AUPREC
 70
     2
  9
$MENU
  1
.
  9
$ELEVATION
 40
0.0
  9
$PELEVATION
 40
0.0
  9
$THICKNESS
 40
0.0
  9
$LIMCHECK
 70
     0
  9
$BLIPMODE
 70
     0
  9
$CHAMFERA
 40
0.0
  9
$CHAMFERB
 40
0.0
  9
$CHAMFERC
 40
20.0
  9
$CHAMFERD
 40
0.0
  9
$SKPOLY
 70
     0
  9
$TDCREATE
 40
2453754.484678992
  9
$TDUPDATE
 40
2453832.471613136
  9
$TDINDWG
 40
0.1737780208
  9
$TDUSRTIMER
 40
0.1737776620
  9
$USRTIMER
 70
     1
  9
$ANGBASE
 50
0.0
  9
$ANGDIR
 70
     0
  9
$PDMODE
 70
     0
  9
$PDSIZE
 40
-10.0
  9
$PLINEWID
 40
0.0
  9
$COORDS
 70
     0
  9
$SPLFRAME
 70
     0
  9
$SPLINETYPE
 70
     6
  9
$SPLINESEGS
 70
     8
  9
$ATTDIA
 70
     0
  9
$ATTREQ
 70
     1
  9
$HANDLING
 70
-16383
  9
$HANDSEED
  5
1F18
  9
$SURFTAB1
 70
     6
  9
$SURFTAB2
 70
     6
  9
$SURFTYPE
 70
     6
  9
$SURFU
 70
     6
  9
$SURFV
 70
     6
  9
$UCSNAME
  2

  9
$UCSORG
 10
0.0
 20
0.0
 30
0.0
  9
$UCSXDIR
 10
1.0
 20
0.0
 30
0.0
  9
$UCSYDIR
 10
0.0
 20
1.0
 30
0.0
  9
$PUCSNAME
  2

  9
$PUCSORG
 10
0.0
 20
0.0
 30
0.0
  9
$PUCSXDIR
 10
1.0
 20
0.0
 30
0.0
  9
$PUCSYDIR
 10
0.0
 20
1.0
 30
0.0
  9
$USERI1
 70
     0
  9
$USERI2
 70
     0
  9
$USERI3
 70
     0
  9
$USERI4
 70
     0
  9
$USERI5
 70
     0
  9
$USERR1
 40
0.0
  9
$USERR2
 40
0.0
  9
$USERR3
 40
0.0
  9
$USERR4
 40
0.0
  9
$USERR5
 40
0.0
  9
$WORLDVIEW
 70
     1
  9
$SHADEDGE
 70
     3
  9
$SHADEDIF
 70
    70
  9
$TILEMODE
 70
     1
  9
$MAXACTVP
 70
    48
  9
$PINSBASE
 10
0.0
 20
0.0
 30
0.0
  9
$PLIMCHECK
 70
     0
  9
$PEXTMIN
 10
0.0
 20
0.0
 30
0.0
  9
$PEXTMAX
 10
0.0
 20
0.0
 30
0.0
  9
$PLIMMIN
 10
0.0
 20
0.0
  9
$PLIMMAX
 10
12.0
 20
9.0
  9
$UNITMODE
 70
     0
  9
$VISRETAIN
 70
     1
  9
$PLINEGEN
 70
     0
  9
$PSLTSCALE
 70
     1
  9
$TREEDEPTH
 70
  3020
  9
$PICKSTYLE
 70
     1
  9
$CMLSTYLE
  2
STANDARD
  9
$CMLJUST
 70
     0
  9
$CMLSCALE
 40
1.0
  9
$PROXYGRAPHICS
 70
     1
  9
$MEASUREMENT
 70
     0
  0
ENDSEC
  0
SECTION
  2
CLASSES
  0
CLASS
  1
DICTIONARYVAR
  2
AcDbDictionaryVar
  3
AutoCAD 2000
 90
        0
280
     0
281
     0
  0
CLASS
  1
ACDBDICTIONARYWDFLT
  2
AcDbDictionaryWithDefault
  3
AutoCAD 2000
 90
        0
280
     0
281
     0
  0
CLASS
  1
ACDBPLACEHOLDER
  2
AcDbPlaceHolder
  3
AutoCAD 2000
 90
        0
280
     0
281
     0
  0
CLASS
  1
LAYOUT
  2
AcDbLayout
  3
AutoCAD 2000
 90
        0
280
     0
281
     0
  0
CLASS
  1
LONG_TRANSACTION
  2
AcDbLongTransaction
  3
AutoCAD 2000
 90
        0
280
     0
281
     0
  0
CLASS
  1
LWPOLYLINE
  2
AcDbPolyline
  3
AutoCAD 2000
 90
        0
280
     0
281
     1
  0
CLASS
  1
HATCH
  2
AcDbHatch
  3
AutoCAD 2000
 90
        0
280
     0
281
     1
  0
CLASS
  1
XRECORD
  2
AcDbXrecord
  3
AutoCAD 2000
 90
        0
280
     0
281
     0
  0
ENDSEC
  0
SECTION
  2
TABLES
  0
TABLE
  2
VPORT
  5
6E
330
0
100
AcDbSymbolTable
 70
     2
  0
VPORT
  5
1EF2
330
6E
100
AcDbSymbolTableRecord
100
AcDbViewportTableRecord
  2
*ACTIVE
 70
     0
 10
0.0
 20
0.0
 11
1.0
 21
1.0
 12
360.3625443863827
 22
191.5081550644494
 13
0.0
 23
0.0
 14
10.0
 24
10.0
 15
12.0
 25
12.0
 16
0.0
 26
0.0
 36
1.0
 17
0.0
 27
0.0
 37
0.0
 40
436.0901409589799
 41
1.566970091027308
 42
50.0
 43
0.0
 44
0.0
 50
0.0
 51
0.0
 71
     0
 72
   100
 73
     1
 74
     3
 75
     0
 76
     0
 77
     0
 78
     0
  0
ENDTAB
  0
TABLE
  2
LTYPE
  5
69
330
0
100
AcDbSymbolTable
 70
     4
  0
LTYPE
  5
6A
330
69
100
AcDbSymbolTableRecord
100
AcDbLinetypeTableRecord
  2
BYBLOCK
 70
     0
  3

 72
    65
 73
     0
 40
0.0
  0
LTYPE
  5
6B
330
69
100
AcDbSymbolTableRecord
100
AcDbLinetypeTableRecord
  2
BYLAYER
 70
     0
  3

 72
    65
 73
     0
 40
0.0
  0
LTYPE
  5
8
330
69
100
AcDbSymbolTableRecord
100
AcDbLinetypeTableRecord
  2
CONTINUOUS
 70
     0
  3
Solid line
 72
    65
 73
     0
 40
0.0
  0
LTYPE
  5
27C
330
69
100
AcDbSymbolTableRecord
100
AcDbLinetypeTableRecord
  2
SEKKEI_A2_
 70
     0
  3
center(A2)  ____ _ ____ _ ____ _ ____ _ ____ _ 
 72
    65
 73
     4
 40
14.28749999999999
 49
9.525
 74
     0
 49
-1.587499999999999
 74
     0
 49
1.587499999999999
 74
     0
 49
-1.587499999999999
 74
     0
  0
LTYPE
  5
2B4
330
69
100
AcDbSymbolTableRecord
100
AcDbLinetypeTableRecord
  2
HIDDEN2
 70
     0
  3
Hidden (.5x) _ _ _ _ _ _ _ _ _ _ _ _ _ _ _ _ _
 72
    65
 73
     2
 40
4.762499999999999
 49
3.174999999999999
 74
     0
 49
-1.587499999999999
 74
     0
  0
LTYPE
  5
48F
330
69
100
AcDbSymbolTableRecord
100
AcDbLinetypeTableRecord
  2
SEKKEI_H
 70
     0
  3
Hidden-S _ _ _ _ _ _ _ _ _ _ _ _ _ _ _ _ _
 72
    65
 73
     2
 40
2.381249999999999
 49
1.587499999999999
 74
     0
 49
-0.79375
 74
     0
  0
ENDTAB
  0
TABLE
  2
LAYER
  5
66
330
0
100
AcDbSymbolTable
 70
     9
  0
LAYER
  5
5E
330
66
100
AcDbSymbolTableRecord
100
AcDbLayerTableRecord
  2
0
 70
     0
 62
     7
  6
CONTINUOUS
  0
LAYER
  5
3E
330
66
100
AcDbSymbolTableRecord
100
AcDbLayerTableRecord
  2
CENTER
 70
     0
 62
     3
  6
SEKKEI_A2_
  0
LAYER
  5
2B5
330
66
100
AcDbSymbolTableRecord
100
AcDbLayerTableRecord
  2
HIDS
 70
     0
 62
     1
  6
HIDDEN2
  0
LAYER
  5
2BA
330
66
100
AcDbSymbolTableRecord
100
AcDbLayerTableRecord
  2
HOJO
 70
     0
 62
     4
  6
CONTINUOUS
  0
LAYER
  5
3FA
330
66
100
AcDbSymbolTableRecord
100
AcDbLayerTableRecord
  2
TITLE
 70
     0
 62
     4
  6
CONTINUOUS
  0
ENDTAB
  0
TABLE
  2
STYLE
  5
67
330
0
100
AcDbSymbolTable
 70
     1
  0
STYLE
  5
16
330
67
100
AcDbSymbolTableRecord
100
AcDbTextStyleTableRecord
  2
STANDARD
 70
     0
 40
0.0
 41
1.0
 50
0.0
 71
     0
 42
2.0
  3
simplex.shx
  4
extfont.shx
  0
ENDTAB
  0
TABLE
  2
VIEW
  5
6C
330
0
100
AcDbSymbolTable
 70
     0
  0
ENDTAB
  0
TABLE
  2
UCS
  5
6D
330
0
100
AcDbSymbolTable
 70
     0
  0
ENDTAB
  0
TABLE
  2
APPID
  5
70
330
0
100
AcDbSymbolTable
 70
     1
  0
APPID
  5
71
330
70
100
AcDbSymbolTableRecord
100
AcDbRegAppTableRecord
  2
ACAD
 70
     0
  0
ENDTAB
  0
TABLE
  2
DIMSTYLE
  5
72
330
0
100
AcDbSymbolTable
 70
     2
  0
DIMSTYLE
105
73
330
72
100
AcDbSymbolTableRecord
100
AcDbDimStyleTableRecord
  2
STANDARD
 70
     0
  3

  4

  5

  6

  7

 40
2.0
 41
1.8
 42
0.625
 43
3.75
 44
0.8
 45
0.0
 46
0.0
 47
0.0
 48
0.0
140
1.8
141
2.5
142
0.0
143
0.0394
144
1.0
145
0.0
146
1.0
147
0.75
 71
     0
 72
     0
 73
     0
 74
     0
 75
     0
 76
     0
 77
     1
 78
     8
170
     0
171
     4
172
     1
173
     0
174
     0
175
     0
176
     0
177
     0
178
     0
270
     8
271
     2
272
     2
273
     8
274
     4
340
16
275
     0
280
     0
281
     0
282
     0
283
     1
284
     0
285
     0
286
     0
287
     3
288
     0
  0
ENDTAB
  0
TABLE
  2
BLOCK_RECORD
  5
1
330
0
100
AcDbSymbolTable
 70
    80
  0
BLOCK_RECORD
  5
2
102
{ACAD_XDICTIONARY
360
1F14
102
}
330
1
100
AcDbSymbolTableRecord
100
AcDbBlockTableRecord
  2
*MODEL_SPACE
  0
BLOCK_RECORD
  5
1EED
102
{ACAD_XDICTIONARY
360
1F16
102
}
330
1
100
AcDbSymbolTableRecord
100
AcDbBlockTableRecord
  2
*PAPER_SPACE
  0
ENDTAB
  0
ENDSEC
  0
SECTION
  2
BLOCKS
  0
BLOCK
  5
5D
330
2
100
AcDbEntity
  8
0
100
AcDbBlockBegin
  2
*MODEL_SPACE
 70
     0
 10
0.0
 20
0.0
 30
0.0
  3
*MODEL_SPACE
  1

  0
ENDBLK
  5
5F
330
2
100
AcDbEntity
  8
0
100
AcDbBlockEnd
  0
BLOCK
  5
1EEF
330
1EED
100
AcDbEntity
 67
     1
  8
0
100
AcDbBlockBegin
  2
*PAPER_SPACE
 70
     0
 10
0.0
 20
0.0
 30
0.0
  3
*PAPER_SPACE
  1

  0
ENDBLK
  5
1EF0
330
1EED
100
AcDbEntity
 67
     1
  8
0
100
AcDbBlockEnd
  0
ENDSEC
  0
SECTION
  2
ENTITIES
  0
LINE
  5
61D
330
2
100
AcDbEntity
  8
CENTER
100
AcDbLine
 10
32.30331797209009
 20
289.5908795953615
 30
0.0
 11
267.2558738683388
 21
289.5908795953615
 31
0.0
  0
ARC
  5
61E
330
2
100
AcDbEntity
  8
0
100
AcDbCircle
 10
341.1521571571901
 20
55.938630509328
 30
0.0
 40
2.0
100
AcDbArc
 50
199.2169950000003
 51
270.0
  0
ARC
  5
61F
330
2
100
AcDbEntity
  8
0
100
AcDbCircle
 10
340.2232171571901
 20
56.93863050932799
 30
0.0
 40
5.0
100
AcDbArc
 50
225.0001069999998
 51
270.0
  0
LINE
  5
620
330
2
100
AcDbEntity
  8
CENTER
100
AcDbLine
 10
312.1521571571901
 20
91.93862850932802
 30
0.0
 11
412.1521591571901
 21
91.938628509328
 31
0.0
  0
LINE
  5
621
330
2
100
AcDbEntity
  8
0
100
AcDbLine
 10
334.1521661571901
 20
75.53863050932801
 30
0.0
 11
391.7146591571901
 21
75.53863050932801
 31
0.0
  0
LINE
  5
622
330
2
100
AcDbEntity
  8
0
100
AcDbLine
 10
334.1521781571901
 20
126.938632509328
 30
0.0
 11
391.1834091571901
 21
126.938632509328
 31
0.0
  0
LINE
  5
623
330
2
100
AcDbEntity
  8
0
100
AcDbLine
 10
391.1870711571901
 20
56.186860509328
 30
0.0
 11
333.1172371571901
 21
55.173040509328
 31
0.0
  0
LINE
  5
624
330
2
100
AcDbEntity
  8
0
100
AcDbLine
 10
391.1870481571901
 20
146.272929509328
 30
0.0
 11
333.1172771571901
 21
147.286311509328
 31
0.0
  0
LINE
  5
625
330
2
100
AcDbEntity
  8
CENTER
100
AcDbLine
 10
312.1521571571901
 20
114.238627509328
 30
0.0
 11
436.1521591571901
 21
114.2386275093279
 31
0.0
  0
LINE
  5
626
330
2
100
AcDbEntity
  8
0
100
AcDbLine
 10
322.1521571571901
 20
50.238630509328
 30
0.0
 11
322.1521571571901
 21
152.238627509328
 31
0.0
  0
LINE
  5
627
330
2
100
AcDbEntity
  8
0
100
AcDbLine
 10
331.1521571571901
 20
72.53864250932801
 30
0.0
 11
331.1521571571901
 21
51.738630509328
 31
0.0
  0
LINE
  5
628
330
2
100
AcDbEntity
  8
CENTER
100
AcDbLine
 10
317.1521571571901
 20
58.23862950932798
 30
0.0
 11
336.1521571571901
 21
58.23862950932801
 31
0.0
  0
ARC
  5
629
330
2
100
AcDbEntity
  8
0
100
AcDbCircle
 10
329.6521571571901
 20
51.738630509328
 30
0.0
 40
1.5
100
AcDbArc
 50
270.0
 51
0.0
  0
ARC
  5
62A
330
2
100
AcDbEntity
  8
0
100
AcDbCircle
 10
329.6174971571901
 20
52.238630509328
 30
0.0
 40
2.0
100
AcDbArc
 50
270.0
 51
345.0000919999997
  0
ARC
  5
62B
330
2
100
AcDbEntity
  8
0
100
AcDbCircle
 10
333.1521671571901
 20
53.17336050932801
 30
0.0
 40
2.0
100
AcDbArc
 50
91.00063300000034
 51
180.0
  0
LINE
  5
62C
330
2
100
AcDbEntity
  8
HIDS
  6
SEKKEI_H
100
AcDbLine
 10
322.1521571571901
 20
54.98863050932801
 30
0.0
 11
331.1521571571901
 21
54.98863050932801
 31
0.0
  0
LINE
  5
62D
330
2
100
AcDbEntity
  8
0
100
AcDbLine
 10
329.6175081571901
 20
50.238630509328
 30
0.0
 11
322.1521571571901
 21
50.238630509328
 31
0.0
  0
LINE
  5
62E
330
2
100
AcDbEntity
  8
0
100
AcDbLine
 10
336.6876961571901
 20
53.40308050932801
 30
0.0
 11
334.8868371571901
 21
55.203930509328
 31
0.0
  0
ARC
  5
62F
330
2
100
AcDbEntity
  8
0
100
AcDbCircle
 10
334.7839871571901
 20
52.201700509328
 30
0.0
 40
3.0
100
AcDbArc
 50
91.00048800000001
 51
165.0003050000002
  0
LINE
  5
630
330
2
100
AcDbEntity
  8
0
100
AcDbLine
 10
331.5493571571901
 20
51.720990509328
 30
0.0
 11
331.8861961571901
 21
52.97813050932801
 31
0.0
  0
LINE
  5
631
330
2
100
AcDbEntity
  8
HIDS
  6
SEKKEI_H
100
AcDbLine
 10
322.1521571571901
 20
61.48862950932801
 30
0.0
 11
331.1521761571901
 21
61.48862950932801
 31
0.0
  0
ARC
  5
632
330
2
100
AcDbEntity
  8
0
100
AcDbCircle
 10
334.1521781571901
 20
72.53864950932802
 30
0.0
 40
3.0
100
AcDbArc
 50
90.0
 51
180.0
  0
LINE
  5
633
330
2
100
AcDbEntity
  8
0
100
AcDbLine
 10
331.1521571571901
 20
151.700511509328
 30
0.0
 11
331.1521571571901
 21
129.938609509328
 31
0.0
  0
ARC
  5
634
330
2
100
AcDbEntity
  8
0
100
AcDbCircle
 10
334.1521571571901
 20
129.938632509328
 30
0.0
 40
3.0
100
AcDbArc
 50
180.0
 51
270.0
  0
LINE
  5
635
330
2
100
AcDbEntity
  8
HIDS
  6
SEKKEI_H
100
AcDbLine
 10
322.1521571571901
 20
140.988627509328
 30
0.0
 11
331.1521571571901
 21
140.988627509328
 31
0.0
  0
LINE
  5
636
330
2
100
AcDbEntity
  8
CENTER
100
AcDbLine
 10
317.1521571571901
 20
144.2386275093279
 30
0.0
 11
336.1521571571902
 21
144.238627509328
 31
0.0
  0
ARC
  5
637
330
2
100
AcDbEntity
  8
0
100
AcDbCircle
 10
333.1521471571901
 20
149.286021509328
 30
0.0
 40
2.0
100
AcDbArc
 50
180.0
 51
269.0006099999996
  0
LINE
  5
638
330
2
100
AcDbEntity
  8
HIDS
  6
SEKKEI_H
100
AcDbLine
 10
322.1521571571901
 20
147.488627509328
 30
0.0
 11
331.1521571571901
 21
147.488627509328
 31
0.0
  0
ARC
  5
639
330
2
100
AcDbEntity
  8
0
100
AcDbCircle
 10
330.0011671571901
 20
150.738627509328
 30
0.0
 40
1.5
100
AcDbArc
 50
15.00007000000016
 51
90.0
  0
LINE
  5
63A
330
2
100
AcDbEntity
  8
0
100
AcDbLine
 10
322.1521571571901
 20
152.238627509328
 30
0.0
 11
330.0011671571901
 21
152.238627509328
 31
0.0
  0
ARC
  5
63B
330
2
100
AcDbEntity
  8
0
100
AcDbCircle
 10
334.7852671571901
 20
150.2576705093279
 30
0.0
 40
3.0
100
AcDbArc
 50
194.9326020000002
 51
269.0006099999996
  0
LINE
  5
63C
330
2
100
AcDbEntity
  8
0
100
AcDbLine
 10
331.4500561571901
 20
151.1268495093279
 30
0.0
 11
331.8898571571901
 21
149.485492509328
 31
0.0
  0
LINE
  5
63D
330
2
100
AcDbEntity
  8
0
100
AcDbLine
 10
402.1521591571901
 20
68.93863050932799
 30
0.0
 11
402.1521591571901
 21
106.738627509328
 31
0.0
  0
ARC
  5
63E
330
2
100
AcDbEntity
  8
0
100
AcDbCircle
 10
362.1521591571901
 20
91.938628509328
 30
0.0
 40
38.0
100
AcDbArc
 50
324.6655309999995
 51
21.29424099999966
  0
ARC
  5
63F
330
2
100
AcDbEntity
  8
0
100
AcDbCircle
 10
396.1521591571901
 20
95.23862350932802
 30
0.0
 40
1.0
100
AcDbArc
 50
270.0
 51
0.0
  0
LINE
  5
640
330
2
100
AcDbEntity
  8
0
100
AcDbLine
 10
393.1521591571901
 20
58.18655150932801
 30
0.0
 11
393.1521591571901
 21
144.273219509328
 31
0.0
  0
LINE
  5
641
330
2
100
AcDbEntity
  8
CENTER
100
AcDbLine
 10
362.1521591571901
 20
41.938630509328
 30
0.0
 11
362.1521591571901
 21
167.826122509328
 31
0.0
  0
LINE
  5
642
330
2
100
AcDbEntity
  8
0
100
AcDbLine
 10
340.2232171571901
 20
51.93863050932801
 30
0.0
 11
385.1521591571901
 21
51.93863050932801
 31
0.0
  0
LINE
  5
643
330
2
100
AcDbEntity
  8
0
100
AcDbLine
 10
341.1521571571901
 20
53.938630509328
 30
0.0
 11
383.1521591571901
 21
53.938630509328
 31
0.0
  0
LINE
  5
644
330
2
100
AcDbEntity
  8
0
100
AcDbLine
 10
393.1521591571901
 20
63.54165950932801
 30
0.0
 11
395.5491161571901
 21
65.938630509328
 31
0.0
  0
ARC
  5
645
330
2
100
AcDbEntity
  8
0
100
AcDbCircle
 10
383.1521591571901
 20
55.938630509328
 30
0.0
 40
2.0
100
AcDbArc
 50
270.0
 51
0.0
  0
ARC
  5
646
330
2
100
AcDbEntity
  8
0
100
AcDbCircle
 10
385.1521431571901
 20
54.93861050932801
 30
0.0
 40
3.0
100
AcDbArc
 50
270.0
 51
0.0
  0
LINE
  5
647
330
2
100
AcDbEntity
  8
0
100
AcDbLine
 10
388.1521591571901
 20
54.93863050932801
 30
0.0
 11
388.1521591571901
 21
56.133870509328
 31
0.0
  0
LINE
  5
648
330
2
100
AcDbEntity
  8
0
100
AcDbLine
 10
385.1521591571901
 20
55.938630509328
 30
0.0
 11
385.1521591571901
 21
56.081410509328
 31
0.0
  0
ARC
  5
649
330
2
100
AcDbEntity
  8
0
100
AcDbCircle
 10
391.1521591571901
 20
58.18655150932801
 30
0.0
 40
2.0
100
AcDbArc
 50
271.0003660000003
 51
0.0
  0
ARC
  5
64A
330
2
100
AcDbEntity
  8
0
100
AcDbCircle
 10
399.1521591571901
 20
68.93862050932802
 30
0.0
 40
3.0
100
AcDbArc
 50
270.0
 51
0.0
  0
LINE
  5
64B
330
2
100
AcDbEntity
  8
0
100
AcDbLine
 10
399.1521591571901
 20
65.938630509328
 30
0.0
 11
395.5491161571901
 21
65.938630509328
 31
0.0
  0
ARC
  5
64C
330
2
100
AcDbEntity
  8
0
100
AcDbCircle
 10
395.1521741571901
 20
92.238639509328
 30
0.0
 40
2.0
100
AcDbArc
 50
90.0
 51
180.0
  0
LINE
  5
64D
330
2
100
AcDbEntity
  8
0
100
AcDbLine
 10
396.1521591571901
 20
94.23862750932801
 30
0.0
 11
395.1521741571901
 21
94.23862750932801
 31
0.0
  0
LINE
  5
64E
330
2
100
AcDbEntity
  8
0
100
AcDbLine
 10
404.6521591571901
 20
116.738627509328
 30
0.0
 11
426.15215915719
 21
116.738627509328
 31
0.0
  0
LINE
  5
64F
330
2
100
AcDbEntity
  8
0
100
AcDbLine
 10
404.6521741571901
 20
111.738627509328
 30
0.0
 11
426.15215915719
 21
111.738627509328
 31
0.0
  0
LINE
  5
650
330
2
100
AcDbEntity
  8
0
100
AcDbLine
 10
399.1521591571901
 20
106.738627509328
 30
0.0
 11
426.15215915719
 21
106.738627509328
 31
0.0
  0
LINE
  5
651
330
2
100
AcDbEntity
  8
0
100
AcDbLine
 10
399.1521591571901
 20
121.738627509328
 30
0.0
 11
426.15215915719
 21
121.738627509328
 31
0.0
  0
LINE
  5
652
330
2
100
AcDbEntity
  8
0
100
AcDbLine
 10
399.1521591571901
 20
122.738627509328
 30
0.0
 11
399.1521591571901
 21
105.738627509328
 31
0.0
  0
LINE
  5
653
330
2
100
AcDbEntity
  8
0
100
AcDbLine
 10
397.1521591571901
 20
95.23862750932801
 30
0.0
 11
397.1521591571901
 21
133.238627509328
 31
0.0
  0
LINE
  5
654
330
2
100
AcDbEntity
  8
0
100
AcDbLine
 10
397.1521591571901
 20
105.738627509328
 30
0.0
 11
399.1521591571901
 21
105.738627509328
 31
0.0
  0
ARC
  5
655
330
2
100
AcDbEntity
  8
0
100
AcDbCircle
 10
404.6521591571901
 20
114.238627509328
 30
0.0
 40
2.5
100
AcDbArc
 50
180.0
 51
270.0
  0
ARC
  5
656
330
2
100
AcDbEntity
  8
0
100
AcDbCircle
 10
404.6521741571901
 20
114.238643509328
 30
0.0
 40
2.5
100
AcDbArc
 50
90.0
 51
180.0
  0
ARC
  5
657
330
2
100
AcDbEntity
  8
0
100
AcDbCircle
 10
395.1521591571901
 20
136.238627509328
 30
0.0
 40
2.0
100
AcDbArc
 50
180.0
 51
270.0
  0
LINE
  5
658
330
2
100
AcDbEntity
  8
0
100
AcDbLine
 10
397.1521591571901
 20
122.738627509328
 30
0.0
 11
399.1521591571901
 21
122.738627509328
 31
0.0
  0
ARC
  5
659
330
2
100
AcDbEntity
  8
0
100
AcDbCircle
 10
396.1521591571901
 20
133.238627509328
 30
0.0
 40
1.0
100
AcDbArc
 50
0.0
 51
90.0
  0
LINE
  5
65A
330
2
100
AcDbEntity
  8
0
100
AcDbLine
 10
396.1521591571901
 20
134.238627509328
 30
0.0
 11
395.1521741571901
 21
134.238627509328
 31
0.0
  0
ARC
  5
65B
330
2
100
AcDbEntity
  8
0
100
AcDbCircle
 10
391.1521661571901
 20
144.273219509328
 30
0.0
 40
2.0
100
AcDbArc
 50
0.0
 51
89.00035900000039
  0
LINE
  5
65C
330
2
100
AcDbEntity
  8
0
100
AcDbLine
 10
426.15215915719
 20
106.738627509328
 30
0.0
 11
426.15215915719
 21
121.738627509328
 31
0.0
  0
TEXT
  5
65D
330
2
100
AcDbEntity
  8
TITLE
100
AcDbText
 10
320.3264330337657
 20
306.3810574955945
 30
0.0
 40
5.0
  1
HFMN-15L-10~240-T15T
 41
0.8
100
AcDbText
  0
LINE
  5
65E
330
2
100
AcDbEntity
  8
0
100
AcDbLine
 10
631.8018512623292
 20
61.68966950932802
 30
0.0
 11
559.8018512623292
 21
61.68966950932802
 31
0.0
  0
LINE
  5
65F
330
2
100
AcDbEntity
  8
0
100
AcDbLine
 10
631.8018512623292
 20
122.187602509328
 30
0.0
 11
560.0518512623292
 21
122.187602509328
 31
0.0
  0
LINE
  5
660
330
2
100
AcDbEntity
  8
0
100
AcDbLine
 10
561.3018512623292
 20
53.938630509328
 30
0.0
 11
631.8018512623292
 21
53.938630509328
 31
0.0
  0
LINE
  5
661
330
2
100
AcDbEntity
  8
0
100
AcDbLine
 10
631.8018512623292
 20
129.938632509328
 30
0.0
 11
558.8818682623292
 21
129.938632509328
 31
0.0
  0
LINE
  5
662
330
2
100
AcDbEntity
  8
CENTER
100
AcDbLine
 10
700.3018512623294
 20
91.93863250932801
 30
0.0
 11
538.4081132623292
 21
91.93863250932801
 31
0.0
  0
CIRCLE
  5
663
330
2
100
AcDbEntity
  8
0
100
AcDbCircle
 10
516.8018512623292
 20
114.238627509328
 30
0.0
 40
20.0
  0
LINE
  5
664
330
2
100
AcDbEntity
  8
0
100
AcDbLine
 10
474.3018512623292
 20
126.938632509328
 30
0.0
 11
474.3018512623292
 21
75.53864250932801
 31
0.0
  0
LINE
  5
665
330
2
100
AcDbEntity
  8
CENTER
100
AcDbLine
 10
516.8018512623292
 20
162.238627509328
 30
0.0
 11
516.8018512623292
 21
40.23863050932802
 31
0.0
  0
LINE
  5
666
330
2
100
AcDbEntity
  8
0
100
AcDbLine
 10
559.3018512623292
 20
126.938632509328
 30
0.0
 11
559.3018512623292
 21
61.93863950932803
 31
0.0
  0
LINE
  5
667
330
2
100
AcDbEntity
  8
0
100
AcDbLine
 10
545.7551592623292
 20
66.03129150932801
 30
0.0
 11
533.0946522623293
 21
57.14597050932801
 31
0.0
  0
LINE
  5
668
330
2
100
AcDbEntity
  8
0
100
AcDbLine
 10
548.8018512623292
 20
50.238630509328
 30
0.0
 11
484.8018512623292
 21
50.238630509328
 31
0.0
  0
ARC
  5
669
330
2
100
AcDbEntity
  8
0
100
AcDbCircle
 10
484.8018512623292
 20
58.23862950932801
 30
0.0
 40
8.0
100
AcDbArc
 50
187.9696959999997
 51
270.0
  0
LINE
  5
66A
330
2
100
AcDbEntity
  8
0
100
AcDbLine
 10
504.8944562623293
 20
88.23461450932802
 30
0.0
 11
509.3754592623293
 21
88.23461450932802
 31
0.0
  0
LINE
  5
66B
330
2
100
AcDbEntity
  8
0
100
AcDbLine
 10
504.8039572623292
 20
80.21525150932802
 30
0.0
 11
505.5683612623292
 21
79.41002950932801
 31
0.0
  0
LINE
  5
66C
330
2
100
AcDbEntity
  8
0
100
AcDbLine
 10
505.5563522623292
 20
86.907023509328
 30
0.0
 11
504.8039572623292
 21
85.97407050932801
 31
0.0
  0
LINE
  5
66D
330
2
100
AcDbEntity
  8
0
100
AcDbLine
 10
508.4356552623291
 20
78.238631509328
 30
0.0
 11
504.9700642623292
 21
78.238631509328
 31
0.0
  0
LINE
  5
66E
330
2
100
AcDbEntity
  8
0
100
AcDbLine
 10
530.2223532623293
 20
56.238629509328
 30
0.0
 11
503.3813642623292
 21
56.238629509328
 31
0.0
  0
LINE
  5
66F
330
2
100
AcDbEntity
  8
0
100
AcDbLine
 10
500.5090502623293
 20
57.14597050932801
 30
0.0
 11
474.3018512623292
 21
75.53864250932801
 31
0.0
  0
LINE
  5
670
330
2
100
AcDbEntity
  8
0
100
AcDbLine
 10
476.8791522623293
 20
57.12951050932801
 30
0.0
 11
474.3018512623292
 21
75.53864250932801
 31
0.0
  0
CIRCLE
  5
671
330
2
100
AcDbEntity
  8
0
100
AcDbCircle
 10
484.8018512623292
 20
58.23862950932801
 30
0.0
 40
3.25
  0
ARC
  5
674
330
2
100
AcDbEntity
  8
0
100
AcDbCircle
 10
503.3813642623292
 20
61.238629509328
 30
0.0
 40
5.0
100
AcDbArc
 50
234.9380950000001
 51
270.0
  0
LINE
  5
675
330
2
100
AcDbEntity
  8
0
100
AcDbLine
 10
504.8039572623292
 20
85.97407050932801
 30
0.0
 11
504.8039572623292
 21
80.21525150932802
 31
0.0
  0
LINE
  5
676
330
2
100
AcDbEntity
  8
0
100
AcDbLine
 10
503.6845572623292
 20
86.68545050932801
 30
0.0
 11
503.6845572623292
 21
79.535731509328
 31
0.0
  0
LINE
  5
677
330
2
100
AcDbEntity
  8
0
100
AcDbLine
 10
503.6845572623292
 20
79.535731509328
 30
0.0
 11
504.9700642623292
 21
78.238631509328
 31
0.0
  0
LINE
  5
678
330
2
100
AcDbEntity
  8
0
100
AcDbLine
 10
504.8944562623293
 20
88.23461450932802
 30
0.0
 11
503.6845572623292
 21
86.68545050932801
 31
0.0
  0
ARC
  5
679
330
2
100
AcDbEntity
  8
0
100
AcDbCircle
 10
530.2223532623293
 20
61.238629509328
 30
0.0
 40
5.0
100
AcDbArc
 50
270.0
 51
305.0618899999998
  0
LINE
  5
67A
330
2
100
AcDbEntity
  8
0
100
AcDbLine
 10
507.6413592623293
 20
84.04358950932801
 30
0.0
 11
507.6413592623293
 21
82.95028650932801
 31
0.0
  0
LINE
  5
67B
330
2
100
AcDbEntity
  8
0
100
AcDbLine
 10
517.6112532623291
 20
87.01114950932799
 30
0.0
 11
517.6112532623291
 21
79.33193950932801
 31
0.0
  0
LINE
  5
67C
330
2
100
AcDbEntity
  8
0
100
AcDbLine
 10
516.3617572623293
 20
87.01114950932799
 30
0.0
 11
516.3617572623293
 21
79.33193950932801
 31
0.0
  0
LINE
  5
67D
330
2
100
AcDbEntity
  8
0
100
AcDbLine
 10
510.3485582623291
 20
84.04358950932801
 30
0.0
 11
510.3485582623291
 21
78.238631509328
 31
0.0
  0
LINE
  5
67E
330
2
100
AcDbEntity
  8
0
100
AcDbLine
 10
509.3854542623293
 20
78.238631509328
 30
0.0
 11
510.3485582623291
 21
78.238631509328
 31
0.0
  0
LINE
  5
67F
330
2
100
AcDbEntity
  8
0
100
AcDbLine
 10
509.3854542623293
 20
79.035460509328
 30
0.0
 11
508.4356552623291
 21
78.238631509328
 31
0.0
  0
LINE
  5
680
330
2
100
AcDbEntity
  8
0
100
AcDbLine
 10
509.3854542623293
 20
82.742034509328
 30
0.0
 11
509.3854542623293
 21
82.95028650932801
 31
0.0
  0
LINE
  5
681
330
2
100
AcDbEntity
  8
0
100
AcDbLine
 10
509.3854542623293
 20
82.95028650932801
 30
0.0
 11
509.3854542623293
 21
81.49254150932803
 31
0.0
  0
LINE
  5
682
330
2
100
AcDbEntity
  8
0
100
AcDbLine
 10
509.3854542623293
 20
79.035460509328
 30
0.0
 11
509.3854542623293
 21
78.238631509328
 31
0.0
  0
ARC
  5
683
330
2
100
AcDbEntity
  8
0
100
AcDbCircle
 10
507.3029502623292
 20
81.49254150932803
 30
0.0
 40
2.0825
100
AcDbArc
 50
270.0002139999998
 51
0.0001089999998967
  0
LINE
  5
684
330
2
100
AcDbEntity
  8
0
100
AcDbLine
 10
509.3854542623293
 20
81.43722050932803
 30
0.0
 11
509.3854542623293
 21
81.49254150932803
 31
0.0
  0
LINE
  5
685
330
2
100
AcDbEntity
  8
0
100
AcDbLine
 10
509.3854542623293
 20
81.49254150932803
 30
0.0
 11
509.3854542623293
 21
81.909041509328
 31
0.0
  0
LINE
  5
686
330
2
100
AcDbEntity
  8
0
100
AcDbLine
 10
507.3029502623292
 20
79.41002950932801
 30
0.0
 11
506.8864612623293
 21
79.41002950932801
 31
0.0
  0
LINE
  5
687
330
2
100
AcDbEntity
  8
0
100
AcDbLine
 10
509.3854542623293
 20
81.909041509328
 30
0.0
 11
509.3854542623293
 21
82.742034509328
 31
0.0
  0
LINE
  5
688
330
2
100
AcDbEntity
  8
0
100
AcDbLine
 10
506.8864612623293
 20
79.41002950932801
 30
0.0
 11
506.0534532623291
 21
79.41002950932801
 31
0.0
  0
LINE
  5
689
330
2
100
AcDbEntity
  8
0
100
AcDbLine
 10
509.3854542623293
 20
82.95028650932801
 30
0.0
 11
507.6413592623293
 21
82.95028650932801
 31
0.0
  0
LINE
  5
68A
330
2
100
AcDbEntity
  8
0
100
AcDbLine
 10
506.0534532623291
 20
79.41002950932801
 30
0.0
 11
505.5683612623292
 21
79.41002950932801
 31
0.0
  0
LINE
  5
68B
330
2
100
AcDbEntity
  8
0
100
AcDbLine
 10
515.8671592623293
 20
79.33193950932801
 30
0.0
 11
516.3617572623293
 21
79.33193950932801
 31
0.0
  0
LINE
  5
68C
330
2
100
AcDbEntity
  8
0
100
AcDbLine
 10
515.8671592623293
 20
78.238631509328
 30
0.0
 11
518.0277572623293
 21
78.238631509328
 31
0.0
  0
LINE
  5
68D
330
2
100
AcDbEntity
  8
0
100
AcDbLine
 10
518.0277572623293
 20
79.33193950932801
 30
0.0
 11
518.0277572623293
 21
78.238631509328
 31
0.0
  0
LINE
  5
68E
330
2
100
AcDbEntity
  8
0
100
AcDbLine
 10
515.8671592623293
 20
79.33193950932801
 30
0.0
 11
515.8671592623293
 21
78.238631509328
 31
0.0
  0
LINE
  5
68F
330
2
100
AcDbEntity
  8
0
100
AcDbLine
 10
517.6112532623291
 20
79.33193950932801
 30
0.0
 11
518.0277572623293
 21
79.33193950932801
 31
0.0
  0
LINE
  5
690
330
2
100
AcDbEntity
  8
0
100
AcDbLine
 10
514.7782612623292
 20
87.01114950932799
 30
0.0
 11
514.4202592623293
 21
86.15212550932801
 31
0.0
  0
LINE
  5
691
330
2
100
AcDbEntity
  8
0
100
AcDbLine
 10
513.6805592623293
 20
88.23461450932802
 30
0.0
 11
520.3445602623292
 21
88.23461450932802
 31
0.0
  0
LINE
  5
692
330
2
100
AcDbEntity
  8
0
100
AcDbLine
 10
507.6413592623293
 20
84.04358950932801
 30
0.0
 11
510.3485582623291
 21
84.04358950932801
 31
0.0
  0
LINE
  5
693
330
2
100
AcDbEntity
  8
0
100
AcDbLine
 10
509.3854542623293
 20
86.15212550932801
 30
0.0
 11
510.3485582623291
 21
86.15212550932801
 31
0.0
  0
LINE
  5
694
330
2
100
AcDbEntity
  8
0
100
AcDbLine
 10
509.3754592623293
 20
88.23461450932802
 30
0.0
 11
510.3485582623291
 21
87.15464750932801
 31
0.0
  0
LINE
  5
695
330
2
100
AcDbEntity
  8
0
100
AcDbLine
 10
509.3854542623293
 20
86.30968750932799
 30
0.0
 11
509.3854542623293
 21
86.15212550932801
 31
0.0
  0
LINE
  5
696
330
2
100
AcDbEntity
  8
0
100
AcDbLine
 10
509.3854542623293
 20
86.30968750932799
 30
0.0
 11
508.7548542623292
 21
86.907023509328
 31
0.0
  0
LINE
  5
697
330
2
100
AcDbEntity
  8
0
100
AcDbLine
 10
508.7674582623292
 20
86.907023509328
 30
0.0
 11
505.5563522623292
 21
86.907023509328
 31
0.0
  0
LINE
  5
698
330
2
100
AcDbEntity
  8
0
100
AcDbLine
 10
513.6805592623293
 20
86.15212550932801
 30
0.0
 11
514.4202592623293
 21
86.15212550932801
 31
0.0
  0
LINE
  5
699
330
2
100
AcDbEntity
  8
0
100
AcDbLine
 10
510.3485582623291
 20
87.15464750932801
 30
0.0
 11
510.3485582623291
 21
86.15212550932801
 31
0.0
  0
LINE
  5
69A
330
2
100
AcDbEntity
  8
0
100
AcDbLine
 10
513.6805592623293
 20
86.15212550932801
 30
0.0
 11
513.6805592623293
 21
88.23461450932802
 31
0.0
  0
LINE
  5
69B
330
2
100
AcDbEntity
  8
0
100
AcDbLine
 10
517.6112532623291
 20
87.01114950932799
 30
0.0
 11
519.3476582623292
 21
87.01114950932799
 31
0.0
  0
LINE
  5
69C
330
2
100
AcDbEntity
  8
0
100
AcDbLine
 10
516.3617572623293
 20
87.01114950932799
 30
0.0
 11
514.7782612623292
 21
87.01114950932799
 31
0.0
  0
LINE
  5
69D
330
2
100
AcDbEntity
  8
0
100
AcDbLine
 10
519.3476582623292
 20
87.01114950932799
 30
0.0
 11
519.6494612623292
 21
86.15212550932801
 31
0.0
  0
LINE
  5
69E
330
2
100
AcDbEntity
  8
0
100
AcDbLine
 10
519.6494612623292
 20
86.15212550932801
 30
0.0
 11
520.3445602623292
 21
86.15212550932801
 31
0.0
  0
LINE
  5
69F
330
2
100
AcDbEntity
  8
0
100
AcDbLine
 10
520.3445602623292
 20
86.15212550932801
 30
0.0
 11
520.3445602623292
 21
88.23461450932802
 31
0.0
  0
ARC
  5
6A0
330
2
100
AcDbEntity
  8
0
100
AcDbCircle
 10
527.6723502623292
 20
85.56642050932799
 30
0.0
 40
2.668203
100
AcDbArc
 50
286.0181269999995
 51
90.00350999999964
  0
LINE
  5
6A1
330
2
100
AcDbEntity
  8
0
100
AcDbLine
 10
524.1711592623293
 20
87.01114950932799
 30
0.0
 11
524.1711592623293
 21
79.27987250932801
 31
0.0
  0
LINE
  5
6A2
330
2
100
AcDbEntity
  8
0
100
AcDbLine
 10
527.4494642623292
 20
82.911238509328
 30
0.0
 11
529.0123612623292
 21
79.27987250932801
 31
0.0
  0
LINE
  5
6A3
330
2
100
AcDbEntity
  8
0
100
AcDbLine
 10
525.3165602623291
 20
82.911238509328
 30
0.0
 11
527.4494642623292
 21
82.911238509328
 31
0.0
  0
LINE
  5
6A4
330
2
100
AcDbEntity
  8
0
100
AcDbLine
 10
523.6765612623293
 20
79.27987250932801
 30
0.0
 11
523.6765612623293
 21
78.238631509328
 31
0.0
  0
LINE
  5
6A5
330
2
100
AcDbEntity
  8
0
100
AcDbLine
 10
525.7720502623292
 20
79.27987250932801
 30
0.0
 11
525.7720502623292
 21
78.238631509328
 31
0.0
  0
LINE
  5
6A6
330
2
100
AcDbEntity
  8
0
100
AcDbLine
 10
525.7720502623292
 20
78.238631509328
 30
0.0
 11
523.6765612623293
 21
78.238631509328
 31
0.0
  0
LINE
  5
6A7
330
2
100
AcDbEntity
  8
0
100
AcDbLine
 10
525.3165602623291
 20
79.27987250932801
 30
0.0
 11
525.7720502623292
 21
79.27987250932801
 31
0.0
  0
LINE
  5
6A8
330
2
100
AcDbEntity
  8
0
100
AcDbLine
 10
523.6765612623293
 20
79.27987250932801
 30
0.0
 11
524.1711592623293
 21
79.27987250932801
 31
0.0
  0
LINE
  5
6A9
330
2
100
AcDbEntity
  8
0
100
AcDbLine
 10
525.3165602623291
 20
82.911238509328
 30
0.0
 11
525.3165602623291
 21
79.27987250932801
 31
0.0
  0
LINE
  5
6AA
330
2
100
AcDbEntity
  8
0
100
AcDbLine
 10
528.8047502623292
 20
79.27987250932801
 30
0.0
 11
528.8047502623292
 21
78.238631509328
 31
0.0
  0
LINE
  5
6AB
330
2
100
AcDbEntity
  8
0
100
AcDbLine
 10
530.3405622623293
 20
79.27987250932801
 30
0.0
 11
530.3405622623293
 21
78.238631509328
 31
0.0
  0
LINE
  5
6AC
330
2
100
AcDbEntity
  8
0
100
AcDbLine
 10
528.8047502623292
 20
78.238631509328
 30
0.0
 11
530.3405622623293
 21
78.238631509328
 31
0.0
  0
LINE
  5
6AD
330
2
100
AcDbEntity
  8
0
100
AcDbLine
 10
530.0600602623291
 20
79.27987250932801
 30
0.0
 11
530.3405622623293
 21
79.27987250932801
 31
0.0
  0
LINE
  5
6AE
330
2
100
AcDbEntity
  8
0
100
AcDbLine
 10
528.8047502623292
 20
79.27987250932801
 30
0.0
 11
529.0123612623292
 21
79.27987250932801
 31
0.0
  0
LINE
  5
6AF
330
2
100
AcDbEntity
  8
0
100
AcDbLine
 10
528.4086622623292
 20
83.001815509328
 30
0.0
 11
530.0600602623291
 21
79.27987250932801
 31
0.0
  0
LINE
  5
6B0
330
2
100
AcDbEntity
  8
0
100
AcDbLine
 10
525.3165602623291
 20
87.01114950932799
 30
0.0
 11
528.4262562623292
 21
87.009139509328
 31
0.0
  0
ARC
  5
6B1
330
2
100
AcDbEntity
  8
0
100
AcDbCircle
 10
527.6723502623292
 20
85.56642050932799
 30
0.0
 40
1.627785999999999
100
AcDbArc
 50
277.4147260000004
 51
62.41184999999949
  0
LINE
  5
6B2
330
2
100
AcDbEntity
  8
0
100
AcDbLine
 10
523.6765612623293
 20
87.01114950932799
 30
0.0
 11
524.1711592623293
 21
87.01114950932799
 31
0.0
  0
LINE
  5
6B3
330
2
100
AcDbEntity
  8
0
100
AcDbLine
 10
525.3165602623291
 20
87.01114950932799
 30
0.0
 11
525.3165602623291
 21
83.95223950932802
 31
0.0
  0
LINE
  5
6B4
330
2
100
AcDbEntity
  8
0
100
AcDbLine
 10
523.6765612623293
 20
88.23461450932802
 30
0.0
 11
523.6765612623293
 21
87.01114950932799
 31
0.0
  0
LINE
  5
6B5
330
2
100
AcDbEntity
  8
0
100
AcDbLine
 10
527.8824632623292
 20
83.95223950932802
 30
0.0
 11
525.3165602623291
 21
83.95223950932802
 31
0.0
  0
LINE
  5
6B6
330
2
100
AcDbEntity
  8
0
100
AcDbLine
 10
523.6765612623293
 20
88.23461450932802
 30
0.0
 11
527.6723502623292
 21
88.23461450932802
 31
0.0
  0
ARC
  5
6B7
330
2
100
AcDbEntity
  8
0
100
AcDbCircle
 10
548.8018512623292
 20
58.23862950932801
 30
0.0
 40
8.0
100
AcDbArc
 50
270.0
 51
352.0303960000002
  0
ARC
  5
6B8
330
2
100
AcDbEntity
  8
0
100
AcDbCircle
 10
554.3018512623292
 20
61.938651509328
 30
0.0
 40
5.0
100
AcDbArc
 50
0.0
 51
90.0
  0
ARC
  5
6B9
330
2
100
AcDbEntity
  8
0
100
AcDbCircle
 10
561.3018512623292
 20
55.938630509328
 30
0.0
 40
2.0
100
AcDbArc
 50
180.0
 51
270.0
  0
LINE
  5
6BA
330
2
100
AcDbEntity
  8
0
100
AcDbLine
 10
559.3018512623292
 20
55.938630509328
 30
0.0
 11
559.3018512623292
 21
61.93863950932803
 31
0.0
  0
LINE
  5
6BB
330
2
100
AcDbEntity
  8
0
100
AcDbLine
 10
556.7245502623292
 20
57.12943050932802
 30
0.0
 11
557.8859572623293
 21
65.42492950932802
 31
0.0
  0
CIRCLE
  5
6BC
330
2
100
AcDbEntity
  8
0
100
AcDbCircle
 10
548.8018512623292
 20
58.23862950932801
 30
0.0
 40
3.25
  0
LINE
  5
6BF
330
2
100
AcDbEntity
  8
0
100
AcDbLine
 10
548.6274582623292
 20
66.93863050932799
 30
0.0
 11
554.3018512623292
 21
66.93863050932799
 31
0.0
  0
ARC
  5
6C0
330
2
100
AcDbEntity
  8
0
100
AcDbCircle
 10
548.6274582623292
 20
61.93863950932803
 30
0.0
 40
5.0
100
AcDbArc
 50
90.0
 51
125.0621029999997
  0
LINE
  5
6C1
330
2
100
AcDbEntity
  8
0
100
AcDbLine
 10
533.0946522623293
 20
145.331286509328
 30
0.0
 11
559.3018512623292
 21
126.938632509328
 31
0.0
  0
LINE
  5
6C2
330
2
100
AcDbEntity
  8
CENTER
100
AcDbLine
 10
546.8018512623292
 20
114.238627509328
 30
0.0
 11
486.8018512623292
 21
114.238627509328
 31
0.0
  0
LINE
  5
6C3
330
2
100
AcDbEntity
  8
0
100
AcDbLine
 10
548.8018512623292
 20
152.238627509328
 30
0.0
 11
484.8018512623292
 21
152.238627509328
 31
0.0
  0
LINE
  5
6C4
330
2
100
AcDbEntity
  8
0
100
AcDbLine
 10
500.5090502623293
 20
145.331286509328
 30
0.0
 11
474.3018512623292
 21
126.938632509328
 31
0.0
  0
LINE
  5
6C5
330
2
100
AcDbEntity
  8
0
100
AcDbLine
 10
476.8791522623293
 20
145.347789509328
 30
0.0
 11
474.3018512623292
 21
126.938632509328
 31
0.0
  0
CIRCLE
  5
6C6
330
2
100
AcDbEntity
  8
0
100
AcDbCircle
 10
484.8018512623292
 20
144.238627509328
 30
0.0
 40
3.25
  0
ARC
  5
6C8
330
2
100
AcDbEntity
  8
0
100
AcDbCircle
 10
516.8018512623292
 20
114.238627509328
 30
0.0
 40
7.5
100
AcDbArc
 50
199.4712070000002
 51
160.5287929999997
  0
LINE
  5
6C9
330
2
100
AcDbEntity
  8
0
100
AcDbLine
 10
512.3018512623292
 20
111.738627509328
 30
0.0
 11
512.3018512623292
 21
116.738627509328
 31
0.0
  0
LINE
  5
6CA
330
2
100
AcDbEntity
  8
0
100
AcDbLine
 10
507.3018512623292
 20
116.738627509328
 30
0.0
 11
507.3018512623292
 21
111.738627509328
 31
0.0
  0
LINE
  5
6CB
330
2
100
AcDbEntity
  8
0
100
AcDbLine
 10
512.3018512623292
 20
111.738627509328
 30
0.0
 11
507.3018512623292
 21
111.738627509328
 31
0.0
  0
LINE
  5
6CC
330
2
100
AcDbEntity
  8
0
100
AcDbLine
 10
512.3018512623292
 20
116.738627509328
 30
0.0
 11
507.3018512623292
 21
116.738627509328
 31
0.0
  0
LINE
  5
6CD
330
2
100
AcDbEntity
  8
0
100
AcDbLine
 10
503.3813642623292
 20
146.238627509328
 30
0.0
 11
530.2223532623293
 21
146.238627509328
 31
0.0
  0
ARC
  5
6CF
330
2
100
AcDbEntity
  8
0
100
AcDbCircle
 10
484.8018512623292
 20
144.238627509328
 30
0.0
 40
8.0
100
AcDbArc
 50
90.0
 51
172.0303040000002
  0
ARC
  5
6D0
330
2
100
AcDbEntity
  8
0
100
AcDbCircle
 10
503.3813642623292
 20
141.238643509328
 30
0.0
 40
5.0
100
AcDbArc
 50
90.0
 51
125.0621029999997
  0
ARC
  5
6D1
330
2
100
AcDbEntity
  8
0
100
AcDbCircle
 10
530.2224592623292
 20
141.238627509328
 30
0.0
 40
5.0
100
AcDbArc
 50
54.93822100000026
 51
90.0
  0
LINE
  5
6D2
330
2
100
AcDbEntity
  8
0
100
AcDbLine
 10
556.7245502623292
 20
145.347781509328
 30
0.0
 11
559.3018512623292
 21
126.938632509328
 31
0.0
  0
CIRCLE
  5
6D3
330
2
100
AcDbEntity
  8
0
100
AcDbCircle
 10
548.8018512623292
 20
144.238627509328
 30
0.0
 40
3.25
  0
LINE
  5
6D4
330
2
100
AcDbEntity
  8
CENTER
100
AcDbLine
 10
548.8018512623292
 20
138.394831509328
 30
0.0
 11
548.8018512623292
 21
150.082423509328
 31
0.0
  0
ARC
  5
6D5
330
2
100
AcDbEntity
  8
0
100
AcDbCircle
 10
548.8018512623292
 20
144.238627509328
 30
0.0
 40
8.0
100
AcDbArc
 50
7.969497999999941
 51
90.0
  0
LINE
  5
6D6
330
2
100
AcDbEntity
  8
CENTER
100
AcDbLine
 10
542.9580552623292
 20
144.238627509328
 30
0.0
 11
554.6456472623292
 21
144.238627509328
 31
0.0
  0
LINE
  5
6D7
330
2
100
AcDbEntity
  8
0
100
AcDbLine
 10
690.3018512623292
 20
56.93863050932799
 30
0.0
 11
690.3018512623292
 21
126.938632509328
 31
0.0
  0
LINE
  5
6D8
330
2
100
AcDbEntity
  8
0
100
AcDbLine
 10
641.3018512623292
 20
51.93863050932801
 30
0.0
 11
641.3018512623292
 21
131.938632509328
 31
0.0
  0
LINE
  5
6D9
330
2
100
AcDbEntity
  8
0
100
AcDbLine
 10
631.8018512623292
 20
53.938630509328
 30
0.0
 11
631.8018512623292
 21
129.938632509328
 31
0.0
  0
LINE
  5
6DA
330
2
100
AcDbEntity
  8
0
100
AcDbLine
 10
687.8018512623292
 20
65.938630509328
 30
0.0
 11
641.3018512623292
 21
65.938630509328
 31
0.0
  0
ARC
  5
6DB
330
2
100
AcDbEntity
  8
0
100
AcDbCircle
 10
685.3018512623292
 20
56.93863050932799
 30
0.0
 40
5.0
100
AcDbArc
 50
270.0
 51
0.0
  0
LINE
  5
6DC
330
2
100
AcDbEntity
  8
0
100
AcDbLine
 10
685.3018512623292
 20
51.93863050932801
 30
0.0
 11
641.3018512623292
 21
51.93863050932801
 31
0.0
  0
LINE
  5
6DD
330
2
100
AcDbEntity
  8
0
100
AcDbLine
 10
641.3018512623292
 20
61.689629509328
 30
0.0
 11
631.8018512623292
 21
61.689629509328
 31
0.0
  0
LINE
  5
6DE
330
2
100
AcDbEntity
  8
0
100
AcDbLine
 10
641.3018512623292
 20
53.938630509328
 30
0.0
 11
631.8018512623292
 21
53.938630509328
 31
0.0
  0
LINE
  5
6DF
330
2
100
AcDbEntity
  8
0
100
AcDbLine
 10
687.8018512623292
 20
115.938632509328
 30
0.0
 11
641.3018512623292
 21
115.938632509328
 31
0.0
  0
ARC
  5
6E0
330
2
100
AcDbEntity
  8
0
100
AcDbCircle
 10
685.3018512623292
 20
126.938647509328
 30
0.0
 40
5.0
100
AcDbArc
 50
0.0
 51
90.0
  0
LINE
  5
6E5
330
2
100
AcDbEntity
  8
0
100
AcDbLine
 10
685.3018512623292
 20
131.938632509328
 30
0.0
 11
641.3018512623292
 21
131.938632509328
 31
0.0
  0
LINE
  5
6E6
330
2
100
AcDbEntity
  8
0
100
AcDbLine
 10
641.3018512623292
 20
122.187632509328
 30
0.0
 11
631.8018512623292
 21
122.187632509328
 31
0.0
  0
LINE
  5
6E8
330
2
100
AcDbEntity
  8
0
100
AcDbLine
 10
641.3018512623292
 20
129.938632509328
 30
0.0
 11
631.8018512623292
 21
129.938632509328
 31
0.0
  0
LINE
  5
6EE
330
2
100
AcDbEntity
  8
0
100
AcDbLine
 10
141.8031159720902
 20
266.5908795953615
 30
0.0
 11
172.8581579720902
 21
266.5908795953615
 31
0.0
  0
LINE
  5
6EF
330
2
100
AcDbEntity
  8
0
100
AcDbLine
 10
171.7897069720901
 20
251.5908795953615
 30
0.0
 11
100.8033179720902
 21
251.5908795953615
 31
0.0
  0
LINE
  5
6F0
330
2
100
AcDbEntity
  8
0
100
AcDbLine
 10
141.8033139720902
 20
312.5908795953615
 30
0.0
 11
176.7229959720902
 21
312.5908795953615
 31
0.0
  0
LINE
  5
6F1
330
2
100
AcDbEntity
  8
0
100
AcDbLine
 10
171.17169597209
 20
327.5908795953615
 30
0.0
 11
100.8033179720902
 21
327.5908795953615
 31
0.0
  0
LINE
  5
6F2
330
2
100
AcDbEntity
  8
0
100
AcDbLine
 10
256.49510597209
 20
318.6432325953615
 30
0.0
 11
258.3033179720902
 21
249.5908795953615
 31
0.0
  0
LINE
  5
6F3
330
2
100
AcDbEntity
  8
0
100
AcDbLine
 10
177.5779309720901
 20
259.7721235953615
 30
0.0
 11
177.5779309720901
 21
310.5911545953615
 31
0.0
  0
LINE
  5
6F4
330
2
100
AcDbEntity
  8
0
100
AcDbLine
 10
200.8033179720902
 20
259.5908795953615
 30
0.0
 11
200.8033179720902
 21
318.6257765953615
 31
0.0
  0
LINE
  5
6F5
330
2
100
AcDbEntity
  8
0
100
AcDbLine
 10
230.8033179720902
 20
259.5908795953615
 30
0.0
 11
230.8033179720902
 21
318.6257765953615
 31
0.0
  0
LINE
  5
6F6
330
2
100
AcDbEntity
  8
CENTER
100
AcDbLine
 10
215.80331797209
 20
363.5908795953614
 30
0.0
 11
215.8033179720902
 21
239.5908795953615
 31
0.0
  0
LINE
  5
6F7
330
2
100
AcDbEntity
  8
0
100
AcDbLine
 10
254.4957919720901
 20
320.5908795953614
 30
0.0
 11
175.2516209720901
 21
320.5908795953614
 31
0.0
  0
LINE
  5
6F8
330
2
100
AcDbEntity
  8
0
100
AcDbLine
 10
222.8743169720902
 20
329.5908795953615
 30
0.0
 11
222.8743169720902
 21
353.5908795953615
 31
0.0
  0
LINE
  5
6F9
330
2
100
AcDbEntity
  8
0
100
AcDbLine
 10
225.3033179720902
 20
329.5908795953615
 30
0.0
 11
225.3033179720902
 21
353.5908795953615
 31
0.0
  0
LINE
  5
6FA
330
2
100
AcDbEntity
  8
0
100
AcDbLine
 10
208.3033179720902
 20
353.5908795953615
 30
0.0
 11
208.3033179720902
 21
326.5908795953615
 31
0.0
  0
LINE
  5
6FB
330
2
100
AcDbEntity
  8
0
100
AcDbLine
 10
208.3033179720902
 20
353.5908795953615
 30
0.0
 11
225.3033179720902
 21
353.5908795953615
 31
0.0
  0
LINE
  5
6FC
330
2
100
AcDbEntity
  8
0
100
AcDbLine
 10
234.8033179720902
 20
324.5908795953615
 30
0.0
 11
196.8033179720902
 21
324.5908795953615
 31
0.0
  0
ARC
  5
6FD
330
2
100
AcDbEntity
  8
0
100
AcDbCircle
 10
254.4957919720901
 20
318.5908795953614
 30
0.0
 40
2.0
100
AcDbArc
 50
1.500000000000234
 51
90.0
  0
LINE
  5
6FE
330
2
100
AcDbEntity
  8
0
100
AcDbLine
 10
235.8033179720901
 20
323.5908795953615
 30
0.0
 11
235.8033179720901
 21
320.5908795953614
 31
0.0
  0
ARC
  5
6FF
330
2
100
AcDbEntity
  8
0
100
AcDbCircle
 10
234.80331797209
 20
323.5908795953615
 30
0.0
 40
1.0
100
AcDbArc
 50
0.0
 51
90.0
  0
LINE
  5
700
330
2
100
AcDbEntity
  8
0
100
AcDbLine
 10
207.3033179720902
 20
326.5908795953615
 30
0.0
 11
224.3033179720902
 21
326.5908795953615
 31
0.0
  0
LINE
  5
701
330
2
100
AcDbEntity
  8
0
100
AcDbLine
 10
223.3033179720901
 20
329.5908795953615
 30
0.0
 11
223.3033179720901
 21
326.5908795953615
 31
0.0
  0
LINE
  5
702
330
2
100
AcDbEntity
  8
0
100
AcDbLine
 10
222.8743169720902
 20
329.5908795953615
 30
0.0
 11
225.3033179720902
 21
329.5908795953615
 31
0.0
  0
LINE
  5
703
330
2
100
AcDbEntity
  8
0
100
AcDbLine
 10
224.3033179720902
 20
326.5908795953615
 30
0.0
 11
224.3033179720902
 21
324.5908795953615
 31
0.0
  0
LINE
  5
704
330
2
100
AcDbEntity
  8
0
100
AcDbLine
 10
207.3033179720902
 20
326.5908795953615
 30
0.0
 11
207.3033179720902
 21
324.5908795953615
 31
0.0
  0
LINE
  5
705
330
2
100
AcDbEntity
  8
0
100
AcDbLine
 10
195.8033179720901
 20
323.5908795953615
 30
0.0
 11
195.8033179720901
 21
320.5908795953614
 31
0.0
  0
ARC
  5
706
330
2
100
AcDbEntity
  8
0
100
AcDbCircle
 10
196.8033179720901
 20
323.5908795953615
 30
0.0
 40
1.0
100
AcDbArc
 50
90.0
 51
180.0
  0
LINE
  5
707
330
2
100
AcDbEntity
  8
0
100
AcDbLine
 10
173.0939059720901
 20
312.5936105953615
 30
0.0
 11
173.2523229720901
 21
318.6432325953615
 31
0.0
  0
ARC
  5
708
330
2
100
AcDbEntity
  8
0
100
AcDbCircle
 10
175.2516209720901
 20
318.5908795953615
 30
0.0
 40
2.0
100
AcDbArc
 50
90.0
 51
178.4999999999997
  0
ARC
  5
709
330
2
100
AcDbEntity
  8
0
100
AcDbCircle
 10
175.2516209720901
 20
322.5908795953615
 30
0.0
 40
2.0
100
AcDbArc
 50
181.5000000000002
 51
270.0
  0
ARC
  5
70A
330
2
100
AcDbEntity
  8
0
100
AcDbCircle
 10
171.17169597209
 20
325.5908795953615
 30
0.0
 40
2.0
100
AcDbArc
 50
1.500000000000234
 51
90.0
  0
LINE
  5
70B
330
2
100
AcDbEntity
  8
0
100
AcDbLine
 10
173.1710239720902
 20
325.6432325953615
 30
0.0
 11
173.2523229720901
 21
322.5385265953615
 31
0.0
  0
LINE
  5
70C
330
2
100
AcDbEntity
  8
0
100
AcDbLine
 10
173.3033179720902
 20
249.5908795953615
 30
0.0
 11
258.3033179720902
 21
249.5908795953615
 31
0.0
  0
LINE
  5
70D
330
2
100
AcDbEntity
  8
0
100
AcDbLine
 10
174.09416597209
 20
258.5908795953615
 30
0.0
 11
257.09347897209
 21
258.5908795953615
 31
0.0
  0
LINE
  5
70E
330
2
100
AcDbEntity
  8
CENTER
100
AcDbLine
 10
247.8033179720902
 20
244.5908795953615
 30
0.0
 11
247.8033179720902
 21
263.5908795953615
 31
0.0
  0
LINE
  5
70F
330
2
100
AcDbEntity
  8
0
100
AcDbLine
 10
200.8033179720902
 20
259.9108865953615
 30
0.0
 11
230.8033179720902
 21
259.9108865953615
 31
0.0
  0
ARC
  5
710
330
2
100
AcDbEntity
  8
0
100
AcDbCircle
 10
257.09347897209
 20
257.5908795953614
 30
0.0
 40
1.0
100
AcDbArc
 50
1.500000000000234
 51
90.0
  0
LINE
  5
711
330
2
100
AcDbEntity
  8
0
100
AcDbLine
 10
255.7260169720901
 20
249.5908795953615
 30
0.0
 11
255.7260169720901
 21
257.2805765953615
 31
0.0
  0
LINE
  5
712
330
2
100
AcDbEntity
  8
HIDS
  6
SEKKEI_H
100
AcDbLine
 10
251.0533179720902
 20
258.5908795953615
 30
0.0
 11
251.0533179720902
 21
249.5908795953615
 31
0.0
  0
ARC
  5
713
330
2
100
AcDbEntity
  8
0
100
AcDbCircle
 10
231.8033179720901
 20
259.5908795953615
 30
0.0
 40
1.0
100
AcDbArc
 50
180.0
 51
270.0
  0
LINE
  5
714
330
2
100
AcDbEntity
  8
HIDS
  6
SEKKEI_H
100
AcDbLine
 10
244.5533179720902
 20
258.5908795953615
 30
0.0
 11
244.5533179720902
 21
249.5908795953615
 31
0.0
  0
ARC
  5
715
330
2
100
AcDbEntity
  8
0
100
AcDbCircle
 10
199.80331797209
 20
259.5908795953615
 30
0.0
 40
1.0
100
AcDbArc
 50
270.0
 51
0.0
  0
LINE
  5
716
330
2
100
AcDbEntity
  8
CENTER
100
AcDbLine
 10
183.8033179720902
 20
244.5908795953615
 30
0.0
 11
183.80331797209
 21
263.5908795953615
 31
0.0
  0
LINE
  5
717
330
2
100
AcDbEntity
  8
0
100
AcDbLine
 10
172.25586297209
 20
289.5908795953615
 30
0.0
 11
173.3033179720902
 21
249.5908795953615
 31
0.0
  0
ARC
  5
718
330
2
100
AcDbEntity
  8
0
100
AcDbCircle
 10
171.7897069720901
 20
250.0908795953615
 30
0.0
 40
1.5
100
AcDbArc
 50
1.500000000000234
 51
90.0
  0
ARC
  5
719
330
2
100
AcDbEntity
  8
0
100
AcDbCircle
 10
174.09416597209
 20
257.5908795953615
 30
0.0
 40
1.0
100
AcDbArc
 50
90.0
 51
181.4999989999997
  0
LINE
  5
71A
330
2
100
AcDbEntity
  8
HIDS
  6
SEKKEI_H
100
AcDbLine
 10
187.0533179720902
 20
258.5908795953615
 30
0.0
 11
187.0533179720902
 21
249.5908795953615
 31
0.0
  0
LINE
  5
71B
330
2
100
AcDbEntity
  8
HIDS
  6
SEKKEI_H
100
AcDbLine
 10
180.5533179720902
 20
258.5908795953615
 30
0.0
 11
180.5533179720902
 21
249.5908795953615
 31
0.0
  0
LINE
  5
71C
330
2
100
AcDbEntity
  8
0
100
AcDbLine
 10
175.8806189720901
 20
249.5908795953615
 30
0.0
 11
175.8806189720901
 21
257.2805765953615
 31
0.0
  0
LINE
  5
71D
330
2
100
AcDbEntity
  8
0
100
AcDbLine
 10
42.3033179720901
 20
254.5908795953615
 30
0.0
 11
42.3033179720901
 21
324.5908795953615
 31
0.0
  0
LINE
  5
71E
330
2
100
AcDbEntity
  8
0
100
AcDbLine
 10
91.30331797209022
 20
249.5908795953615
 30
0.0
 11
91.30331797209022
 21
282.0908795953615
 31
0.0
  0
LINE
  5
723
330
2
100
AcDbEntity
  8
0
100
AcDbLine
 10
44.8033179720901
 20
313.5908795953615
 30
0.0
 11
91.30331797209022
 21
313.5908795953615
 31
0.0
  0
ARC
  5
724
330
2
100
AcDbEntity
  8
0
100
AcDbCircle
 10
47.3033179720901
 20
324.5908945953615
 30
0.0
 40
5.0
100
AcDbArc
 50
90.0
 51
180.0
  0
LINE
  5
725
330
2
100
AcDbEntity
  8
0
100
AcDbLine
 10
47.3033179720901
 20
329.5908795953615
 30
0.0
 11
91.30331797209022
 21
329.5908795953615
 31
0.0
  0
LINE
  5
726
330
2
100
AcDbEntity
  8
0
100
AcDbLine
 10
100.8033179720902
 20
314.5908795953614
 30
0.0
 11
100.8033179720902
 21
327.5908795953615
 31
0.0
  0
LINE
  5
727
330
2
100
AcDbEntity
  8
0
100
AcDbLine
 10
91.30331797209022
 20
327.5908795953615
 30
0.0
 11
100.8033179720902
 21
327.5908795953615
 31
0.0
  0
LINE
  5
729
330
2
100
AcDbEntity
  8
0
100
AcDbLine
 10
91.30331797209022
 20
312.5908795953615
 30
0.0
 11
91.80320697209028
 21
312.5908795953615
 31
0.0
  0
LINE
  5
72C
330
2
100
AcDbEntity
  8
0
100
AcDbLine
 10
44.8033179720901
 20
263.5908795953615
 30
0.0
 11
91.30331797209022
 21
263.5908795953615
 31
0.0
  0
ARC
  5
72D
330
2
100
AcDbEntity
  8
0
100
AcDbCircle
 10
47.3033179720901
 20
254.5908795953615
 30
0.0
 40
5.0
100
AcDbArc
 50
180.0
 51
270.0
  0
LINE
  5
72E
330
2
100
AcDbEntity
  8
0
100
AcDbLine
 10
47.3033179720901
 20
249.5908795953615
 30
0.0
 11
91.30331797209022
 21
249.5908795953615
 31
0.0
  0
LINE
  5
72F
330
2
100
AcDbEntity
  8
0
100
AcDbLine
 10
100.8033179720902
 20
251.5908795953615
 30
0.0
 11
100.8033179720902
 21
264.5908795953615
 31
0.0
  0
LINE
  5
737
330
2
100
AcDbEntity
  8
0
100
AcDbLine
 10
91.30331797209022
 20
266.5908795953615
 30
0.0
 11
91.80320697209028
 21
266.5908795953615
 31
0.0
  0
LINE
  5
738
330
2
100
AcDbEntity
  8
0
100
AcDbLine
 10
91.30331797209022
 20
251.5908795953615
 30
0.0
 11
100.8033179720902
 21
251.5908795953615
 31
0.0
  0
ARC
  5
739
330
2
100
AcDbEntity
  8
0
100
AcDbCircle
 10
91.30331797209009
 20
257.8149395953615
 30
0.0
 40
4.5
100
AcDbArc
 50
0.0
 51
90.0
  0
ARC
  5
73A
330
2
100
AcDbEntity
  8
0
100
AcDbCircle
 10
91.30331797209009
 20
257.8149395953615
 30
0.0
 40
3.0
100
AcDbArc
 50
0.0
 51
90.0
  0
ARC
  5
73B
330
2
100
AcDbEntity
  8
0
100
AcDbCircle
 10
91.30331797209009
 20
257.8149395953615
 30
0.0
 40
1.5
100
AcDbArc
 50
0.0
 51
90.0
  0
LINE
  5
73C
330
2
100
AcDbEntity
  8
HOJO
100
AcDbLine
 10
92.80569797209011
 20
253.5768415953615
 30
0.0
 11
94.30331797209021
 21
252.7781355953615
 31
0.0
  0
LINE
  5
73D
330
2
100
AcDbEntity
  8
0
100
AcDbLine
 10
94.30331797209021
 20
257.8149395953615
 30
0.0
 11
94.30331797209021
 21
252.7781355953615
 31
0.0
  0
LINE
  5
73E
330
2
100
AcDbEntity
  8
HOJO
100
AcDbLine
 10
94.30331797209021
 20
253.8128335953615
 30
0.0
 11
95.80331797209021
 21
254.5920395953615
 31
0.0
  0
LINE
  5
73F
330
2
100
AcDbEntity
  8
0
100
AcDbLine
 10
95.80331797209021
 20
257.8149395953615
 30
0.0
 11
95.80331797209021
 21
254.5920395953615
 31
0.0
  0
LINE
  5
740
330
2
100
AcDbEntity
  8
0
100
AcDbLine
 10
92.8033179720902
 20
257.8149395953615
 30
0.0
 11
92.8033179720902
 21
253.5723245953615
 31
0.0
  0
LINE
  5
870
330
2
100
AcDbEntity
  8
CENTER
100
AcDbLine
 10
484.8018512623292
 20
138.394831509328
 30
0.0
 11
484.8018512623292
 21
150.082423509328
 31
0.0
  0
LINE
  5
871
330
2
100
AcDbEntity
  8
CENTER
100
AcDbLine
 10
478.9580552623292
 20
144.238627509328
 30
0.0
 11
490.6456472623292
 21
144.238627509328
 31
0.0
  0
LINE
  5
872
330
2
100
AcDbEntity
  8
CENTER
100
AcDbLine
 10
484.8018512623292
 20
52.394833509328
 30
0.0
 11
484.8018512623292
 21
64.08242550932801
 31
0.0
  0
LINE
  5
873
330
2
100
AcDbEntity
  8
CENTER
100
AcDbLine
 10
478.9580552623292
 20
58.23862950932801
 30
0.0
 11
490.6456472623292
 21
58.23862950932801
 31
0.0
  0
LINE
  5
874
330
2
100
AcDbEntity
  8
CENTER
100
AcDbLine
 10
548.8018512623292
 20
52.394833509328
 30
0.0
 11
548.8018512623292
 21
64.08242550932801
 31
0.0
  0
LINE
  5
875
330
2
100
AcDbEntity
  8
CENTER
100
AcDbLine
 10
542.9580552623292
 20
58.23862950932801
 30
0.0
 11
554.6456472623292
 21
58.23862950932801
 31
0.0
  0
TEXT
  5
87B
330
2
100
AcDbEntity
  8
TITLE
100
AcDbText
 10
320.3264330337657
 20
298.3810574955945
 30
0.0
 40
5.0
  1
HFMN-15L-10~240-T15WT
 41
0.8
100
AcDbText
  0
TEXT
  5
87C
330
2
100
AcDbEntity
  8
TITLE
100
AcDbText
 10
320.3264330337657
 20
290.3810574955945
 30
0.0
 40
5.0
  1
HFMN-15L-10~240-T25T
 41
0.8
100
AcDbText
  0
TEXT
  5
87D
330
2
100
AcDbEntity
  8
TITLE
100
AcDbText
 10
320.3264330337657
 20
282.3810574955945
 30
0.0
 40
5.0
  1
HFMN-15L-10~240-T25WT
 41
0.8
100
AcDbText
  0
TEXT
  5
87E
330
2
100
AcDbEntity
  8
TITLE
100
AcDbText
 10
320.3264330337657
 20
266.3810574955945
 30
0.0
 40
5.0
  1
HFMN-15L-10~120-T40WT
 41
0.8
100
AcDbText
  0
TEXT
  5
87F
330
2
100
AcDbEntity
  8
TITLE
100
AcDbText
 10
320.3264330337657
 20
274.3810574955945
 30
0.0
 40
5.0
  1
HFMN-15L-10~120-T40T
 41
0.8
100
AcDbText
  0
TEXT
  5
880
330
2
100
AcDbEntity
  8
TITLE
100
AcDbText
 10
412.6569644102204
 20
274.3810574955945
 30
0.0
 40
5.0
  1
HFMN-15L-10~120-S40T
 41
0.8
100
AcDbText
  0
TEXT
  5
881
330
2
100
AcDbEntity
  8
TITLE
100
AcDbText
 10
412.6569644102204
 20
266.3810574955945
 30
0.0
 40
5.0
  1
HFMN-15L-10~120-S40WT
 41
0.8
100
AcDbText
  0
TEXT
  5
882
330
2
100
AcDbEntity
  8
TITLE
100
AcDbText
 10
412.6569644102204
 20
306.3810574955945
 30
0.0
 40
5.0
  1
HFMN-15L-10~240-S15T
 41
0.8
100
AcDbText
  0
TEXT
  5
883
330
2
100
AcDbEntity
  8
TITLE
100
AcDbText
 10
412.6569644102204
 20
282.3810574955945
 30
0.0
 40
5.0
  1
HFMN-15L-10~240-S25WT
 41
0.8
100
AcDbText
  0
TEXT
  5
884
330
2
100
AcDbEntity
  8
TITLE
100
AcDbText
 10
412.6569644102204
 20
290.3810574955945
 30
0.0
 40
5.0
  1
HFMN-15L-10~240-S25T
 41
0.8
100
AcDbText
  0
TEXT
  5
885
330
2
100
AcDbEntity
  8
TITLE
100
AcDbText
 10
412.6569644102204
 20
298.3810574955945
 30
0.0
 40
5.0
  1
HFMN-15L-10~240-S15WT
 41
0.8
100
AcDbText
  0
TEXT
  5
887
330
2
100
AcDbEntity
  8
TITLE
100
AcDbText
 10
320.3264330337657
 20
258.3810574955945
 30
0.0
 40
5.0
  1
HFMN-15L-10~60-T60T
 41
0.8
100
AcDbText
  0
ARC
  5
92E
330
2
100
AcDbEntity
  8
0
100
AcDbCircle
 10
183.8033179720902
 20
144.238627509328
 30
0.0
 40
8.0
100
AcDbArc
 50
262.0304029999989
 51
0.0
  0
ARC
  5
92F
330
2
100
AcDbEntity
  8
0
100
AcDbCircle
 10
183.8033179720902
 20
58.23862350932799
 30
0.0
 40
8.0
100
AcDbArc
 50
0.0
 51
97.96981799999903
  0
LINE
  5
930
330
2
100
AcDbEntity
  8
CENTER
100
AcDbLine
 10
32.30331497209022
 20
91.93862450932801
 30
0.0
 11
191.1033209720902
 21
91.93862450932801
 31
0.0
  0
LINE
  5
931
330
2
100
AcDbEntity
  8
0
100
AcDbLine
 10
183.8033179720902
 20
50.23862350932799
 30
0.0
 11
247.8033179720902
 21
50.23862350932799
 31
0.0
  0
LINE
  5
932
330
2
100
AcDbEntity
  8
0
100
AcDbLine
 10
183.8033179720902
 20
152.238627509328
 30
0.0
 11
247.8033179720902
 21
152.238627509328
 31
0.0
  0
ARC
  5
933
330
2
100
AcDbEntity
  8
0
100
AcDbCircle
 10
215.8033179720902
 20
101.2386235093279
 30
0.0
 40
42.5
100
AcDbArc
 50
19.74990099999923
 51
160.2501069999999
  0
ARC
  5
934
330
2
100
AcDbEntity
  8
0
100
AcDbCircle
 10
215.8033179720902
 20
101.2386235093279
 30
0.0
 40
42.5
100
AcDbArc
 50
199.7498929999999
 51
340.2500920000002
  0
LINE
  5
935
330
2
100
AcDbEntity
  8
CENTER
100
AcDbLine
 10
185.8033179720902
 20
114.238627509328
 30
0.0
 11
245.8033179720902
 21
114.238627509328
 31
0.0
  0
LINE
  5
936
330
2
100
AcDbEntity
  8
CENTER
100
AcDbLine
 10
183.8033179720902
 20
138.394923509328
 30
0.0
 11
183.8033179720902
 21
150.0823315093279
 31
0.0
  0
LINE
  5
937
330
2
100
AcDbEntity
  8
0
100
AcDbLine
 10
175.8806189720902
 20
145.3477735093279
 30
0.0
 11
173.3033179720902
 21
126.938624509328
 31
0.0
  0
LINE
  5
93C
330
2
100
AcDbEntity
  8
0
100
AcDbLine
 10
100.8033139720902
 20
129.938624509328
 30
0.0
 11
173.7233159720902
 21
129.938624509328
 31
0.0
  0
LINE
  5
93D
330
2
100
AcDbEntity
  8
0
100
AcDbLine
 10
171.3033179720902
 20
53.93862350932801
 30
0.0
 11
100.8033139720902
 21
53.93862350932801
 31
0.0
  0
LINE
  5
93E
330
2
100
AcDbEntity
  8
0
100
AcDbLine
 10
100.8033139720902
 20
122.1875945093279
 30
0.0
 11
172.5533179720902
 21
122.1875945093279
 31
0.0
  0
LINE
  5
93F
330
2
100
AcDbEntity
  8
0
100
AcDbLine
 10
100.8033139720902
 20
61.689663509328
 30
0.0
 11
172.8033179720902
 21
61.689663509328
 31
0.0
  0
LINE
  5
940
330
2
100
AcDbEntity
  8
0
100
AcDbLine
 10
91.30331397209022
 20
51.93862350932801
 30
0.0
 11
91.30331397209022
 21
131.938624509328
 31
0.0
  0
LINE
  5
941
330
2
100
AcDbEntity
  8
0
100
AcDbLine
 10
42.30331497209022
 20
56.93862350932801
 30
0.0
 11
42.30331497209022
 21
126.938624509328
 31
0.0
  0
LINE
  5
942
330
2
100
AcDbEntity
  8
0
100
AcDbLine
 10
100.8033139720902
 20
53.93862350932801
 30
0.0
 11
100.8033139720902
 21
129.938624509328
 31
0.0
  0
LINE
  5
943
330
2
100
AcDbEntity
  8
0
100
AcDbLine
 10
47.30331597209022
 20
51.93862350932801
 30
0.0
 11
91.30331397209022
 21
51.93862350932801
 31
0.0
  0
LINE
  5
944
330
2
100
AcDbEntity
  8
0
100
AcDbLine
 10
44.80331497209022
 20
67.93862450932801
 30
0.0
 11
91.30331397209022
 21
67.93862450932801
 31
0.0
  0
ARC
  5
945
330
2
100
AcDbEntity
  8
0
100
AcDbCircle
 10
47.30331497209022
 20
56.93862350932801
 30
0.0
 40
5.0
100
AcDbArc
 50
180.0
 51
270.0
  0
LINE
  5
946
330
2
100
AcDbEntity
  8
0
100
AcDbLine
 10
91.30331397209022
 20
53.93862350932801
 30
0.0
 11
100.8033139720902
 21
53.93862350932801
 31
0.0
  0
LINE
  5
947
330
2
100
AcDbEntity
  8
0
100
AcDbLine
 10
91.30331397209022
 20
61.68962350932798
 30
0.0
 11
100.8033139720902
 21
61.68962350932798
 31
0.0
  0
LINE
  5
948
330
2
100
AcDbEntity
  8
0
100
AcDbLine
 10
47.30331497209022
 20
131.938624509328
 30
0.0
 11
91.30331397209022
 21
131.938624509328
 31
0.0
  0
LINE
  5
949
330
2
100
AcDbEntity
  8
0
100
AcDbLine
 10
44.80331497209022
 20
117.938624509328
 30
0.0
 11
91.30331397209022
 21
117.938624509328
 31
0.0
  0
ARC
  5
94A
330
2
100
AcDbEntity
  8
0
100
AcDbCircle
 10
47.30333997209027
 20
126.938646509328
 30
0.0
 40
5.0
100
AcDbArc
 50
90.0
 51
180.0
  0
LINE
  5
94B
330
2
100
AcDbEntity
  8
HOJO
100
AcDbLine
 10
94.30331397209021
 20
110.561526509328
 30
0.0
 11
95.80331397209022
 21
111.3407235093279
 31
0.0
  0
LINE
  5
94C
330
2
100
AcDbEntity
  8
0
100
AcDbLine
 10
92.80331397209023
 20
114.563624509328
 30
0.0
 11
92.80331397209023
 21
110.3210245093279
 31
0.0
  0
LINE
  5
94D
330
2
100
AcDbEntity
  8
0
100
AcDbLine
 10
94.30331397209021
 20
114.563624509328
 30
0.0
 11
94.30331397209021
 21
109.5268195093279
 31
0.0
  0
LINE
  5
94E
330
2
100
AcDbEntity
  8
HOJO
100
AcDbLine
 10
92.80571397209019
 20
110.325525509328
 30
0.0
 11
94.30331397209021
 21
109.5268195093279
 31
0.0
  0
LINE
  5
94F
330
2
100
AcDbEntity
  8
0
100
AcDbLine
 10
91.30331397209022
 20
129.938624509328
 30
0.0
 11
100.8033139720902
 21
129.938624509328
 31
0.0
  0
LINE
  5
950
330
2
100
AcDbEntity
  8
0
100
AcDbLine
 10
91.30331397209022
 20
122.187624509328
 30
0.0
 11
100.8033139720902
 21
122.187624509328
 31
0.0
  0
ARC
  5
951
330
2
100
AcDbEntity
  8
0
100
AcDbCircle
 10
91.30331397209022
 20
114.563624509328
 30
0.0
 40
3.0
100
AcDbArc
 50
0.0
 51
90.0
  0
ARC
  5
952
330
2
100
AcDbEntity
  8
0
100
AcDbCircle
 10
91.30331397209022
 20
114.563624509328
 30
0.0
 40
4.5
100
AcDbArc
 50
0.0
 51
90.0
  0
ARC
  5
953
330
2
100
AcDbEntity
  8
0
100
AcDbCircle
 10
91.30331397209022
 20
114.563624509328
 30
0.0
 40
1.5
100
AcDbArc
 50
0.0
 51
90.0
  0
LINE
  5
954
330
2
100
AcDbEntity
  8
0
100
AcDbLine
 10
95.80331397209022
 20
114.563624509328
 30
0.0
 11
95.80331397209022
 21
111.3407235093279
 31
0.0
  0
LINE
  5
958
330
2
100
AcDbEntity
  8
0
100
AcDbLine
 10
175.8538089720902
 20
86.17070250932801
 30
0.0
 11
178.1782109720902
 21
69.56813350932799
 31
0.0
  0
LINE
  5
959
330
2
100
AcDbEntity
  8
0
100
AcDbLine
 10
173.3033179720902
 20
126.938624509328
 30
0.0
 11
173.3033179720902
 21
75.53862250932798
 31
0.0
  0
LINE
  5
95A
330
2
100
AcDbEntity
  8
CENTER
100
AcDbLine
 10
183.8033179720902
 20
52.39491950932805
 30
0.0
 11
183.8033179720902
 21
64.08232750932794
 31
0.0
  0
ARC
  5
95B
330
2
100
AcDbEntity
  8
0
100
AcDbCircle
 10
183.8033179720902
 20
58.23862350932799
 30
0.0
 40
8.0
100
AcDbArc
 50
187.9696040000005
 51
270.0
  0
ARC
  5
95C
330
2
100
AcDbEntity
  8
0
100
AcDbCircle
 10
182.1395149720902
 20
70.12272350932801
 30
0.0
 40
4.0
100
AcDbArc
 50
187.9696959999989
 51
277.9697569999993
  0
LINE
  5
95D
330
2
100
AcDbEntity
  8
0
100
AcDbLine
 10
175.8806189720902
 20
57.12942350932798
 30
0.0
 11
173.3033179720902
 21
75.53862250932798
 31
0.0
  0
LINE
  5
95E
330
2
100
AcDbEntity
  8
CENTER
100
AcDbLine
 10
177.9596139720903
 20
58.23862350932799
 30
0.0
 11
189.6470219720902
 21
58.23862350932799
 31
0.0
  0
CIRCLE
  5
95F
330
2
100
AcDbEntity
  8
0
100
AcDbCircle
 10
183.8033179720902
 20
58.23862350932799
 30
0.0
 40
3.25
  0
LINE
  5
960
330
2
100
AcDbEntity
  8
0
100
AcDbLine
 10
173.3033179720902
 20
55.93862350932801
 30
0.0
 11
173.3033179720902
 21
61.93863350932798
 31
0.0
  0
ARC
  5
961
330
2
100
AcDbEntity
  8
0
100
AcDbCircle
 10
171.3033179720902
 20
55.93862350932801
 30
0.0
 40
2.0
100
AcDbArc
 50
270.0
 51
0.0
  0
ARC
  5
962
330
2
100
AcDbEntity
  8
0
100
AcDbCircle
 10
178.3033179720902
 20
61.93864350932802
 30
0.0
 40
5.0
100
AcDbArc
 50
135.7928010000001
 51
180.0
  0
LINE
  5
963
330
2
100
AcDbEntity
  8
0
100
AcDbLine
 10
175.8033179720902
 20
115.599894509328
 30
0.0
 11
175.8033179720902
 21
86.877085509328
 31
0.0
  0
LINE
  5
964
330
2
100
AcDbEntity
  8
0
100
AcDbLine
 10
178.1782109720902
 20
132.9091135093279
 30
0.0
 11
175.7200199720902
 21
115.350306509328
 31
0.0
  0
ARC
  5
965
330
2
100
AcDbEntity
  8
0
100
AcDbCircle
 10
182.1395149720902
 20
132.354525509328
 30
0.0
 40
4.0
100
AcDbArc
 50
82.03024300000064
 51
172.0303039999994
  0
LINE
  5
969
330
2
100
AcDbEntity
  8
CENTER
100
AcDbLine
 10
177.9596139720903
 20
144.238627509328
 30
0.0
 11
189.6470219720902
 21
144.238627509328
 31
0.0
  0
ARC
  5
96A
330
2
100
AcDbEntity
  8
0
100
AcDbCircle
 10
183.8033179720902
 20
144.238627509328
 30
0.0
 40
8.0
100
AcDbArc
 50
90.0
 51
172.0305020000008
  0
CIRCLE
  5
96B
330
2
100
AcDbEntity
  8
0
100
AcDbCircle
 10
183.8033179720902
 20
144.238627509328
 30
0.0
 40
3.25
  0
LINE
  5
96C
330
2
100
AcDbEntity
  8
CENTER
100
AcDbLine
 10
247.8033179720902
 20
138.394923509328
 30
0.0
 11
247.8033179720902
 21
150.0823315093279
 31
0.0
  0
LINE
  5
96D
330
2
100
AcDbEntity
  8
0
100
AcDbLine
 10
255.7260169720902
 20
145.347780509328
 30
0.0
 11
258.3033179720902
 21
126.938624509328
 31
0.0
  0
ARC
  5
96E
330
2
100
AcDbEntity
  8
0
100
AcDbCircle
 10
247.8033179720902
 20
144.238627509328
 30
0.0
 40
8.0
100
AcDbArc
 50
180.0
 51
277.9695129999992
  0
LINE
  5
96F
330
2
100
AcDbEntity
  8
CENTER
100
AcDbLine
 10
215.8033179720902
 20
162.238627509328
 30
0.0
 11
215.8033179720902
 21
40.23862350932802
 31
0.0
  0
LINE
  5
970
330
2
100
AcDbEntity
  8
0
100
AcDbLine
 10
255.8057139720903
 20
86.54835750932802
 30
0.0
 11
253.4284099720903
 21
69.56812350932799
 31
0.0
  0
LINE
  5
971
330
2
100
AcDbEntity
  8
0
100
AcDbLine
 10
258.3033179720902
 20
126.938624509328
 30
0.0
 11
258.3033179720902
 21
75.53863450932801
 31
0.0
  0
LINE
  5
972
330
2
100
AcDbEntity
  8
0
100
AcDbLine
 10
222.6514169720902
 20
84.63071750932801
 30
0.0
 11
222.6514169720902
 21
77.23472250932798
 31
0.0
  0
ARC
  5
973
330
2
100
AcDbEntity
  8
0
100
AcDbCircle
 10
226.0008129720902
 20
83.24863650932798
 30
0.0
 40
2.55249
100
AcDbArc
 50
286.0181270000003
 51
90.00351000000046
  0
ARC
  5
974
330
2
100
AcDbEntity
  8
0
100
AcDbCircle
 10
226.0008129720902
 20
83.24863650932798
 30
0.0
 40
1.557193
100
AcDbArc
 50
277.4147260000004
 51
62.41184999999839
  0
LINE
  5
975
330
2
100
AcDbEntity
  8
0
100
AcDbLine
 10
223.7471199720902
 20
84.63071750932801
 30
0.0
 11
223.7471199720902
 21
81.70446250932798
 31
0.0
  0
LINE
  5
976
330
2
100
AcDbEntity
  8
0
100
AcDbLine
 10
204.1241189720902
 20
83.63859850932801
 30
0.0
 11
204.1241189720902
 21
78.12954250932799
 31
0.0
  0
LINE
  5
977
330
2
100
AcDbEntity
  8
0
100
AcDbLine
 10
215.1807139720903
 20
84.63071750932801
 30
0.0
 11
215.1807139720903
 21
77.28452150932799
 31
0.0
  0
LINE
  5
978
330
2
100
AcDbEntity
  8
0
100
AcDbLine
 10
216.3761179720902
 20
84.63071750932801
 30
0.0
 11
216.3761179720902
 21
77.28452150932799
 31
0.0
  0
LINE
  5
979
330
2
100
AcDbEntity
  8
0
100
AcDbLine
 10
203.0533179720902
 20
84.31912450932799
 30
0.0
 11
203.0533179720902
 21
77.47948350932799
 31
0.0
  0
LINE
  5
97A
330
2
100
AcDbEntity
  8
0
100
AcDbLine
 10
195.8033179720901
 20
54.23862350932799
 30
0.0
 11
235.8033179720901
 21
54.23862350932799
 31
0.0
  0
ARC
  5
97B
330
2
100
AcDbEntity
  8
0
100
AcDbCircle
 10
195.8033179720901
 20
58.23862350932799
 30
0.0
 40
4.0
100
AcDbArc
 50
180.0
 51
270.0
  0
LINE
  5
97C
330
2
100
AcDbEntity
  8
0
100
AcDbLine
 10
206.5147129720902
 20
77.35923250932799
 30
0.0
 11
204.8554119720902
 21
77.35923250932799
 31
0.0
  0
LINE
  5
97D
330
2
100
AcDbEntity
  8
0
100
AcDbLine
 10
204.2831149720902
 20
76.238623509328
 30
0.0
 11
207.5984079720902
 21
76.238623509328
 31
0.0
  0
LINE
  5
97E
330
2
100
AcDbEntity
  8
0
100
AcDbLine
 10
204.1241189720902
 20
78.12954250932799
 30
0.0
 11
204.8554119720902
 21
77.35923250932799
 31
0.0
  0
LINE
  5
97F
330
2
100
AcDbEntity
  8
0
100
AcDbLine
 10
203.0533179720902
 20
77.47948350932799
 30
0.0
 11
204.2831149720902
 21
76.238623509328
 31
0.0
  0
LINE
  5
980
330
2
100
AcDbEntity
  8
0
100
AcDbLine
 10
208.5069159720902
 20
80.74595550932798
 30
0.0
 11
206.8385199720902
 21
80.74595550932798
 31
0.0
  0
LINE
  5
981
330
2
100
AcDbEntity
  8
0
100
AcDbLine
 10
208.5069159720902
 20
79.74985350932801
 30
0.0
 11
208.5069159720902
 21
80.54673250932799
 31
0.0
  0
LINE
  5
982
330
2
100
AcDbEntity
  8
0
100
AcDbLine
 10
208.5069159720902
 20
80.74595550932798
 30
0.0
 11
208.5069159720902
 21
79.35141250932798
 31
0.0
  0
LINE
  5
983
330
2
100
AcDbEntity
  8
0
100
AcDbLine
 10
206.8385199720902
 20
81.79185350932801
 30
0.0
 11
206.8385199720902
 21
80.74595550932798
 31
0.0
  0
LINE
  5
984
330
2
100
AcDbEntity
  8
0
100
AcDbLine
 10
206.8385199720902
 20
81.79185350932801
 30
0.0
 11
209.4283179720902
 21
81.79185350932801
 31
0.0
  0
LINE
  5
985
330
2
100
AcDbEntity
  8
0
100
AcDbLine
 10
208.5069159720902
 20
77.00088350932799
 30
0.0
 11
208.5069159720902
 21
76.238623509328
 31
0.0
  0
LINE
  5
986
330
2
100
AcDbEntity
  8
0
100
AcDbLine
 10
208.5069159720902
 20
76.238623509328
 30
0.0
 11
209.4283179720902
 21
76.238623509328
 31
0.0
  0
LINE
  5
987
330
2
100
AcDbEntity
  8
0
100
AcDbLine
 10
208.5069159720902
 20
77.00088350932799
 30
0.0
 11
207.5984079720902
 21
76.238623509328
 31
0.0
  0
LINE
  5
988
330
2
100
AcDbEntity
  8
0
100
AcDbLine
 10
209.4283179720902
 20
81.79185350932801
 30
0.0
 11
209.4283179720902
 21
76.238623509328
 31
0.0
  0
ARC
  5
989
330
2
100
AcDbEntity
  8
0
100
AcDbCircle
 10
206.5147129720902
 20
79.35141250932798
 30
0.0
 40
1.992186999999999
100
AcDbArc
 50
270.0002140000007
 51
0.0001089999998967
  0
LINE
  5
98A
330
2
100
AcDbEntity
  8
0
100
AcDbLine
 10
214.7076149720902
 20
76.238623509328
 30
0.0
 11
216.7745089720903
 21
76.238623509328
 31
0.0
  0
LINE
  5
98B
330
2
100
AcDbEntity
  8
0
100
AcDbLine
 10
214.7076149720902
 20
77.28452150932799
 30
0.0
 11
215.1807139720903
 21
77.28452150932799
 31
0.0
  0
LINE
  5
98C
330
2
100
AcDbEntity
  8
0
100
AcDbLine
 10
214.7076149720902
 20
77.28452150932799
 30
0.0
 11
214.7076149720902
 21
76.238623509328
 31
0.0
  0
LINE
  5
98D
330
2
100
AcDbEntity
  8
0
100
AcDbLine
 10
216.3761179720902
 20
77.28452150932799
 30
0.0
 11
216.7745089720903
 21
77.28452150932799
 31
0.0
  0
LINE
  5
98E
330
2
100
AcDbEntity
  8
0
100
AcDbLine
 10
216.7745089720903
 20
77.28452150932799
 30
0.0
 11
216.7745089720903
 21
76.238623509328
 31
0.0
  0
LINE
  5
98F
330
2
100
AcDbEntity
  8
0
100
AcDbLine
 10
223.7471199720902
 20
80.708594509328
 30
0.0
 11
225.7876169720903
 21
80.708594509328
 31
0.0
  0
LINE
  5
990
330
2
100
AcDbEntity
  8
0
100
AcDbLine
 10
223.7471199720902
 20
81.70446250932798
 30
0.0
 11
226.2018169720902
 21
81.70446250932798
 31
0.0
  0
LINE
  5
991
330
2
100
AcDbEntity
  8
0
100
AcDbLine
 10
222.1783179720902
 20
77.23472250932798
 30
0.0
 11
222.6514169720902
 21
77.23472250932798
 31
0.0
  0
LINE
  5
992
330
2
100
AcDbEntity
  8
0
100
AcDbLine
 10
223.7471199720902
 20
77.23472250932798
 30
0.0
 11
224.1829109720902
 21
77.23472250932798
 31
0.0
  0
LINE
  5
993
330
2
100
AcDbEntity
  8
0
100
AcDbLine
 10
224.1829109720902
 20
76.238623509328
 30
0.0
 11
222.1783179720902
 21
76.238623509328
 31
0.0
  0
LINE
  5
994
330
2
100
AcDbEntity
  8
0
100
AcDbLine
 10
224.1829109720902
 20
77.23472250932798
 30
0.0
 11
224.1829109720902
 21
76.238623509328
 31
0.0
  0
LINE
  5
995
330
2
100
AcDbEntity
  8
0
100
AcDbLine
 10
222.1783179720902
 20
77.23472250932798
 30
0.0
 11
222.1783179720902
 21
76.238623509328
 31
0.0
  0
LINE
  5
996
330
2
100
AcDbEntity
  8
0
100
AcDbLine
 10
223.7471199720902
 20
80.708594509328
 30
0.0
 11
223.7471199720902
 21
77.23472250932798
 31
0.0
  0
LINE
  5
997
330
2
100
AcDbEntity
  8
0
100
AcDbLine
 10
227.0841099720902
 20
77.23472250932798
 30
0.0
 11
227.2826119720901
 21
77.23472250932798
 31
0.0
  0
LINE
  5
998
330
2
100
AcDbEntity
  8
0
100
AcDbLine
 10
228.2850079720903
 20
77.23472250932798
 30
0.0
 11
228.5533179720902
 21
77.23472250932798
 31
0.0
  0
LINE
  5
999
330
2
100
AcDbEntity
  8
0
100
AcDbLine
 10
227.0841099720902
 20
76.238623509328
 30
0.0
 11
228.5533179720902
 21
76.238623509328
 31
0.0
  0
LINE
  5
99A
330
2
100
AcDbEntity
  8
0
100
AcDbLine
 10
228.5533179720902
 20
77.23472250932798
 30
0.0
 11
228.5533179720902
 21
76.238623509328
 31
0.0
  0
LINE
  5
99B
330
2
100
AcDbEntity
  8
0
100
AcDbLine
 10
227.0841099720902
 20
77.23472250932798
 30
0.0
 11
227.0841099720902
 21
76.238623509328
 31
0.0
  0
LINE
  5
99C
330
2
100
AcDbEntity
  8
0
100
AcDbLine
 10
226.7051119720902
 20
80.79524450932799
 30
0.0
 11
228.2850079720903
 21
77.23472250932798
 31
0.0
  0
LINE
  5
99D
330
2
100
AcDbEntity
  8
0
100
AcDbLine
 10
225.7876169720903
 20
80.708594509328
 30
0.0
 11
227.2826119720901
 21
77.23472250932798
 31
0.0
  0
LINE
  5
99E
330
2
100
AcDbEntity
  8
CENTER
100
AcDbLine
 10
247.8033179720902
 20
52.39491950932805
 30
0.0
 11
247.8033179720902
 21
64.08232750932794
 31
0.0
  0
ARC
  5
99F
330
2
100
AcDbEntity
  8
0
100
AcDbCircle
 10
247.8033179720902
 20
58.23862350932799
 30
0.0
 40
8.0
100
AcDbArc
 50
270.0
 51
352.0303039999994
  0
LINE
  5
9A0
330
2
100
AcDbEntity
  8
CENTER
100
AcDbLine
 10
241.9596139720902
 20
58.23862350932799
 30
0.0
 11
253.6470219720901
 21
58.23862350932799
 31
0.0
  0
ARC
  5
9A1
330
2
100
AcDbEntity
  8
0
100
AcDbCircle
 10
247.8033179720902
 20
58.23862350932799
 30
0.0
 40
8.0
100
AcDbArc
 50
82.03034999999877
 51
180.0
  0
CIRCLE
  5
9A2
330
2
100
AcDbEntity
  8
0
100
AcDbCircle
 10
247.8033179720902
 20
58.23862350932799
 30
0.0
 40
3.25
  0
ARC
  5
9A3
330
2
100
AcDbEntity
  8
0
100
AcDbCircle
 10
235.8033179720901
 20
58.23862350932799
 30
0.0
 40
4.0
100
AcDbArc
 50
270.0
 51
0.0
  0
ARC
  5
9A4
330
2
100
AcDbEntity
  8
0
100
AcDbCircle
 10
249.4671209720902
 20
70.12272350932801
 30
0.0
 40
4.0
100
AcDbArc
 50
262.0302430000005
 51
352.0302989999998
  0
LINE
  5
9A5
330
2
100
AcDbEntity
  8
0
100
AcDbLine
 10
255.7260169720902
 20
57.129503509328
 30
0.0
 11
258.3033179720902
 21
75.53863450932801
 31
0.0
  0
CIRCLE
  5
9A6
330
2
100
AcDbEntity
  8
0
100
AcDbCircle
 10
215.8033179720902
 20
114.238627509328
 30
0.0
 40
20.0
  0
ARC
  5
9A7
330
2
100
AcDbEntity
  8
HIDS
100
AcDbCircle
 10
215.8033179720902
 20
114.238627509328
 30
0.0
 40
7.5
100
AcDbArc
 50
19.47120099999884
 51
340.5288089999991
  0
LINE
  5
9A8
330
2
100
AcDbEntity
  8
0
100
AcDbLine
 10
207.9158209720902
 20
84.53110750932799
 30
0.0
 11
204.8439219720902
 21
84.53110750932799
 31
0.0
  0
LINE
  5
9A9
330
2
100
AcDbEntity
  8
0
100
AcDbLine
 10
204.2107119720902
 20
85.80112750932801
 30
0.0
 11
208.4973179720902
 21
85.80112750932801
 31
0.0
  0
LINE
  5
9AA
330
2
100
AcDbEntity
  8
0
100
AcDbLine
 10
204.2107119720902
 20
85.80112750932801
 30
0.0
 11
203.0533179720902
 21
84.31912450932799
 31
0.0
  0
LINE
  5
9AB
330
2
100
AcDbEntity
  8
0
100
AcDbLine
 10
204.8439219720902
 20
84.53110750932799
 30
0.0
 11
204.1241189720902
 21
83.63859850932801
 31
0.0
  0
LINE
  5
9AC
330
2
100
AcDbEntity
  8
0
100
AcDbLine
 10
208.4973179720902
 20
85.80112750932801
 30
0.0
 11
209.4283179720902
 21
84.76798550932802
 31
0.0
  0
LINE
  5
9AD
330
2
100
AcDbEntity
  8
0
100
AcDbLine
 10
208.5069159720902
 20
83.80893950932799
 30
0.0
 11
209.4283179720902
 21
83.80893950932799
 31
0.0
  0
LINE
  5
9AE
330
2
100
AcDbEntity
  8
0
100
AcDbLine
 10
208.5069159720902
 20
83.959658509328
 30
0.0
 11
208.5069159720902
 21
83.80893950932799
 31
0.0
  0
LINE
  5
9AF
330
2
100
AcDbEntity
  8
0
100
AcDbLine
 10
208.5069159720902
 20
83.959658509328
 30
0.0
 11
207.9037209720902
 21
84.53110750932799
 31
0.0
  0
LINE
  5
9B0
330
2
100
AcDbEntity
  8
0
100
AcDbLine
 10
209.4283179720902
 20
84.76798550932802
 30
0.0
 11
209.4283179720902
 21
83.80893950932799
 31
0.0
  0
LINE
  5
9B1
330
2
100
AcDbEntity
  8
0
100
AcDbLine
 10
215.1807139720903
 20
84.63071750932801
 30
0.0
 11
213.6658209720902
 21
84.63071750932801
 31
0.0
  0
LINE
  5
9B2
330
2
100
AcDbEntity
  8
0
100
AcDbLine
 10
212.6158179720902
 20
85.80112750932801
 30
0.0
 11
218.9908179720902
 21
85.80112750932801
 31
0.0
  0
LINE
  5
9B3
330
2
100
AcDbEntity
  8
0
100
AcDbLine
 10
212.6158179720902
 20
83.80893950932799
 30
0.0
 11
213.3234139720903
 21
83.80893950932799
 31
0.0
  0
LINE
  5
9B4
330
2
100
AcDbEntity
  8
0
100
AcDbLine
 10
212.6158179720902
 20
83.80893950932799
 30
0.0
 11
212.6158179720902
 21
85.80112750932801
 31
0.0
  0
LINE
  5
9B5
330
2
100
AcDbEntity
  8
0
100
AcDbLine
 10
213.6658209720902
 20
84.63071750932801
 30
0.0
 11
213.3234139720903
 21
83.80893950932799
 31
0.0
  0
LINE
  5
9B6
330
2
100
AcDbEntity
  8
0
100
AcDbLine
 10
218.3258099720902
 20
83.80893950932799
 30
0.0
 11
218.9908179720902
 21
83.80893950932799
 31
0.0
  0
LINE
  5
9B7
330
2
100
AcDbEntity
  8
0
100
AcDbLine
 10
218.9908179720902
 20
83.80893950932799
 30
0.0
 11
218.9908179720902
 21
85.80112750932801
 31
0.0
  0
LINE
  5
9B8
330
2
100
AcDbEntity
  8
0
100
AcDbLine
 10
216.3761179720902
 20
84.63071750932801
 30
0.0
 11
218.0371129720902
 21
84.63071750932801
 31
0.0
  0
LINE
  5
9B9
330
2
100
AcDbEntity
  8
0
100
AcDbLine
 10
218.0371129720902
 20
84.63071750932801
 30
0.0
 11
218.3258099720902
 21
83.80893950932799
 31
0.0
  0
LINE
  5
9BA
330
2
100
AcDbEntity
  8
0
100
AcDbLine
 10
222.1783179720902
 20
85.80112750932801
 30
0.0
 11
226.0008129720902
 21
85.80112750932801
 31
0.0
  0
LINE
  5
9BB
330
2
100
AcDbEntity
  8
0
100
AcDbLine
 10
223.7471199720902
 20
84.63071750932801
 30
0.0
 11
226.7220189720902
 21
84.62877150932801
 31
0.0
  0
LINE
  5
9BC
330
2
100
AcDbEntity
  8
0
100
AcDbLine
 10
222.1783179720902
 20
85.80112750932801
 30
0.0
 11
222.1783179720902
 21
84.63071750932801
 31
0.0
  0
LINE
  5
9BD
330
2
100
AcDbEntity
  8
0
100
AcDbLine
 10
222.1783179720902
 20
84.63071750932801
 30
0.0
 11
222.6514169720902
 21
84.63071750932801
 31
0.0
  0
LINE
  5
9BE
330
2
100
AcDbEntity
  8
HIDS
100
AcDbLine
 10
220.3033179720902
 20
116.738627509328
 30
0.0
 11
225.3033179720902
 21
116.738627509328
 31
0.0
  0
LINE
  5
9BF
330
2
100
AcDbEntity
  8
HIDS
100
AcDbLine
 10
220.3033179720902
 20
111.738627509328
 30
0.0
 11
225.3033179720902
 21
111.738627509328
 31
0.0
  0
LINE
  5
9C0
330
2
100
AcDbEntity
  8
HIDS
100
AcDbLine
 10
220.3033179720902
 20
111.738627509328
 30
0.0
 11
220.3033179720902
 21
116.738627509328
 31
0.0
  0
LINE
  5
9C1
330
2
100
AcDbEntity
  8
HIDS
100
AcDbLine
 10
225.3033179720902
 20
116.738627509328
 30
0.0
 11
225.3033179720902
 21
111.738627509328
 31
0.0
  0
LINE
  5
9C2
330
2
100
AcDbEntity
  8
0
100
AcDbLine
 10
255.8033179720902
 20
115.600023509328
 30
0.0
 11
255.8033179720902
 21
86.87748550932798
 31
0.0
  0
LINE
  5
9C3
330
2
100
AcDbEntity
  8
0
100
AcDbLine
 10
253.4284099720903
 20
132.9091215093279
 30
0.0
 11
255.8276099720902
 21
115.7720515093279
 31
0.0
  0
ARC
  5
9C4
330
2
100
AcDbEntity
  8
0
100
AcDbCircle
 10
249.4671209720902
 20
132.354525509328
 30
0.0
 40
4.0
100
AcDbArc
 50
7.969701000000192
 51
97.96975699999936
  0
LINE
  5
9C5
330
2
100
AcDbEntity
  8
0
100
AcDbLine
 10
195.8033179720901
 20
148.238627509328
 30
0.0
 11
235.8033179720901
 21
148.238627509328
 31
0.0
  0
ARC
  5
9C6
330
2
100
AcDbEntity
  8
0
100
AcDbCircle
 10
195.8033179720901
 20
144.238627509328
 30
0.0
 40
4.0
100
AcDbArc
 50
90.0
 51
180.0
  0
LINE
  5
9C7
330
2
100
AcDbEntity
  8
CENTER
100
AcDbLine
 10
241.9596139720902
 20
144.238627509328
 30
0.0
 11
253.6470219720901
 21
144.238627509328
 31
0.0
  0
CIRCLE
  5
9C8
330
2
100
AcDbEntity
  8
0
100
AcDbCircle
 10
247.8033179720902
 20
144.238627509328
 30
0.0
 40
3.25
  0
ARC
  5
9C9
330
2
100
AcDbEntity
  8
0
100
AcDbCircle
 10
247.8033179720902
 20
144.238627509328
 30
0.0
 40
8.0
100
AcDbArc
 50
7.969647000000191
 51
90.0
  0
ARC
  5
9CA
330
2
100
AcDbEntity
  8
0
100
AcDbCircle
 10
235.8033179720901
 20
144.238627509328
 30
0.0
 40
4.0
100
AcDbArc
 50
0.0
 51
90.0
  0
LINE
  5
1C46
330
2
100
AcDbEntity
  8
0
100
AcDbLine
 10
338.1521591571901
 20
162.438622509328
 30
0.0
 11
382.3142503411639
 21
162.438622509328
 31
0.0
  0
LINE
  5
1C47
330
2
100
AcDbEntity
  8
0
100
AcDbLine
 10
337.1521591571901
 20
161.438622509328
 30
0.0
 11
379.6521441571901
 21
161.438622509328
 31
0.0
  0
LINE
  5
1C49
330
2
100
AcDbEntity
  8
CENTER
100
AcDbLine
 10
332.1085521759815
 20
152.938622509328
 30
0.0
 11
392.1957661383986
 21
152.938622509328
 31
0.0
  0
LINE
  5
1C99
330
2
100
AcDbEntity
  8
0
100
AcDbLine
 10
337.1521591571901
 20
161.438622509328
 30
0.0
 11
337.15215915719
 21
147.2158983370266
 31
0.0
  0
LINE
  5
1C9C
330
2
100
AcDbEntity
  8
0
100
AcDbLine
 10
338.1521591571901
 20
162.438622509328
 30
0.0
 11
337.1521591571901
 21
161.438622509328
 31
0.0
  0
LINE
  5
1C9D
330
2
100
AcDbEntity
  8
0
100
AcDbLine
 10
139.4034119720902
 20
265.9908735953615
 30
0.0
 11
99.30330697209024
 21
265.9908735953615
 31
0.0
  0
LINE
  5
1C9E
330
2
100
AcDbEntity
  8
0
100
AcDbLine
 10
93.80330697209023
 20
264.5908795953615
 30
0.0
 11
139.8032069720901
 21
264.5908795953615
 31
0.0
  0
LINE
  5
1CA0
330
2
100
AcDbEntity
  8
0
100
AcDbLine
 10
93.80330697209023
 20
314.5908795953615
 30
0.0
 11
139.8032069720902
 21
314.5908795953614
 31
0.0
  0
LINE
  5
1CA1
330
2
100
AcDbEntity
  8
0
100
AcDbLine
 10
94.20330797209022
 20
313.1908705953615
 30
0.0
 11
134.3032069720902
 21
313.1908705953614
 31
0.0
  0
LINE
  5
1CA2
330
2
100
AcDbEntity
  8
0
100
AcDbLine
 10
91.80330697209024
 20
312.5908795953615
 30
0.0
 11
91.80330697209024
 21
266.5908795953615
 31
0.0
  0
LINE
  5
1CA3
330
2
100
AcDbEntity
  8
CENTER
100
AcDbLine
 10
116.8033139720902
 20
319.9801055394692
 30
0.0
 11
116.8033139720902
 21
258.8408795953615
 31
0.0
  0
LINE
  5
1CA4
330
2
100
AcDbEntity
  8
0
100
AcDbLine
 10
93.20330097209023
 20
312.1908705953615
 30
0.0
 11
93.20330797209022
 21
272.0908795953615
 31
0.0
  0
ARC
  5
1CA5
330
2
100
AcDbEntity
  8
0
100
AcDbCircle
 10
95.30333697209016
 20
268.0908795953615
 30
0.0
 40
4.0
100
AcDbArc
 50
0.0
 51
90.0
  0
ARC
  5
1CA6
330
2
100
AcDbEntity
  8
0
100
AcDbCircle
 10
93.27363697209023
 20
270.1205795953614
 30
0.0
 40
1.742199999999999
100
AcDbArc
 50
269.9986903345002
 51
0.0013096654997424
  0
ARC
  5
1CA7
330
2
100
AcDbEntity
  8
0
100
AcDbCircle
 10
93.27363697209023
 20
266.0611795953615
 30
0.0
 40
1.742199999999999
100
AcDbArc
 50
359.9986903345002
 51
90.00130966549322
  0
CIRCLE
  5
1CA8
330
2
100
AcDbEntity
  8
0
100
AcDbCircle
 10
95.30333697209016
 20
268.0908795953615
 30
0.0
 40
3.500000000000028
  0
LINE
  5
1CA9
330
2
100
AcDbEntity
  8
0
100
AcDbLine
 10
95.30333697209028
 20
272.0908795953615
 30
0.0
 11
91.80333697209027
 21
272.0908795953615
 31
0.0
  0
ARC
  5
1CAA
330
2
100
AcDbEntity
  8
0
100
AcDbCircle
 10
95.30333697209016
 20
268.0908795953615
 30
0.0
 40
2.049999999999998
100
AcDbArc
 50
180.0
 51
188.0619600839816
  0
ARC
  5
1CAB
330
2
100
AcDbEntity
  8
0
100
AcDbCircle
 10
95.30333697209016
 20
268.0908795953615
 30
0.0
 40
2.049999999999998
100
AcDbArc
 50
171.9380399160183
 51
180.0
  0
LINE
  5
1CAC
330
2
100
AcDbEntity
  8
0
100
AcDbLine
 10
91.80330697209024
 20
266.5908795953615
 30
0.0
 11
93.80330697209023
 21
264.5908795953615
 31
0.0
  0
LINE
  5
1CAD
330
2
100
AcDbEntity
  8
0
100
AcDbLine
 10
91.80330697209024
 20
266.5908795953615
 30
0.0
 11
93.80330697209023
 21
264.5908795953615
 31
0.0
  0
ARC
  5
1CAE
330
2
100
AcDbEntity
  8
0
100
AcDbCircle
 10
97.33303697209032
 20
270.1205795953614
 30
0.0
 40
1.742199999999999
100
AcDbArc
 50
179.9986903345002
 51
270.0013096654932
  0
ARC
  5
1CAF
330
2
100
AcDbEntity
  8
0
100
AcDbCircle
 10
95.30333697209016
 20
268.0908795953615
 30
0.0
 40
2.049999999999998
100
AcDbArc
 50
351.9380399160183
 51
0.0
  0
ARC
  5
1CB0
330
2
100
AcDbEntity
  8
0
100
AcDbCircle
 10
97.33303697209032
 20
266.0611795953615
 30
0.0
 40
1.742199999999999
100
AcDbArc
 50
89.99869033450025
 51
180.0013096654997
  0
ARC
  5
1CB1
330
2
100
AcDbEntity
  8
0
100
AcDbCircle
 10
95.30333697209016
 20
268.0908795953615
 30
0.0
 40
2.049999999999998
100
AcDbArc
 50
81.93803991601813
 51
90.0
  0
ARC
  5
1CB2
330
2
100
AcDbEntity
  8
0
100
AcDbCircle
 10
95.30333697209016
 20
268.0908795953615
 30
0.0
 40
2.049999999999998
100
AcDbArc
 50
0.0
 51
8.061960083981649
  0
ARC
  5
1CB3
330
2
100
AcDbEntity
  8
0
100
AcDbCircle
 10
95.30333697209016
 20
268.0908795953615
 30
0.0
 40
2.049999999999998
100
AcDbArc
 50
90.0
 51
98.06196008398188
  0
ARC
  5
1CB4
330
2
100
AcDbEntity
  8
0
100
AcDbCircle
 10
95.30333697209016
 20
268.0908795953615
 30
0.0
 40
2.049999999999998
100
AcDbArc
 50
270.0
 51
278.0619600839818
  0
ARC
  5
1CB5
330
2
100
AcDbEntity
  8
0
100
AcDbCircle
 10
95.30333697209016
 20
268.0908795953615
 30
0.0
 40
2.049999999999998
100
AcDbArc
 50
261.9380399160181
 51
270.0
  0
LINE
  5
1CB6
330
2
100
AcDbEntity
  8
0
100
AcDbLine
 10
89.80330697209025
 20
284.0908795953615
 30
0.0
 11
86.30330697209023
 21
287.5908795953615
 31
0.0
  0
LINE
  5
1CB7
330
2
100
AcDbEntity
  8
0
100
AcDbLine
 10
86.30330697209023
 20
291.5908795953615
 30
0.0
 11
89.80330697209025
 21
295.0908795953615
 31
0.0
  0
LINE
  5
1CB8
330
2
100
AcDbEntity
  8
0
100
AcDbLine
 10
86.30330697209023
 20
291.5908795953615
 30
0.0
 11
86.30330697209023
 21
287.5908795953615
 31
0.0
  0
LINE
  5
1CB9
330
2
100
AcDbEntity
  8
0
100
AcDbLine
 10
89.80330697209025
 20
283.0908795953614
 30
0.0
 11
89.80330697209025
 21
296.0908795953615
 31
0.0
  0
ARC
  5
1CBA
330
2
100
AcDbEntity
  8
0
100
AcDbCircle
 10
90.80330697209012
 20
283.0908795953614
 30
0.0
 40
1.0
100
AcDbArc
 50
180.0
 51
270.0
  0
LINE
  5
1CBB
330
2
100
AcDbEntity
  8
0
100
AcDbLine
 10
90.80330697209024
 20
282.0908795953615
 30
0.0
 11
91.80330697209024
 21
282.0908795953615
 31
0.0
  0
ARC
  5
1CBC
330
2
100
AcDbEntity
  8
0
100
AcDbCircle
 10
90.8033219720902
 20
296.0908795953615
 30
0.0
 40
1.0
100
AcDbArc
 50
90.0
 51
180.0
  0
LINE
  5
1CBD
330
2
100
AcDbEntity
  8
0
100
AcDbLine
 10
90.80330697209024
 20
297.0908795953615
 30
0.0
 11
91.80330697209024
 21
297.0908795953615
 31
0.0
  0
LINE
  5
1CBE
330
2
100
AcDbEntity
  8
0
100
AcDbLine
 10
99.30330697209024
 20
268.0908795953615
 30
0.0
 11
99.30330697209024
 21
264.5910785953615
 31
0.0
  0
LINE
  5
1CBF
330
2
100
AcDbEntity
  8
0
100
AcDbLine
 10
93.20330097209023
 20
312.1908705953615
 30
0.0
 11
94.20330797209022
 21
313.1908705953615
 31
0.0
  0
LINE
  5
1CC0
330
2
100
AcDbEntity
  8
0
100
AcDbLine
 10
91.80330697209024
 20
312.5908795953615
 30
0.0
 11
93.80330697209023
 21
314.5908795953615
 31
0.0
  0
LINE
  5
1CC1
330
2
100
AcDbEntity
  8
0
100
AcDbLine
 10
141.8032069720902
 20
312.5908795953614
 30
0.0
 11
141.8032069720901
 21
266.5908795953615
 31
0.0
  0
LINE
  5
1CC2
330
2
100
AcDbEntity
  8
0
100
AcDbLine
 10
140.4034119720902
 20
266.9908735953615
 30
0.0
 11
140.4034119720902
 21
307.0908795953614
 31
0.0
  0
LINE
  5
1CC3
330
2
100
AcDbEntity
  8
0
100
AcDbLine
 10
141.8034059720902
 20
266.5908795953615
 30
0.0
 11
139.8032069720901
 21
264.5908795953615
 31
0.0
  0
LINE
  5
1CC4
330
2
100
AcDbEntity
  8
0
100
AcDbLine
 10
141.8032069720901
 20
266.5908795953615
 30
0.0
 11
139.8032069720901
 21
264.5908795953615
 31
0.0
  0
LINE
  5
1CC5
330
2
100
AcDbEntity
  8
0
100
AcDbLine
 10
141.8032069720901
 20
266.5908795953615
 30
0.0
 11
139.8032069720901
 21
264.5908795953615
 31
0.0
  0
LINE
  5
1CC6
330
2
100
AcDbEntity
  8
0
100
AcDbLine
 10
139.4034119720902
 20
265.9908735953615
 30
0.0
 11
140.4034119720902
 21
266.9908735953615
 31
0.0
  0
ARC
  5
1CC7
330
2
100
AcDbEntity
  8
0
100
AcDbCircle
 10
136.2737059720902
 20
313.1205795953614
 30
0.0
 40
1.742199999999999
100
AcDbArc
 50
269.9986903345002
 51
0.0013096654997424
  0
ARC
  5
1CC8
330
2
100
AcDbEntity
  8
0
100
AcDbCircle
 10
136.2737059720902
 20
309.0611795953614
 30
0.0
 40
1.742199999999999
100
AcDbArc
 50
359.9986903345002
 51
90.00130966549322
  0
CIRCLE
  5
1CC9
330
2
100
AcDbEntity
  8
0
100
AcDbCircle
 10
138.3034059720902
 20
311.0908795953615
 30
0.0
 40
3.500000000000028
  0
ARC
  5
1CCA
330
2
100
AcDbEntity
  8
0
100
AcDbCircle
 10
138.3034059720902
 20
311.0908795953615
 30
0.0
 40
4.0
100
AcDbArc
 50
180.0
 51
270.0
  0
LINE
  5
1CCB
330
2
100
AcDbEntity
  8
0
100
AcDbLine
 10
134.3032069720902
 20
311.0908795953614
 30
0.0
 11
134.3032069720902
 21
314.5908795953614
 31
0.0
  0
ARC
  5
1CCC
330
2
100
AcDbEntity
  8
0
100
AcDbCircle
 10
138.3034059720902
 20
311.0908795953615
 30
0.0
 40
2.049999999999998
100
AcDbArc
 50
180.0
 51
188.0619600839816
  0
ARC
  5
1CCD
330
2
100
AcDbEntity
  8
0
100
AcDbCircle
 10
138.3034059720902
 20
311.0908795953615
 30
0.0
 40
2.049999999999998
100
AcDbArc
 50
171.9380399160183
 51
180.0
  0
ARC
  5
1CCE
330
2
100
AcDbEntity
  8
0
100
AcDbCircle
 10
140.3331059720903
 20
313.1205795953614
 30
0.0
 40
1.742199999999999
100
AcDbArc
 50
179.9986903345002
 51
270.0013096654932
  0
ARC
  5
1CCF
330
2
100
AcDbEntity
  8
0
100
AcDbCircle
 10
138.3034059720902
 20
311.0908795953615
 30
0.0
 40
2.049999999999998
100
AcDbArc
 50
351.9380399160183
 51
0.0
  0
ARC
  5
1CD0
330
2
100
AcDbEntity
  8
0
100
AcDbCircle
 10
140.3331059720903
 20
309.0611795953614
 30
0.0
 40
1.742199999999999
100
AcDbArc
 50
89.99869033450025
 51
180.0013096654997
  0
ARC
  5
1CD1
330
2
100
AcDbEntity
  8
0
100
AcDbCircle
 10
138.3034059720902
 20
311.0908795953615
 30
0.0
 40
2.049999999999998
100
AcDbArc
 50
0.0
 51
8.061960083981649
  0
ARC
  5
1CD2
330
2
100
AcDbEntity
  8
0
100
AcDbCircle
 10
138.3034059720902
 20
311.0908795953615
 30
0.0
 40
2.049999999999998
100
AcDbArc
 50
270.0
 51
278.0619600839818
  0
ARC
  5
1CD3
330
2
100
AcDbEntity
  8
0
100
AcDbCircle
 10
138.3034059720902
 20
311.0908795953615
 30
0.0
 40
2.049999999999998
100
AcDbArc
 50
261.9380399160181
 51
270.0
  0
LINE
  5
1CD4
330
2
100
AcDbEntity
  8
0
100
AcDbLine
 10
138.3032069720902
 20
307.0908795953614
 30
0.0
 11
141.8032069720902
 21
307.0908795953614
 31
0.0
  0
ARC
  5
1CD5
330
2
100
AcDbEntity
  8
0
100
AcDbCircle
 10
138.3034059720902
 20
311.0908795953615
 30
0.0
 40
2.049999999999998
100
AcDbArc
 50
81.93803991601813
 51
90.0
  0
ARC
  5
1CD6
330
2
100
AcDbEntity
  8
0
100
AcDbCircle
 10
138.3034059720902
 20
311.0908795953615
 30
0.0
 40
2.049999999999998
100
AcDbArc
 50
90.0
 51
98.06196008398188
  0
LINE
  5
1CD7
330
2
100
AcDbEntity
  8
0
100
AcDbLine
 10
139.8032069720902
 20
314.5908795953614
 30
0.0
 11
141.8032069720902
 21
312.5908795953614
 31
0.0
  0
LINE
  5
1CD8
330
2
100
AcDbEntity
  8
0
100
AcDbLine
 10
141.8032069720902
 20
312.5908795953614
 30
0.0
 11
139.8032069720902
 21
314.5908795953614
 31
0.0
  0
ARC
  5
1CD9
330
2
100
AcDbEntity
  8
0
100
AcDbCircle
 10
381.5451484035971
 20
160.9447352335743
 30
0.0
 40
1.3
100
AcDbArc
 50
105.880850008278
 51
174.9999999999999
  0
LINE
  5
1CDA
330
2
100
AcDbEntity
  8
0
100
AcDbLine
 10
379.6521441571901
 20
159.938622509328
 30
0.0
 11
387.1521441571901
 21
159.9386225093281
 31
0.0
  0
LINE
  5
1CDC
330
2
100
AcDbEntity
  8
0
100
AcDbLine
 10
380.1521591571901
 20
159.9386225093281
 30
0.0
 11
380.250095296078
 21
161.0580376991463
 31
0.0
  0
LINE
  5
1CDD
330
2
100
AcDbEntity
  8
0
100
AcDbLine
 10
379.1521441571901
 20
162.438622509328
 30
0.0
 11
379.6521441571901
 21
161.938622509328
 31
0.0
  0
LINE
  5
1CDE
330
2
100
AcDbEntity
  8
0
100
AcDbLine
 10
379.6521441571901
 20
159.938622509328
 30
0.0
 11
379.6521441571901
 21
161.9386225093281
 31
0.0
  0
LINE
  5
1CDF
330
2
100
AcDbEntity
  8
0
100
AcDbLine
 10
379.6521441571901
 20
161.938622509328
 30
0.0
 11
380.7071817675697
 21
161.938622509328
 31
0.0
  0
LINE
  5
1CE0
330
2
100
AcDbEntity
  8
0
100
AcDbLine
 10
387.1521441571901
 20
161.438622509328
 30
0.0
 11
387.1521441571902
 21
146.3433430655538
 31
0.0
  0
LINE
  5
1CE3
330
2
100
AcDbEntity
  8
0
100
AcDbLine
 10
384.9900679732163
 20
162.438622509328
 30
0.0
 11
386.1521441571901
 21
162.438622509328
 31
0.0
  0
ARC
  5
1CE4
330
2
100
AcDbEntity
  8
0
100
AcDbCircle
 10
383.6521591571901
 20
153.538622509328
 30
0.0
 40
9.0
100
AcDbArc
 50
74.11914999172198
 51
105.880850008278
  0
LINE
  5
1CE5
330
2
100
AcDbEntity
  8
0
100
AcDbLine
 10
385.6818989803542
 20
162.0910640467056
 30
0.0
 11
385.7021591571901
 21
162.3020407921672
 31
0.0
  0
LINE
  5
1CE6
330
2
100
AcDbEntity
  8
0
100
AcDbLine
 10
381.622419334026
 20
162.0910640467056
 30
0.0
 11
381.6021591571901
 21
162.3020407921672
 31
0.0
  0
LINE
  5
1CE7
330
2
100
AcDbEntity
  8
0
100
AcDbLine
 10
383.9396591576452
 20
161.0216225093281
 30
0.0
 11
383.3646591567351
 21
161.0216225093281
 31
0.0
  0
SPLINE
  5
1CE8
330
2
100
AcDbEntity
  8
0
100
AcDbSpline
210
0.0
220
0.0
230
1.0
 70
     8
 71
     3
 72
    11
 73
     7
 74
     0
 42
0.0000000001
 43
0.0000000001
 40
0.0
 40
0.0
 40
0.0
 40
0.0
 40
0.4601364636755307
 40
1.04988694485363
 40
1.713742833862792
 40
2.320347933405154
 40
2.320347933405154
 40
2.320347933405154
 40
2.320347933405179
 10
383.9396591576452
 20
161.0216225093281
 30
0.0
 10
383.9620768147529
 20
161.1766459490079
 30
0.0
 10
384.0132268699864
 20
161.5303607669254
 30
0.0
 10
384.4491120315199
 20
161.9550884385271
 30
0.0
 10
385.0541627465273
 20
162.174275618493
 30
0.0
 10
385.4793473707031
 20
162.1052843188822
 30
0.0
 10
385.6818989803542
 20
162.0910640467056
 30
0.0
  0
SPLINE
  5
1CE9
330
2
100
AcDbEntity
  8
0
100
AcDbSpline
210
0.0
220
0.0
230
1.0
 70
     8
 71
     3
 72
    11
 73
     7
 74
     0
 42
0.0000000001
 43
0.0000000001
 40
0.0
 40
0.0
 40
0.0
 40
0.0
 40
0.4601364636755307
 40
1.04988694485363
 40
1.713742833862792
 40
2.320347933405154
 40
2.320347933405154
 40
2.320347933405154
 40
2.320347933405179
 10
383.3646591567351
 20
161.0216225093281
 30
0.0
 10
383.3422414996272
 20
161.1766459490079
 30
0.0
 10
383.291091444394
 20
161.5303607669254
 30
0.0
 10
382.8552062828604
 20
161.9550884385271
 30
0.0
 10
382.2501555678529
 20
162.174275618493
 30
0.0
 10
381.8249709436771
 20
162.1052843188822
 30
0.0
 10
381.622419334026
 20
162.0910640467056
 30
0.0
  0
LINE
  5
1CEA
330
2
100
AcDbEntity
  8
0
100
AcDbLine
 10
387.1521591571901
 20
159.9386225093281
 30
0.0
 11
387.0542230183021
 21
161.0580376991463
 31
0.0
  0
ARC
  5
1CEB
330
2
100
AcDbEntity
  8
0
100
AcDbCircle
 10
385.759169910783
 20
160.9447352335743
 30
0.0
 40
1.3
100
AcDbArc
 50
5.000000000000026
 51
74.11914999172198
  0
LINE
  5
1CEC
330
2
100
AcDbEntity
  8
0
100
AcDbLine
 10
386.1521441571901
 20
162.438622509328
 30
0.0
 11
387.1521441571901
 21
161.438622509328
 31
0.0
  0
LINE
  5
1CEE
330
2
100
AcDbEntity
  8
0
100
AcDbLine
 10
595.6397600783547
 20
162.438630509328
 30
0.0
 11
639.8018512623292
 21
162.438630509328
 31
0.0
  0
LINE
  5
1CEF
330
2
100
AcDbEntity
  8
0
100
AcDbLine
 10
598.3018516909002
 20
161.438630509328
 30
0.0
 11
640.8018582623292
 21
161.438630509328
 31
0.0
  0
LINE
  5
1CF1
330
2
100
AcDbEntity
  8
0
100
AcDbLine
 10
640.8018582623293
 20
133.438632509328
 30
0.0
 11
590.8018512623292
 21
133.438632509328
 31
0.0
  0
LINE
  5
1CF2
330
2
100
AcDbEntity
  8
0
100
AcDbLine
 10
639.3018582623293
 20
131.438632509328
 30
0.0
 11
592.8018512623292
 21
131.438632509328
 31
0.0
  0
LINE
  5
1CF3
330
2
100
AcDbEntity
  8
CENTER
100
AcDbLine
 10
648.7456072623293
 20
152.938630509328
 30
0.0
 11
586.8495482985912
 21
152.938630509328
 31
0.0
  0
LINE
  5
1CF4
330
2
100
AcDbEntity
  8
0
100
AcDbLine
 10
642.8018582623293
 20
143.438632509328
 30
0.0
 11
590.8018512623292
 21
143.438632509328
 31
0.0
  0
LINE
  5
1CF5
330
2
100
AcDbEntity
  8
0
100
AcDbLine
 10
590.8018512623292
 20
161.438630509328
 30
0.0
 11
590.8018512623292
 21
133.438632509328
 31
0.0
  0
LINE
  5
1CF6
330
2
100
AcDbEntity
  8
0
100
AcDbLine
 10
592.8018512623292
 20
131.438632509328
 30
0.0
 11
590.8018512623292
 21
133.438632509328
 31
0.0
  0
LINE
  5
1CF7
330
2
100
AcDbEntity
  8
0
100
AcDbLine
 10
593.3018512623292
 20
131.438632509328
 30
0.0
 11
593.3018512623292
 21
129.938632509328
 31
0.0
  0
ARC
  5
1CF8
330
2
100
AcDbEntity
  8
0
100
AcDbCircle
 10
594.3018512623292
 20
153.5386305093279
 30
0.0
 40
9.0
100
AcDbArc
 50
74.11914999172198
 51
105.880850008278
  0
SPLINE
  5
1CF9
330
2
100
AcDbEntity
  8
0
100
AcDbSpline
210
0.0
220
0.0
230
1.0
 70
     8
 71
     3
 72
    11
 73
     7
 74
     0
 42
0.0000000001
 43
0.0000000001
 40
0.0
 40
0.0
 40
0.0
 40
0.0
 40
0.4601364636755307
 40
1.04988694485363
 40
1.713742833862792
 40
2.320347933405154
 40
2.320347933405154
 40
2.320347933405154
 40
2.320347933405179
 10
594.0143512618742
 20
161.0216305093279
 30
0.0
 10
593.9919336047664
 20
161.1766539490078
 30
0.0
 10
593.9407835495331
 20
161.5303687669253
 30
0.0
 10
593.5048983879995
 20
161.955096438527
 30
0.0
 10
592.8998476729921
 20
162.1742836184928
 30
0.0
 10
592.4746630488162
 20
162.1052923188821
 30
0.0
 10
592.2721114391651
 20
162.0910720467055
 30
0.0
  0
LINE
  5
1CFA
330
2
100
AcDbEntity
  8
0
100
AcDbLine
 10
598.3018516909002
 20
159.9386305093279
 30
0.0
 11
590.8018516909002
 21
159.9386305093279
 31
0.0
  0
LINE
  5
1CFB
330
2
100
AcDbEntity
  8
0
100
AcDbLine
 10
592.2721114391651
 20
162.0910720467055
 30
0.0
 11
592.2518512623293
 21
162.302048792167
 31
0.0
  0
LINE
  5
1CFC
330
2
100
AcDbEntity
  8
0
100
AcDbLine
 10
590.8018512623292
 20
159.9386305093279
 30
0.0
 11
590.8997874012171
 21
161.0580456991462
 31
0.0
  0
ARC
  5
1CFD
330
2
100
AcDbEntity
  8
0
100
AcDbCircle
 10
592.1948405087363
 20
160.9447432335742
 30
0.0
 40
1.3
100
AcDbArc
 50
105.880850008278
 51
174.9999999999999
  0
LINE
  5
1CFE
330
2
100
AcDbEntity
  8
0
100
AcDbLine
 10
590.8018512623292
 20
161.438630509328
 30
0.0
 11
591.8018512623292
 21
162.438630509328
 31
0.0
  0
LINE
  5
1CFF
330
2
100
AcDbEntity
  8
0
100
AcDbLine
 10
591.8018512623292
 20
162.438630509328
 30
0.0
 11
592.9639424463039
 21
162.438630509328
 31
0.0
  0
LINE
  5
1D00
330
2
100
AcDbEntity
  8
0
100
AcDbLine
 10
598.3018516909002
 20
161.9386305093279
 30
0.0
 11
597.2468286519495
 21
161.9386305093279
 31
0.0
  0
LINE
  5
1D01
330
2
100
AcDbEntity
  8
0
100
AcDbLine
 10
597.8018512623292
 20
159.9386305093279
 30
0.0
 11
597.7039151234413
 21
161.0580456991462
 31
0.0
  0
ARC
  5
1D02
330
2
100
AcDbEntity
  8
0
100
AcDbCircle
 10
596.4088620159222
 20
160.9447432335742
 30
0.0
 40
1.3
100
AcDbArc
 50
5.000000000000026
 51
74.11914999172198
  0
LINE
  5
1D03
330
2
100
AcDbEntity
  8
0
100
AcDbLine
 10
596.3315910854934
 20
162.0910720467055
 30
0.0
 11
596.3518512623293
 21
162.302048792167
 31
0.0
  0
LINE
  5
1D04
330
2
100
AcDbEntity
  8
0
100
AcDbLine
 10
594.5893512627844
 20
161.0216305093279
 30
0.0
 11
594.0143512618742
 21
161.0216305093279
 31
0.0
  0
SPLINE
  5
1D05
330
2
100
AcDbEntity
  8
0
100
AcDbSpline
210
0.0
220
0.0
230
1.0
 70
     8
 71
     3
 72
    11
 73
     7
 74
     0
 42
0.0000000001
 43
0.0000000001
 40
0.0
 40
0.0
 40
0.0
 40
0.0
 40
0.4601364636755307
 40
1.04988694485363
 40
1.713742833862792
 40
2.320347933405154
 40
2.320347933405154
 40
2.320347933405154
 40
2.320347933405179
 10
594.5893512627844
 20
161.0216305093279
 30
0.0
 10
594.6117689198921
 20
161.1766539490078
 30
0.0
 10
594.6629189751255
 20
161.5303687669253
 30
0.0
 10
595.098804136659
 20
161.955096438527
 30
0.0
 10
595.7038548516664
 20
162.1742836184928
 30
0.0
 10
596.1290394758423
 20
162.1052923188821
 30
0.0
 10
596.3315910854934
 20
162.0910720467055
 30
0.0
  0
LINE
  5
1D06
330
2
100
AcDbEntity
  8
0
100
AcDbLine
 10
598.8018516909002
 20
162.4386305093279
 30
0.0
 11
598.3018516909002
 21
161.9386305093279
 31
0.0
  0
LINE
  5
1D07
330
2
100
AcDbEntity
  8
0
100
AcDbLine
 10
598.3018516909002
 20
159.9386305093279
 30
0.0
 11
598.3018516909002
 21
161.9386305093279
 31
0.0
  0
LINE
  5
1D08
330
2
100
AcDbEntity
  8
0
100
AcDbLine
 10
646.3018432623292
 20
156.938630509328
 30
0.0
 11
642.8018432623292
 21
158.438630509328
 31
0.0
  0
LINE
  5
1D09
330
2
100
AcDbEntity
  8
0
100
AcDbLine
 10
640.8018582623293
 20
161.438630509328
 30
0.0
 11
640.8018582623293
 21
133.438632509328
 31
0.0
  0
LINE
  5
1D0A
330
2
100
AcDbEntity
  8
0
100
AcDbLine
 10
642.8018432623292
 20
159.438630509328
 30
0.0
 11
642.8018582623293
 21
143.438632509328
 31
0.0
  0
LINE
  5
1D0B
330
2
100
AcDbEntity
  8
CENTER
100
AcDbLine
 10
615.8018512623292
 20
126.744931509328
 30
0.0
 11
615.8018512623292
 21
167.826130509328
 31
0.0
  0
LINE
  5
1D0C
330
2
100
AcDbEntity
  8
0
100
AcDbLine
 10
640.8018582623293
 20
133.438632509328
 30
0.0
 11
638.8018582623293
 21
131.438632509328
 31
0.0
  0
LINE
  5
1D0D
330
2
100
AcDbEntity
  8
0
100
AcDbLine
 10
639.3018582623293
 20
131.438632509328
 30
0.0
 11
639.3018582623293
 21
129.938632509328
 31
0.0
  0
LINE
  5
1D0E
330
2
100
AcDbEntity
  8
0
100
AcDbLine
 10
646.3018582623293
 20
148.938630509328
 30
0.0
 11
642.8018582623293
 21
147.438630509328
 31
0.0
  0
LINE
  5
1D0F
330
2
100
AcDbEntity
  8
0
100
AcDbLine
 10
646.3018432623292
 20
156.938630509328
 30
0.0
 11
646.3018432623292
 21
148.938630509328
 31
0.0
  0
ARC
  5
1D10
330
2
100
AcDbEntity
  8
0
100
AcDbCircle
 10
641.8018432623292
 20
159.438630509328
 30
0.0
 40
1.0
100
AcDbArc
 50
0.0
 51
90.0
  0
LINE
  5
1D11
330
2
100
AcDbEntity
  8
0
100
AcDbLine
 10
641.8018582623293
 20
160.438630509328
 30
0.0
 11
640.8018582623293
 21
160.438630509328
 31
0.0
  0
LINE
  5
1D12
330
2
100
AcDbEntity
  8
0
100
AcDbLine
 10
639.8018582623292
 20
162.438630509328
 30
0.0
 11
640.8018582623292
 21
161.438630509328
 31
0.0
  0
LINE
  5
1D56
330
2
100
AcDbEntity
  8
CENTER
100
AcDbLine
 10
83.85955797209021
 20
152.938622509328
 30
0.0
 11
145.7556169358283
 21
152.938622509328
 31
0.0
  0
LINE
  5
1D57
330
2
100
AcDbEntity
  8
0
100
AcDbLine
 10
99.3033074006612
 20
161.438622509328
 30
0.0
 11
141.8033209720903
 21
161.438622509328
 31
0.0
  0
LINE
  5
1D58
330
2
100
AcDbEntity
  8
0
100
AcDbLine
 10
91.80330697209024
 20
133.438624509328
 30
0.0
 11
141.8033139720902
 21
133.438624509328
 31
0.0
  0
LINE
  5
1D59
330
2
100
AcDbEntity
  8
0
100
AcDbLine
 10
89.80330697209025
 20
143.438624509328
 30
0.0
 11
141.8033139720902
 21
143.438624509328
 31
0.0
  0
LINE
  5
1D5A
330
2
100
AcDbEntity
  8
0
100
AcDbLine
 10
93.30330697209024
 20
131.438624509328
 30
0.0
 11
139.8033139720902
 21
131.438624509328
 31
0.0
  0
LINE
  5
1D5B
330
2
100
AcDbEntity
  8
0
100
AcDbLine
 10
96.64122278811579
 20
162.438622509328
 30
0.0
 11
140.8033139720902
 21
162.438622509328
 31
0.0
  0
LINE
  5
1D5C
330
2
100
AcDbEntity
  8
0
100
AcDbLine
 10
91.80330697209024
 20
161.438622509328
 30
0.0
 11
91.80330697209024
 21
133.438624509328
 31
0.0
  0
LINE
  5
1D5D
330
2
100
AcDbEntity
  8
CENTER
100
AcDbLine
 10
116.8033139720902
 20
126.744923509328
 30
0.0
 11
116.8033139720902
 21
167.826122509328
 31
0.0
  0
LINE
  5
1D5E
330
2
100
AcDbEntity
  8
0
100
AcDbLine
 10
93.30330697209024
 20
131.438624509328
 30
0.0
 11
93.30330697209024
 21
129.938624509328
 31
0.0
  0
LINE
  5
1D5F
330
2
100
AcDbEntity
  8
0
100
AcDbLine
 10
91.80330697209024
 20
133.438624509328
 30
0.0
 11
93.80330697209023
 21
131.438624509328
 31
0.0
  0
ARC
  5
1D60
330
2
100
AcDbEntity
  8
0
100
AcDbCircle
 10
90.8033219720902
 20
159.438622509328
 30
0.0
 40
1.0
100
AcDbArc
 50
90.0
 51
180.0
  0
LINE
  5
1D61
330
2
100
AcDbEntity
  8
0
100
AcDbLine
 10
86.30332197209019
 20
156.938622509328
 30
0.0
 11
86.30332197209019
 21
148.938622509328
 31
0.0
  0
LINE
  5
1D62
330
2
100
AcDbEntity
  8
0
100
AcDbLine
 10
89.80332197209021
 20
159.438622509328
 30
0.0
 11
89.80330697209025
 21
143.438624509328
 31
0.0
  0
LINE
  5
1D63
330
2
100
AcDbEntity
  8
0
100
AcDbLine
 10
86.30330697209023
 20
148.938622509328
 30
0.0
 11
89.80330697209025
 21
147.438622509328
 31
0.0
  0
LINE
  5
1D64
330
2
100
AcDbEntity
  8
0
100
AcDbLine
 10
86.30332197209019
 20
156.938622509328
 30
0.0
 11
89.80332197209021
 21
158.438622509328
 31
0.0
  0
LINE
  5
1D65
330
2
100
AcDbEntity
  8
0
100
AcDbLine
 10
99.8033074006612
 20
162.4386225093279
 30
0.0
 11
99.3033074006612
 21
161.9386225093279
 31
0.0
  0
LINE
  5
1D66
330
2
100
AcDbEntity
  8
0
100
AcDbLine
 10
99.3033074006612
 20
159.9386225093279
 30
0.0
 11
99.3033074006612
 21
161.9386225093279
 31
0.0
  0
SPLINE
  5
1D67
330
2
100
AcDbEntity
  8
0
100
AcDbSpline
210
0.0
220
0.0
230
1.0
 70
     8
 71
     3
 72
    11
 73
     7
 74
     0
 42
0.0000000001
 43
0.0000000001
 40
0.0
 40
0.0
 40
0.0
 40
0.0
 40
0.4601364636755307
 40
1.04988694485363
 40
1.713742833862792
 40
2.320347933405154
 40
2.320347933405154
 40
2.320347933405154
 40
2.320347933405179
 10
95.59081397254534
 20
161.0216225093279
 30
0.0
 10
95.61323162965322
 20
161.1766459490078
 30
0.0
 10
95.6643816848865
 20
161.5303607669253
 30
0.0
 10
96.10026684642015
 20
161.955088438527
 30
0.0
 10
96.70531756142748
 20
162.1742756184928
 30
0.0
 10
97.1305021856034
 20
162.1052843188821
 30
0.0
 10
97.3330537952544
 20
162.0910640467055
 30
0.0
  0
LINE
  5
1D68
330
2
100
AcDbEntity
  8
0
100
AcDbLine
 10
95.59081397254534
 20
161.0216225093279
 30
0.0
 11
95.01581397163533
 21
161.0216225093279
 31
0.0
  0
LINE
  5
1D69
330
2
100
AcDbEntity
  8
0
100
AcDbLine
 10
97.3330537952544
 20
162.0910640467055
 30
0.0
 11
97.35331397209041
 21
162.3020407921671
 31
0.0
  0
LINE
  5
1D6A
330
2
100
AcDbEntity
  8
0
100
AcDbLine
 10
98.80331397209022
 20
159.9386225093279
 30
0.0
 11
98.70537783320243
 21
161.0580376991462
 31
0.0
  0
LINE
  5
1D6B
330
2
100
AcDbEntity
  8
0
100
AcDbLine
 10
92.80330697209024
 20
162.438622509328
 30
0.0
 11
93.96540515606488
 21
162.438622509328
 31
0.0
  0
LINE
  5
1D6C
330
2
100
AcDbEntity
  8
0
100
AcDbLine
 10
90.80330697209024
 20
160.438622509328
 30
0.0
 11
91.80330697209024
 21
160.438622509328
 31
0.0
  0
LINE
  5
1D6D
330
2
100
AcDbEntity
  8
0
100
AcDbLine
 10
91.80330697209024
 20
161.438622509328
 30
0.0
 11
92.80330697209024
 21
162.438622509328
 31
0.0
  0
LINE
  5
1D6E
330
2
100
AcDbEntity
  8
0
100
AcDbLine
 10
92.80330740066119
 20
162.4386225093279
 30
0.0
 11
91.80330697209024
 21
161.438622509328
 31
0.0
  0
ARC
  5
1D6F
330
2
100
AcDbEntity
  8
0
100
AcDbCircle
 10
93.19630321849729
 20
160.9447352335742
 30
0.0
 40
1.3
100
AcDbArc
 50
105.880850008278
 51
174.9999999999999
  0
LINE
  5
1D70
330
2
100
AcDbEntity
  8
0
100
AcDbLine
 10
91.80331397209034
 20
159.9386225093279
 30
0.0
 11
91.90125011097814
 21
161.0580376991462
 31
0.0
  0
LINE
  5
1D71
330
2
100
AcDbEntity
  8
0
100
AcDbLine
 10
93.27357414892629
 20
162.0910640467055
 30
0.0
 11
93.25331397209026
 21
162.3020407921671
 31
0.0
  0
SPLINE
  5
1D72
330
2
100
AcDbEntity
  8
0
100
AcDbSpline
210
0.0
220
0.0
230
1.0
 70
     8
 71
     3
 72
    11
 73
     7
 74
     0
 42
0.0000000001
 43
0.0000000001
 40
0.0
 40
0.0
 40
0.0
 40
0.0
 40
0.4601364636755307
 40
1.04988694485363
 40
1.713742833862792
 40
2.320347933405154
 40
2.320347933405154
 40
2.320347933405154
 40
2.320347933405179
 10
95.01581397163533
 20
161.0216225093279
 30
0.0
 10
94.99339631452745
 20
161.1766459490078
 30
0.0
 10
94.94224625929417
 20
161.5303607669253
 30
0.0
 10
94.50636109776054
 20
161.955088438527
 30
0.0
 10
93.90131038275319
 20
162.1742756184928
 30
0.0
 10
93.47612575857727
 20
162.1052843188821
 30
0.0
 10
93.27357414892629
 20
162.0910640467055
 30
0.0
  0
ARC
  5
1D73
330
2
100
AcDbEntity
  8
0
100
AcDbCircle
 10
95.30331397209033
 20
153.5386225093279
 30
0.0
 40
9.0
100
AcDbArc
 50
74.11914999172198
 51
105.880850008278
  0
LINE
  5
1D74
330
2
100
AcDbEntity
  8
0
100
AcDbLine
 10
99.3033074006612
 20
159.9386225093279
 30
0.0
 11
91.8033074006612
 21
159.9386225093279
 31
0.0
  0
LINE
  5
1D75
330
2
100
AcDbEntity
  8
0
100
AcDbLine
 10
99.3033074006612
 20
161.9386225093279
 30
0.0
 11
98.24829136171047
 21
161.9386225093279
 31
0.0
  0
ARC
  5
1D76
330
2
100
AcDbEntity
  8
0
100
AcDbCircle
 10
97.41032472568315
 20
160.9447352335742
 30
0.0
 40
1.3
100
AcDbArc
 50
5.000000000000026
 51
74.11914999172198
  0
LINE
  5
1D77
330
2
100
AcDbEntity
  8
0
100
AcDbLine
 10
141.8033139720902
 20
161.438622509328
 30
0.0
 11
141.8033139720902
 21
133.438624509328
 31
0.0
  0
LINE
  5
1D79
330
2
100
AcDbEntity
  8
0
100
AcDbLine
 10
139.3033139720902
 20
131.438624509328
 30
0.0
 11
139.3033139720902
 21
129.938624509328
 31
0.0
  0
LINE
  5
1D7A
330
2
100
AcDbEntity
  8
0
100
AcDbLine
 10
139.8033139720902
 20
131.438624509328
 30
0.0
 11
141.8033139720902
 21
133.438624509328
 31
0.0
  0
LINE
  5
1D7B
330
2
100
AcDbEntity
  8
0
100
AcDbLine
 10
140.8033209720903
 20
162.438622509328
 30
0.0
 11
141.8033209720903
 21
161.438622509328
 31
0.0
  0
LINE
  5
1E81
330
2
100
AcDbEntity
  8
0
100
AcDbLine
 10
91.30331797209022
 20
297.0908795953615
 30
0.0
 11
91.30331797209022
 21
329.5908795953615
 31
0.0
  0
ENDSEC
  0
SECTION
  2
OBJECTS
  0
DICTIONARY
  5
7
330
0
100
AcDbDictionary
  3
ACAD_GROUP
350
75
  3
ACAD_LAYOUT
350
61
  3
ACAD_MLINESTYLE
350
76
  3
ACAD_PLOTSETTINGS
350
77
  3
ACAD_PLOTSTYLENAME
350
6
  3
ACADDIM
350
480
  3
ACDBHEADERROUNDTRIPXREC
350
1EF3
  3
ACDBVARIABLEDICTIONARY
350
102
  3
DWGPROPS
350
3D2
  0
DICTIONARY
  5
1F14
330
2
100
AcDbDictionary
280
     1
  3
ACAD_LAYOUTSELFREF
360
1F15
  0
DICTIONARY
  5
1F16
330
1EED
100
AcDbDictionary
280
     1
  3
ACAD_LAYOUTSELFREF
360
1F17
  0
DICTIONARY
  5
75
102
{ACAD_REACTORS
330
7
102
}
330
7
100
AcDbDictionary
  0
DICTIONARY
  5
61
102
{ACAD_REACTORS
330
7
102
}
330
7
100
AcDbDictionary
  0
DICTIONARY
  5
76
102
{ACAD_REACTORS
330
7
102
}
330
7
100
AcDbDictionary
  3
STANDARD
350
78
  0
DICTIONARY
  5
77
102
{ACAD_REACTORS
330
7
102
}
330
7
100
AcDbDictionary
  0
ACDBDICTIONARYWDFLT
  5
6
102
{ACAD_REACTORS
330
7
102
}
330
7
100
AcDbDictionary
281
     1
  3
Normal
350
5
100
AcDbDictionaryWithDefault
340
5
  0
XRECORD
  5
480
102
{ACAD_REACTORS
330
7
102
}
330
7
100
AcDbXrecord
 90
   990106
  3

 60
     0
 61
     0
 62
     1
 63
     3
 64
     1
 65
     0
 66
     0
 67
     3
 68
     1
 69
     0
 70
     0
 71
     0
 72
     0
 40
0.0
170
     2
340
0
  0
DICTIONARY
  5
1EF3
102
{ACAD_REACTORS
330
7
102
}
330
7
100
AcDbDictionary
  3
CEPSNTYPE
350
1EFD
  3
DIMSTYLEDATA
350
1F01
  3
FINGERPRINTGUID
350
1EFE
  3
HYPERLINKBASE
350
1EF6
  3
INSUNITS
350
1EFC
  3
LAYOUTDICT
350
1EF8
  3
LWETCUNION
350
1EFB
  3
PLOTSETDICT
350
1EF9
  3
PLOTSTYLNAMDICT
350
1EFA
  3
PSVPSCALE
350
1F00
  3
PUCSBASE
350
1F04
  3
PUCSORGBACK
350
1F0A
  3
PUCSORGBOTTOM
350
1F06
  3
PUCSORGFRONT
350
1F09
  3
PUCSORGLEFT
350
1F07
  3
PUCSORGRIGHT
350
1F08
  3
PUCSORGTOP
350
1F05
  3
PUCSORTHOREF
350
1F02
  3
PUCSORTHOVIEW
350
1F03
  3
STYLESHEET
350
1EF7
  3
TSTACKALIGN
350
1EF4
  3
TSTACKSIZE
350
1EF5
  3
UCSBASE
350
1F0D
  3
UCSORGBACK
350
1F13
  3
UCSORGBOTTOM
350
1F0F
  3
UCSORGFRONT
350
1F12
  3
UCSORGLEFT
350
1F10
  3
UCSORGRIGHT
350
1F11
  3
UCSORGTOP
350
1F0E
  3
UCSORTHOREF
350
1F0B
  3
UCSORTHOVIEW
350
1F0C
  3
VERSIONGUID
350
1EFF
  0
DICTIONARY
  5
102
102
{ACAD_REACTORS
330
7
102
}
330
7
100
AcDbDictionary
  3
DIMASSOC
350
103
  0
XRECORD
  5
3D2
102
{ACAD_REACTORS
330
7
102
}
330
7
100
AcDbXrecord
  1
DWGPROPS COOKIE
  2

  3

  4

  6

  7

  8

  9

300
=
301
=
302
=
303
=
304
=
305
=
306
=
307
=
308
=
309
=
 40
0.5353330671296296
 41
2452052.431989363
 42
2453406.550756377
  1

 90
        0
  0
XRECORD
  5
1F15
102
{ACAD_REACTORS
330
1F14
102
}
330
1F14
100
AcDbXrecord
340
2
  0
XRECORD
  5
1F17
102
{ACAD_REACTORS
330
1F16
102
}
330
1F16
100
AcDbXrecord
340
1EED
  0
MLINESTYLE
  5
78
102
{ACAD_REACTORS
330
76
102
}
330
76
100
AcDbMlineStyle
  2
STANDARD
 70
     0
  3

 62
     0
 51
90.0
 52
90.0
 71
     2
 49
0.5
 62
   256
  6
BYLAYER
 49
-0.5
 62
   256
  6
BYLAYER
  0
ACDBPLACEHOLDER
  5
5
102
{ACAD_REACTORS
330
6
102
}
330
6
100
AcDbPlaceHolder
280
     0
  0
XRECORD
  5
1EFD
102
{ACAD_REACTORS
330
1EF3
102
}
330
1EF3
100
AcDbXrecord
 90
        0
  0
XRECORD
  5
1F01
102
{ACAD_REACTORS
330
1EF3
102
}
330
1EF3
100
AcDbXrecord
1000
DSTYLE
1002
{
1070
   179
 70
     2
1070
   277
 70
     6
1002
}
  0
XRECORD
  5
1EFE
102
{ACAD_REACTORS
330
1EF3
102
}
330
1EF3
100
AcDbXrecord
  1
{6385560B-F4B1-4644-A7C2-A3E32AC3D232}
  0
XRECORD
  5
1EF6
102
{ACAD_REACTORS
330
1EF3
102
}
330
1EF3
100
AcDbXrecord
  1

  0
XRECORD
  5
1EFC
102
{ACAD_REACTORS
330
1EF3
102
}
330
1EF3
100
AcDbXrecord
 90
        0
  0
XRECORD
  5
1EF8
102
{ACAD_REACTORS
330
1EF3
102
}
330
1EF3
100
AcDbXrecord
340
61
  0
XRECORD
  5
1EFB
102
{ACAD_REACTORS
330
1EF3
102
}
330
1EF3
100
AcDbXrecord
 90
    10781
  0
XRECORD
  5
1EF9
102
{ACAD_REACTORS
330
1EF3
102
}
330
1EF3
100
AcDbXrecord
340
77
  0
XRECORD
  5
1EFA
102
{ACAD_REACTORS
330
1EF3
102
}
330
1EF3
100
AcDbXrecord
340
6
  0
XRECORD
  5
1F00
102
{ACAD_REACTORS
330
1EF3
102
}
330
1EF3
100
AcDbXrecord
 40
0.0
  0
XRECORD
  5
1F04
102
{ACAD_REACTORS
330
1EF3
102
}
330
1EF3
100
AcDbXrecord
340
0
  0
XRECORD
  5
1F0A
102
{ACAD_REACTORS
330
1EF3
102
}
330
1EF3
100
AcDbXrecord
 10
0.0
 20
0.0
 30
0.0
  0
XRECORD
  5
1F06
102
{ACAD_REACTORS
330
1EF3
102
}
330
1EF3
100
AcDbXrecord
 10
0.0
 20
0.0
 30
0.0
  0
XRECORD
  5
1F09
102
{ACAD_REACTORS
330
1EF3
102
}
330
1EF3
100
AcDbXrecord
 10
0.0
 20
0.0
 30
0.0
  0
XRECORD
  5
1F07
102
{ACAD_REACTORS
330
1EF3
102
}
330
1EF3
100
AcDbXrecord
 10
0.0
 20
0.0
 30
0.0
  0
XRECORD
  5
1F08
102
{ACAD_REACTORS
330
1EF3
102
}
330
1EF3
100
AcDbXrecord
 10
0.0
 20
0.0
 30
0.0
  0
XRECORD
  5
1F05
102
{ACAD_REACTORS
330
1EF3
102
}
330
1EF3
100
AcDbXrecord
 10
0.0
 20
0.0
 30
0.0
  0
XRECORD
  5
1F02
102
{ACAD_REACTORS
330
1EF3
102
}
330
1EF3
100
AcDbXrecord
340
0
  0
XRECORD
  5
1F03
102
{ACAD_REACTORS
330
1EF3
102
}
330
1EF3
100
AcDbXrecord
 70
     0
  0
XRECORD
  5
1EF7
102
{ACAD_REACTORS
330
1EF3
102
}
330
1EF3
100
AcDbXrecord
  1
Sekkei.ctb
  0
XRECORD
  5
1EF4
102
{ACAD_REACTORS
330
1EF3
102
}
330
1EF3
100
AcDbXrecord
 90
        1
  0
XRECORD
  5
1EF5
102
{ACAD_REACTORS
330
1EF3
102
}
330
1EF3
100
AcDbXrecord
 90
       70
  0
XRECORD
  5
1F0D
102
{ACAD_REACTORS
330
1EF3
102
}
330
1EF3
100
AcDbXrecord
340
0
  0
XRECORD
  5
1F13
102
{ACAD_REACTORS
330
1EF3
102
}
330
1EF3
100
AcDbXrecord
 10
0.0
 20
0.0
 30
0.0
  0
XRECORD
  5
1F0F
102
{ACAD_REACTORS
330
1EF3
102
}
330
1EF3
100
AcDbXrecord
 10
0.0
 20
0.0
 30
0.0
  0
XRECORD
  5
1F12
102
{ACAD_REACTORS
330
1EF3
102
}
330
1EF3
100
AcDbXrecord
 10
0.0
 20
0.0
 30
0.0
  0
XRECORD
  5
1F10
102
{ACAD_REACTORS
330
1EF3
102
}
330
1EF3
100
AcDbXrecord
 10
0.0
 20
0.0
 30
0.0
  0
XRECORD
  5
1F11
102
{ACAD_REACTORS
330
1EF3
102
}
330
1EF3
100
AcDbXrecord
 10
0.0
 20
0.0
 30
0.0
  0
XRECORD
  5
1F0E
102
{ACAD_REACTORS
330
1EF3
102
}
330
1EF3
100
AcDbXrecord
 10
0.0
 20
0.0
 30
0.0
  0
XRECORD
  5
1F0B
102
{ACAD_REACTORS
330
1EF3
102
}
330
1EF3
100
AcDbXrecord
340
0
  0
XRECORD
  5
1F0C
102
{ACAD_REACTORS
330
1EF3
102
}
330
1EF3
100
AcDbXrecord
 70
     0
  0
XRECORD
  5
1EFF
102
{ACAD_REACTORS
330
1EF3
102
}
330
1EF3
100
AcDbXrecord
  1
{89864FA9-180E-40EA-A544-FE2D455ABD68}
  0
DICTIONARYVAR
  5
103
102
{ACAD_REACTORS
330
102
102
}
330
102
100
DictionaryVariables
280
     0
  1
1
  0
ENDSEC
  0
EOF
