  0
SECTION
  2
HEADER
  9
$CLAYER
  8
1
  9
$LTSCALE
 40
3.0
  0
ENDSEC
  0
SECTION
  2
TABLES
  0
TABLE
  2
LTYPE
 70
     4
  0
LTYPE
  2
CONTINUOUS
  3
solid line
 70
    64
 72
    65
 73
     0
 40
0.0
  0
LTYPE
  2
DASHED
  3
__ __ __ __ __ __ __ __ __ __ __ __ __ __ __
 70
    64
 72
    65
 73
     2
 40
0.75
 49
0.5
 49
-0.25
  0
LTYPE
  2
CENTER
  3
____ _ ____ _ ____ _ ____ _ ____ _ ____ _ ____
 70
    64
 72
    65
 73
     4
 40
2.0
 49
1.25
 49
-0.25
 49
0.25
 49
-0.25
  0
LTYPE
  2
PHANTOM
  3
_____ _ _ _____ _ _ _____ _ _ _____ _ _ ____
 70
    64
 72
    65
 73
     6
 40
2.5
 49
1.25
 49
-0.25
 49
0.25
 49
-0.25
 49
0.25
 49
-0.25
  0
ENDTAB
  0
TABLE
  2
LAYER
 70
     1
  0
LAYER
  2
0
 70
    64
 62
     7
  6
CONTINUOUS
  0
ENDTAB
  0
TABLE
  2
STYLE
 70
     1
  0
STYLE
  2
STANDARD
 70
     0
 40
0.000000
 41
1.000000
 50
0.000000
 71
     0
 42
3.000000
  3
txt
  4
BIGFONT
  0
ENDTAB
  0
ENDSEC
  0
SECTION
  2
BLOCKS
  0
ENDSEC
  0
SECTION
  2
ENTITIES
  0
LINE
  8
0
  6
CENTER
 10
44.150002
 20
2.330000
 11
44.150002
 21
149.187500
  0
LINE
  8
0
  6
CONTINUOUS
 10
4.150000
 20
10.317500
 11
4.150000
 21
112.317497
  0
LINE
  8
0
  6
CONTINUOUS
 10
75.150002
 20
18.265421
 11
75.150002
 21
104.352089
  0
LINE
  8
0
  6
CONTINUOUS
 10
79.150002
 20
55.317497
 11
79.150002
 21
93.317497
  0
LINE
  8
0
  6
CENTER
 10
-2.050001
 20
74.317497
 11
113.400002
 21
74.317497
  0
LINE
  8
0
  6
CONTINUOUS
 10
78.150002
 20
94.317497
 11
77.150017
 21
94.317497
  0
LINE
  8
0
  6
CONTINUOUS
 10
78.150002
 20
54.317497
 11
77.150017
 21
54.317497
  0
LINE
  8
0
  6
CONTINUOUS
 10
73.184891
 20
106.351799
 11
15.115120
 21
107.365181
  0
LINE
  8
0
  6
CONTINUOUS
 10
73.184914
 20
16.265730
 11
15.115080
 21
15.251910
  0
ARC
  8
0
  6
CONTINUOUS
 10
73.150009
 20
104.352089
 40
2.000000
 50
0.000000
 51
89.000359
  0
ARC
  8
0
  6
CONTINUOUS
 10
73.150002
 20
18.265421
 40
2.000000
 50
-88.999634
 51
0.000000
  0
ARC
  8
0
  6
CONTINUOUS
 10
78.150002
 20
93.317497
 40
1.000000
 50
0.000000
 51
90.000000
  0
ARC
  8
0
  6
CONTINUOUS
 10
78.150002
 20
55.317493
 40
1.000000
 50
-90.000000
 51
0.000000
  0
LINE
  8
0
  6
CONTINUOUS
 10
13.150000
 20
32.617512
 11
13.150000
 21
11.817500
  0
LINE
  8
0
  6
CONTINUOUS
 10
4.150000
 20
112.317497
 11
11.999010
 21
112.317497
  0
LINE
  8
0
  6
CONTINUOUS
 10
11.615351
 20
10.317500
 11
4.150000
 21
10.317500
  0
LINE
  8
0
  6
CONTINUOUS
 10
16.150021
 20
87.017502
 11
73.181252
 21
87.017502
  0
LINE
  8
0
  6
CONTINUOUS
 10
16.150009
 20
35.617500
 11
73.712502
 21
35.617500
  0
ARC
  8
0
  6
CONTINUOUS
 10
11.650000
 20
11.817500
 40
1.500000
 50
-90.000000
 51
0.000000
  0
LINE
  8
0
  6
CONTINUOUS
 10
13.447899
 20
111.205719
 11
13.887700
 21
109.564362
  0
ARC
  8
0
  6
CONTINUOUS
 10
16.783110
 20
110.336540
 40
3.000000
 50
194.932602
 51
269.000610
  0
ARC
  8
0
  6
CONTINUOUS
 10
11.999010
 20
110.817497
 40
1.500000
 50
15.000070
 51
90.000000
  0
ARC
  8
0
  6
CONTINUOUS
 10
16.150000
 20
90.017502
 40
3.000000
 50
180.000000
 51
270.000000
  0
ARC
  8
0
  6
CONTINUOUS
 10
16.150021
 20
32.617519
 40
3.000000
 50
90.000000
 51
180.000000
  0
ARC
  8
0
  6
CONTINUOUS
 10
77.150002
 20
96.317497
 40
2.000000
 50
180.000000
 51
270.000000
  0
ARC
  8
0
  6
CONTINUOUS
 10
77.150017
 20
52.317509
 40
2.000000
 50
90.000000
 51
180.000000
  0
LINE
  8
0
  6
CONTINUOUS
 10
81.150002
 20
81.817497
 11
108.150002
 21
81.817497
  0
LINE
  8
0
  6
CONTINUOUS
 10
81.150002
 20
66.817497
 11
108.150002
 21
66.817497
  0
LINE
  8
0
  6
CONTINUOUS
 10
108.150002
 20
66.817497
 11
108.150002
 21
81.817497
  0
LINE
  8
0
  6
CONTINUOUS
 10
81.150002
 20
82.817497
 11
81.150002
 21
65.817497
  0
LINE
  8
0
  6
CONTINUOUS
 10
86.650017
 20
71.817497
 11
108.150002
 21
71.817497
  0
LINE
  8
0
  6
CONTINUOUS
 10
86.650002
 20
76.817497
 11
108.150002
 21
76.817497
  0
ARC
  8
0
  6
CONTINUOUS
 10
86.650017
 20
74.317513
 40
2.500000
 50
90.000000
 51
180.000000
  0
ARC
  8
0
  6
CONTINUOUS
 10
86.650002
 20
74.317497
 40
2.500000
 50
180.000000
 51
270.000000
  0
LINE
  8
0
  6
CENTER
 10
0.431250
 20
104.317497
 11
16.681250
 21
104.317497
  0
LINE
  8
0
  6
CENTER
 10
1.431250
 20
18.317499
 11
16.431250
 21
18.317499
  0
LINE
  8
0
  6
DASHED
 10
4.150000
 20
21.567499
 11
13.150019
 21
21.567499
  0
LINE
  8
0
  6
DASHED
 10
4.150000
 20
15.067500
 11
13.150000
 21
15.067500
  0
LINE
  8
0
  6
DASHED
 10
4.150000
 20
107.567497
 11
13.150000
 21
107.567497
  0
LINE
  8
0
  6
DASHED
 10
4.150000
 20
101.067497
 11
13.150000
 21
101.067497
  0
LINE
  8
0
  6
CONTINUOUS
 10
23.150000
 20
14.017500
 11
65.150002
 21
14.017500
  0
ARC
  8
0
  6
CONTINUOUS
 10
65.150002
 20
16.017500
 40
2.000000
 50
-90.000000
 51
0.000000
  0
ARC
  8
0
  6
CONTINUOUS
 10
23.150000
 20
16.017500
 40
2.000000
 50
199.216995
 51
270.000000
  0
LINE
  8
0
  6
CONTINUOUS
 10
67.150002
 20
16.017500
 11
67.150002
 21
16.160280
  0
ARC
  8
0
  6
CONTINUOUS
 10
44.150002
 20
52.017498
 40
38.000000
 50
-35.334469
 51
21.294241
  0
LINE
  8
0
  6
CENTER
 10
-2.050001
 20
52.017498
 11
91.900002
 21
52.017498
  0
ARC
  8
0
  6
CONTINUOUS
 10
15.149990
 20
109.364891
 40
2.000000
 50
180.000000
 51
269.000610
  0
LINE
  8
0
  6
CONTINUOUS
 10
13.150000
 20
111.779381
 11
13.150000
 21
90.017479
  0
ARC
  8
0
  6
CONTINUOUS
 10
15.150010
 20
13.252230
 40
2.000000
 50
91.000633
 51
180.000000
  0
LINE
  8
0
  6
CONTINUOUS
 10
13.547200
 20
11.799860
 11
13.884039
 21
13.057000
  0
ARC
  8
0
  6
CONTINUOUS
 10
11.615340
 20
12.317500
 40
2.000000
 50
270.000000
 51
345.000092
  0
ARC
  8
0
  6
CONTINUOUS
 10
16.781830
 20
12.280570
 40
3.000000
 50
91.000488
 51
165.000305
  0
LINE
  8
0
  6
CONTINUOUS
 10
79.150002
 20
82.817497
 11
81.150002
 21
82.817497
  0
LINE
  8
0
  6
CONTINUOUS
 10
79.150002
 20
65.817497
 11
81.150002
 21
65.817497
  0
LINE
  8
0
  6
CONTINUOUS
 10
84.150002
 20
29.017500
 11
84.150002
 21
66.817497
  0
LINE
  8
0
  6
CONTINUOUS
 10
22.221060
 20
12.017500
 11
67.150002
 21
12.017500
  0
LINE
  8
0
  6
CONTINUOUS
 10
81.150002
 20
26.017500
 11
77.546959
 21
26.017500
  0
LINE
  8
0
  6
CONTINUOUS
 10
70.150002
 20
15.017500
 11
70.150002
 21
16.212740
  0
LINE
  8
0
  6
CONTINUOUS
 10
75.150002
 20
23.620529
 11
77.546959
 21
26.017500
  0
LINE
  8
0
  6
CONTINUOUS
 10
18.685539
 20
13.481950
 11
16.884680
 21
15.282800
  0
ARC
  8
0
  6
CONTINUOUS
 10
81.150002
 20
29.017490
 40
3.000000
 50
-90.000000
 51
0.000000
  0
ARC
  8
0
  6
CONTINUOUS
 10
67.149986
 20
15.017480
 40
3.000000
 50
-90.000000
 51
0.000000
  0
ARC
  8
0
  6
CONTINUOUS
 10
22.221060
 20
17.017500
 40
5.000000
 50
225.000107
 51
270.000000
  0
LINE
  8
0
  6
CONTINUOUS
 10
329.149994
 20
14.017500
 11
329.149994
 21
90.017502
  0
LINE
  8
0
  6
CENTER
 10
398.231262
 20
52.017502
 11
235.756256
 21
52.017502
  0
LINE
  8
0
  6
CONTINUOUS
 10
329.149994
 20
90.017502
 11
256.230011
 21
90.017502
  0
LINE
  8
0
  6
CONTINUOUS
 10
258.649994
 20
14.017500
 11
329.149994
 21
14.017500
  0
LINE
  8
0
  6
CONTINUOUS
 10
246.149994
 20
10.317500
 11
182.149994
 21
10.317500
  0
LINE
  8
0
  6
CONTINUOUS
 10
246.149994
 20
112.317497
 11
182.149994
 21
112.317497
  0
LINE
  8
0
  6
CONTINUOUS
 10
256.649994
 20
87.017502
 11
256.649994
 21
22.017509
  0
LINE
  8
0
  6
CENTER
 10
214.149994
 20
121.018753
 11
214.149994
 21
1.080000
  0
LINE
  8
0
  6
CENTER
 10
182.149994
 20
24.455000
 11
182.149994
 21
12.955000
  0
LINE
  8
0
  6
CENTER
 10
187.993698
 20
18.317499
 11
175.743698
 21
18.317499
  0
CIRCLE
  8
0
  6
CONTINUOUS
 10
182.149994
 20
18.317499
 40
3.250000
  0
LINE
  8
0
  6
CENTER
 10
182.149994
 20
98.180000
 11
182.149994
 21
109.680000
  0
CIRCLE
  8
0
  6
CONTINUOUS
 10
182.149994
 20
104.317497
 40
3.250000
  0
LINE
  8
0
  6
CENTER
 10
246.149994
 20
98.180000
 11
246.149994
 21
109.680000
  0
LINE
  8
0
  6
CENTER
 10
240.306198
 20
104.317497
 11
252.556305
 21
104.317497
  0
CIRCLE
  8
0
  6
CONTINUOUS
 10
246.149994
 20
104.317497
 40
3.250000
  0
LINE
  8
0
  6
CENTER
 10
246.149994
 20
24.455000
 11
246.149994
 21
12.955000
  0
LINE
  8
0
  6
CENTER
 10
240.306198
 20
18.317499
 11
252.556305
 21
18.317499
  0
CIRCLE
  8
0
  6
CONTINUOUS
 10
246.149994
 20
18.317499
 40
3.250000
  0
LINE
  8
0
  6
CONTINUOUS
 10
171.649994
 20
87.017502
 11
171.649994
 21
35.617512
  0
LINE
  8
0
  6
CONTINUOUS
 10
174.227295
 20
105.426659
 11
171.649994
 21
87.017502
  0
LINE
  8
0
  6
CONTINUOUS
 10
174.227295
 20
17.208380
 11
171.649994
 21
35.617512
  0
LINE
  8
0
  6
CONTINUOUS
 10
254.072693
 20
17.208300
 11
255.234100
 21
25.503799
  0
LINE
  8
0
  6
CONTINUOUS
 10
254.072693
 20
105.426651
 11
256.649994
 21
87.017502
  0
LINE
  8
0
  6
CENTER
 10
242.037506
 20
74.317497
 11
183.831253
 21
74.317497
  0
LINE
  8
0
  6
CONTINUOUS
 10
204.649994
 20
76.817497
 11
204.649994
 21
71.817497
  0
LINE
  8
0
  6
CONTINUOUS
 10
209.649994
 20
71.817497
 11
209.649994
 21
76.817497
  0
LINE
  8
0
  6
CONTINUOUS
 10
209.649994
 20
76.817497
 11
204.649994
 21
76.817497
  0
LINE
  8
0
  6
CONTINUOUS
 10
209.649994
 20
71.817497
 11
204.649994
 21
71.817497
  0
ARC
  8
0
  6
CONTINUOUS
 10
214.149994
 20
74.317497
 40
7.500000
 50
-160.528793
 51
160.528793
  0
ARC
  8
0
  6
CONTINUOUS
 10
182.149994
 20
104.317497
 40
8.000000
 50
90.000000
 51
172.030304
  0
ARC
  8
0
  6
CONTINUOUS
 10
246.149994
 20
104.317497
 40
8.000000
 50
7.969498
 51
90.000000
  0
ARC
  8
0
  6
CONTINUOUS
 10
246.149994
 20
18.317499
 40
8.000000
 50
-90.000000
 51
-7.969604
  0
ARC
  8
0
  6
CONTINUOUS
 10
182.149994
 20
18.317499
 40
8.000000
 50
-172.030304
 51
-90.000000
  0
LINE
  8
0
  6
CONTINUOUS
 10
256.649994
 20
16.017500
 11
256.649994
 21
22.017509
  0
ARC
  8
0
  6
CONTINUOUS
 10
258.649994
 20
16.017500
 40
2.000000
 50
180.000000
 51
270.000000
  0
ARC
  8
0
  6
CONTINUOUS
 10
251.649994
 20
22.017521
 40
5.000000
 50
0.000000
 51
90.000000
  0
LINE
  8
0
  6
CONTINUOUS
 10
329.149994
 20
82.266472
 11
257.399994
 21
82.266472
  0
LINE
  8
0
  6
CONTINUOUS
 10
329.149994
 20
21.768539
 11
257.149994
 21
21.768539
  0
LINE
  8
0
  6
CONTINUOUS
 10
200.729507
 20
106.317497
 11
227.570496
 21
106.317497
  0
LINE
  8
0
  6
CONTINUOUS
 10
227.570496
 20
16.317499
 11
200.729507
 21
16.317499
  0
LINE
  8
0
  6
CONTINUOUS
 10
230.442795
 20
105.410156
 11
256.649994
 21
87.017502
  0
LINE
  8
0
  6
CONTINUOUS
 10
197.857193
 20
105.410156
 11
171.649994
 21
87.017502
  0
LINE
  8
0
  6
CONTINUOUS
 10
197.857193
 20
17.224840
 11
171.649994
 21
35.617512
  0
LINE
  8
0
  6
CONTINUOUS
 10
243.103302
 20
26.110161
 11
230.442795
 21
17.224840
  0
LINE
  8
0
  6
CONTINUOUS
 10
245.975601
 20
27.017500
 11
251.649994
 21
27.017500
  0
ARC
  8
0
  6
CONTINUOUS
 10
227.570602
 20
101.317497
 40
5.000000
 50
54.938221
 51
90.000000
  0
ARC
  8
0
  6
CONTINUOUS
 10
200.729507
 20
101.317513
 40
5.000000
 50
90.000000
 51
125.062103
  0
ARC
  8
0
  6
CONTINUOUS
 10
200.729507
 20
21.317499
 40
5.000000
 50
234.938095
 51
270.000000
  0
ARC
  8
0
  6
CONTINUOUS
 10
227.570496
 20
21.317499
 40
5.000000
 50
270.000000
 51
305.061890
  0
ARC
  8
0
  6
CONTINUOUS
 10
245.975601
 20
22.017509
 40
5.000000
 50
90.000000
 51
125.062103
  0
CIRCLE
  8
0
  6
CONTINUOUS
 10
214.149994
 20
74.317497
 40
20.000000
  0
LINE
  8
0
  6
CENTER
 10
176.837494
 20
104.317497
 11
187.524994
 21
104.317497
  0
LINE
  8
0
  6
CONTINUOUS
 10
205.783798
 20
38.317501
 11
202.318207
 21
38.317501
  0
LINE
  8
0
  6
CONTINUOUS
 10
207.696701
 20
44.122459
 11
207.696701
 21
38.317501
  0
LINE
  8
0
  6
CONTINUOUS
 10
211.028702
 20
46.230995
 11
211.028702
 21
48.313484
  0
LINE
  8
0
  6
CONTINUOUS
 10
217.692703
 20
46.230995
 11
217.692703
 21
48.313484
  0
LINE
  8
0
  6
CONTINUOUS
 10
213.709900
 20
47.090019
 11
213.709900
 21
39.410809
  0
LINE
  8
0
  6
CONTINUOUS
 10
214.959396
 20
47.090019
 11
214.959396
 21
39.410809
  0
LINE
  8
0
  6
CONTINUOUS
 10
221.519302
 20
47.090019
 11
221.519302
 21
39.358742
  0
LINE
  8
0
  6
CONTINUOUS
 10
222.664703
 20
42.990108
 11
222.664703
 21
39.358742
  0
LINE
  8
0
  6
CONTINUOUS
 10
206.115601
 20
46.985893
 11
202.904495
 21
46.985893
  0
LINE
  8
0
  6
CONTINUOUS
 10
203.401596
 20
39.488899
 11
202.916504
 21
39.488899
  0
LINE
  8
0
  6
CONTINUOUS
 10
202.904495
 20
46.985893
 11
202.152100
 21
46.052940
  0
LINE
  8
0
  6
CONTINUOUS
 10
202.242599
 20
48.313484
 11
201.032700
 21
46.764320
  0
LINE
  8
0
  6
CONTINUOUS
 10
202.152100
 20
40.294121
 11
202.916504
 21
39.488899
  0
LINE
  8
0
  6
CONTINUOUS
 10
201.032700
 20
39.614601
 11
202.318207
 21
38.317501
  0
LINE
  8
0
  6
CONTINUOUS
 10
201.032700
 20
46.764320
 11
201.032700
 21
39.614601
  0
LINE
  8
0
  6
CONTINUOUS
 10
202.152100
 20
46.052940
 11
202.152100
 21
40.294121
  0
LINE
  8
0
  6
CONTINUOUS
 10
206.733597
 20
46.388557
 11
206.102997
 21
46.985893
  0
LINE
  8
0
  6
CONTINUOUS
 10
206.723602
 20
48.313484
 11
207.696701
 21
47.233517
  0
LINE
  8
0
  6
CONTINUOUS
 10
206.733597
 20
46.230995
 11
207.696701
 21
46.230995
  0
LINE
  8
0
  6
CONTINUOUS
 10
202.242599
 20
48.313484
 11
206.723602
 21
48.313484
  0
LINE
  8
0
  6
CONTINUOUS
 10
204.989502
 20
44.122459
 11
207.696701
 21
44.122459
  0
LINE
  8
0
  6
CONTINUOUS
 10
206.733597
 20
43.029156
 11
204.989502
 21
43.029156
  0
LINE
  8
0
  6
CONTINUOUS
 10
204.234604
 20
39.488899
 11
203.401596
 21
39.488899
  0
LINE
  8
0
  6
CONTINUOUS
 10
206.733597
 20
41.987911
 11
206.733597
 21
42.820904
  0
LINE
  8
0
  6
CONTINUOUS
 10
204.651093
 20
39.488899
 11
204.234604
 21
39.488899
  0
LINE
  8
0
  6
CONTINUOUS
 10
206.733597
 20
41.571411
 11
206.733597
 21
41.987911
  0
LINE
  8
0
  6
CONTINUOUS
 10
206.733597
 20
41.516090
 11
206.733597
 21
41.571411
  0
ARC
  8
0
  6
CONTINUOUS
 10
204.651093
 20
41.571411
 40
2.082500
 50
-89.999786
 51
0.000109
  0
LINE
  8
0
  6
CONTINUOUS
 10
206.733597
 20
39.114330
 11
206.733597
 21
38.317501
  0
LINE
  8
0
  6
CONTINUOUS
 10
207.696701
 20
47.233517
 11
207.696701
 21
46.230995
  0
LINE
  8
0
  6
CONTINUOUS
 10
206.733597
 20
43.029156
 11
206.733597
 21
41.571411
  0
LINE
  8
0
  6
CONTINUOUS
 10
204.989502
 20
44.122459
 11
204.989502
 21
43.029156
  0
LINE
  8
0
  6
CONTINUOUS
 10
206.733597
 20
42.820904
 11
206.733597
 21
43.029156
  0
LINE
  8
0
  6
CONTINUOUS
 10
206.733597
 20
38.317501
 11
207.696701
 21
38.317501
  0
LINE
  8
0
  6
CONTINUOUS
 10
206.733597
 20
39.114330
 11
205.783798
 21
38.317501
  0
LINE
  8
0
  6
CONTINUOUS
 10
214.959396
 20
39.410809
 11
215.375900
 21
39.410809
  0
LINE
  8
0
  6
CONTINUOUS
 10
213.215302
 20
39.410809
 11
213.215302
 21
38.317501
  0
LINE
  8
0
  6
CONTINUOUS
 10
215.375900
 20
39.410809
 11
215.375900
 21
38.317501
  0
LINE
  8
0
  6
CONTINUOUS
 10
216.997604
 20
46.230995
 11
217.692703
 21
46.230995
  0
LINE
  8
0
  6
CONTINUOUS
 10
211.028702
 20
46.230995
 11
211.768402
 21
46.230995
  0
LINE
  8
0
  6
CONTINUOUS
 10
211.028702
 20
48.313484
 11
217.692703
 21
48.313484
  0
LINE
  8
0
  6
CONTINUOUS
 10
213.215302
 20
38.317501
 11
215.375900
 21
38.317501
  0
LINE
  8
0
  6
CONTINUOUS
 10
213.215302
 20
39.410809
 11
213.709900
 21
39.410809
  0
ARC
  8
0
  6
CONTINUOUS
 10
225.020493
 20
45.645290
 40
2.668203
 50
-73.981873
 51
90.003510
  0
ARC
  8
0
  6
CONTINUOUS
 10
225.020493
 20
45.645290
 40
1.627786
 50
-82.585274
 51
62.411850
  0
LINE
  8
0
  6
CONTINUOUS
 10
221.024704
 20
48.313484
 11
225.020493
 21
48.313484
  0
LINE
  8
0
  6
CONTINUOUS
 10
225.230606
 20
44.031109
 11
222.664703
 21
44.031109
  0
LINE
  8
0
  6
CONTINUOUS
 10
221.024704
 20
48.313484
 11
221.024704
 21
47.090019
  0
LINE
  8
0
  6
CONTINUOUS
 10
222.664703
 20
47.090019
 11
222.664703
 21
44.031109
  0
LINE
  8
0
  6
CONTINUOUS
 10
225.756805
 20
43.080685
 11
227.408203
 21
39.358742
  0
LINE
  8
0
  6
CONTINUOUS
 10
224.797607
 20
42.990108
 11
226.360504
 21
39.358742
  0
LINE
  8
0
  6
CONTINUOUS
 10
221.024704
 20
39.358742
 11
221.519302
 21
39.358742
  0
LINE
  8
0
  6
CONTINUOUS
 10
222.664703
 20
39.358742
 11
223.120193
 21
39.358742
  0
LINE
  8
0
  6
CONTINUOUS
 10
223.120193
 20
38.317501
 11
221.024704
 21
38.317501
  0
LINE
  8
0
  6
CONTINUOUS
 10
226.152893
 20
39.358742
 11
226.360504
 21
39.358742
  0
LINE
  8
0
  6
CONTINUOUS
 10
227.408203
 20
39.358742
 11
227.688705
 21
39.358742
  0
LINE
  8
0
  6
CONTINUOUS
 10
226.152893
 20
38.317501
 11
227.688705
 21
38.317501
  0
LINE
  8
0
  6
CONTINUOUS
 10
227.688705
 20
39.358742
 11
227.688705
 21
38.317501
  0
LINE
  8
0
  6
CONTINUOUS
 10
226.152893
 20
39.358742
 11
226.152893
 21
38.317501
  0
LINE
  8
0
  6
CONTINUOUS
 10
223.120193
 20
39.358742
 11
223.120193
 21
38.317501
  0
LINE
  8
0
  6
CONTINUOUS
 10
221.024704
 20
39.358742
 11
221.024704
 21
38.317501
  0
LINE
  8
0
  6
CONTINUOUS
 10
212.126404
 20
47.090019
 11
211.768402
 21
46.230995
  0
LINE
  8
0
  6
CONTINUOUS
 10
216.695801
 20
47.090019
 11
216.997604
 21
46.230995
  0
LINE
  8
0
  6
CONTINUOUS
 10
214.959396
 20
47.090019
 11
216.695801
 21
47.090019
  0
LINE
  8
0
  6
CONTINUOUS
 10
213.709900
 20
47.090019
 11
212.126404
 21
47.090019
  0
LINE
  8
0
  6
CONTINUOUS
 10
222.664703
 20
42.990108
 11
224.797607
 21
42.990108
  0
LINE
  8
0
  6
CONTINUOUS
 10
221.024704
 20
47.090019
 11
221.519302
 21
47.090019
  0
LINE
  8
0
  6
CONTINUOUS
 10
222.664703
 20
47.090019
 11
225.774399
 21
47.088009
  0
LINE
  8
0
  6
CONTINUOUS
 10
206.733597
 20
46.388557
 11
206.733597
 21
46.230995
  0
LINE
  8
0
  6
CONTINUOUS
 10
338.649994
 20
90.017502
 11
329.149994
 21
90.017502
  0
LINE
  8
0
  6
CONTINUOUS
 10
338.649994
 20
14.017500
 11
329.149994
 21
14.017500
  0
LINE
  8
0
  6
CONTINUOUS
 10
338.649994
 20
12.017500
 11
338.649994
 21
92.017502
  0
LINE
  8
0
  6
CONTINUOUS
 10
338.649994
 20
82.266502
 11
329.149994
 21
82.266502
  0
LINE
  8
0
  6
CONTINUOUS
 10
338.649994
 20
21.768499
 11
329.149994
 21
21.768499
  0
LINE
  8
0
  6
CONTINUOUS
 10
382.649994
 20
92.017502
 11
338.649994
 21
92.017502
  0
LINE
  8
0
  6
CONTINUOUS
 10
382.649994
 20
12.017500
 11
338.649994
 21
12.017500
  0
LINE
  8
0
  6
CONTINUOUS
 10
387.649994
 20
17.017500
 11
387.649994
 21
87.017502
  0
ARC
  8
0
  6
CONTINUOUS
 10
382.649994
 20
87.017517
 40
5.000000
 50
0.000000
 51
90.000000
  0
ARC
  8
0
  6
CONTINUOUS
 10
382.649994
 20
17.017500
 40
5.000000
 50
-90.000000
 51
0.000000
  0
LINE
  8
0
  6
CONTINUOUS
 10
385.149994
 20
26.017500
 11
338.649994
 21
26.017500
  0
LINE
  8
0
  6
CONTINUOUS
 10
385.149994
 20
76.017502
 11
338.649994
 21
76.017502
  0
LINE
  8
0
  6
CENTER
 10
214.149994
 20
206.789993
 11
214.149994
 21
326.845001
  0
LINE
  8
0
  6
CENTER
 10
397.500610
 20
275.290009
 11
165.649994
 21
275.290009
  0
LINE
  8
0
  6
CONTINUOUS
 10
175.457520
 20
244.289993
 11
254.701691
 21
244.289993
  0
LINE
  8
0
  6
CONTINUOUS
 10
338.649994
 20
237.289993
 11
329.149994
 21
237.289993
  0
LINE
  8
0
  6
CONTINUOUS
 10
338.649994
 20
313.290009
 11
329.149994
 21
313.290009
  0
LINE
  8
0
  6
CONTINUOUS
 10
338.649994
 20
252.289993
 11
338.149994
 21
252.289993
  0
LINE
  8
0
  6
CONTINUOUS
 10
329.149994
 20
313.290009
 11
329.149994
 21
306.290009
  0
LINE
  8
0
  6
CONTINUOUS
 10
338.649994
 20
298.290009
 11
338.149994
 21
298.290009
  0
LINE
  8
0
  6
CONTINUOUS
 10
258.781616
 20
237.289993
 11
329.149994
 21
237.289993
  0
LINE
  8
0
  6
CONTINUOUS
 10
276.149994
 20
252.289993
 11
253.230316
 21
252.289993
  0
LINE
  8
0
  6
CONTINUOUS
 10
255.859146
 20
306.290009
 11
172.859833
 21
306.290009
  0
LINE
  8
0
  6
CONTINUOUS
 10
258.163605
 20
313.290009
 11
329.149994
 21
313.290009
  0
LINE
  8
0
  6
CONTINUOUS
 10
276.149994
 20
298.290009
 11
257.095154
 21
298.290009
  0
LINE
  8
0
  6
CONTINUOUS
 10
234.149994
 20
241.289993
 11
234.149994
 21
244.289993
  0
LINE
  8
0
  6
CONTINUOUS
 10
194.149994
 20
241.289993
 11
194.149994
 21
244.289993
  0
LINE
  8
0
  6
CONTINUOUS
 10
195.149994
 20
240.289993
 11
233.149994
 21
240.289993
  0
ARC
  8
0
  6
CONTINUOUS
 10
233.149994
 20
241.289993
 40
1.000000
 50
-90.000000
 51
0.000000
  0
ARC
  8
0
  6
CONTINUOUS
 10
195.149994
 20
241.289993
 40
1.000000
 50
180.000000
 51
270.000000
  0
LINE
  8
0
  6
CONTINUOUS
 10
221.649994
 20
211.289993
 11
221.649994
 21
238.289993
  0
LINE
  8
0
  6
CONTINUOUS
 10
221.649994
 20
211.289993
 11
204.649994
 21
211.289993
  0
LINE
  8
0
  6
CONTINUOUS
 10
222.649994
 20
238.289993
 11
205.649994
 21
238.289993
  0
LINE
  8
0
  6
CONTINUOUS
 10
222.649994
 20
238.289993
 11
222.649994
 21
240.289993
  0
LINE
  8
0
  6
CONTINUOUS
 10
205.649994
 20
238.289993
 11
205.649994
 21
240.289993
  0
LINE
  8
0
  6
CONTINUOUS
 10
204.649994
 20
235.289993
 11
204.649994
 21
211.289993
  0
LINE
  8
0
  6
CONTINUOUS
 10
207.078995
 20
235.289993
 11
207.078995
 21
211.289993
  0
LINE
  8
0
  6
CONTINUOUS
 10
207.078995
 20
235.289993
 11
204.649994
 21
235.289993
  0
LINE
  8
0
  6
CONTINUOUS
 10
206.649994
 20
235.289993
 11
206.649994
 21
238.289993
  0
LINE
  8
0
  6
CONTINUOUS
 10
199.149994
 20
305.290009
 11
199.149994
 21
246.255096
  0
LINE
  8
0
  6
CONTINUOUS
 10
229.149994
 20
305.290009
 11
229.149994
 21
246.255096
  0
LINE
  8
0
  6
CONTINUOUS
 10
256.859406
 20
252.287262
 11
256.700989
 21
246.237640
  0
LINE
  8
0
  6
CONTINUOUS
 10
252.375381
 20
305.108765
 11
252.375381
 21
254.289734
  0
LINE
  8
0
  6
CONTINUOUS
 10
329.149994
 20
244.289993
 11
329.149994
 21
237.289993
  0
LINE
  8
0
  6
CONTINUOUS
 10
256.649994
 20
315.290009
 11
171.649994
 21
315.290009
  0
LINE
  8
0
  6
CONTINUOUS
 10
173.458206
 20
246.237640
 11
171.649994
 21
315.290009
  0
ARC
  8
0
  6
CONTINUOUS
 10
175.457520
 20
246.289993
 40
2.000000
 50
181.500000
 51
270.000000
  0
LINE
  8
0
  6
CONTINUOUS
 10
257.697449
 20
275.290009
 11
256.649994
 21
315.290009
  0
LINE
  8
0
  6
CONTINUOUS
 10
174.227295
 20
315.290009
 11
174.227295
 21
307.600311
  0
LINE
  8
0
  6
CONTINUOUS
 10
254.072693
 20
315.290009
 11
254.072693
 21
307.600311
  0
ARC
  8
0
  6
CONTINUOUS
 10
230.149994
 20
305.290009
 40
1.000000
 50
90.000000
 51
180.000000
  0
ARC
  8
0
  6
CONTINUOUS
 10
198.149994
 20
305.290009
 40
1.000000
 50
0.000000
 51
90.000000
  0
LINE
  8
0
  6
CONTINUOUS
 10
229.149994
 20
304.970001
 11
199.149994
 21
304.970001
  0
ARC
  8
0
  6
CONTINUOUS
 10
172.859833
 20
307.290009
 40
1.000000
 50
181.500000
 51
270.000000
  0
LINE
  8
0
  6
CONTINUOUS
 10
256.782288
 20
239.237640
 11
256.700989
 21
242.342361
  0
ARC
  8
0
  6
CONTINUOUS
 10
255.859146
 20
307.290009
 40
1.000000
 50
-90.000000
 51
1.499999
  0
ARC
  8
0
  6
CONTINUOUS
 10
258.163605
 20
314.790009
 40
1.500000
 50
181.500000
 51
270.000000
  0
ARC
  8
0
  6
CONTINUOUS
 10
258.781616
 20
239.289993
 40
2.000000
 50
181.500000
 51
270.000000
  0
ARC
  8
0
  6
CONTINUOUS
 10
254.701691
 20
242.289993
 40
2.000000
 50
1.500000
 51
90.000000
  0
ARC
  8
0
  6
CONTINUOUS
 10
254.701691
 20
246.289993
 40
2.000000
 50
270.000000
 51
358.500000
  0
LINE
  8
0
  6
CENTER
 10
182.149994
 20
319.180145
 11
182.149994
 21
302.039368
  0
LINE
  8
0
  6
DASHED
 10
178.899994
 20
306.290009
 11
178.899994
 21
315.290009
  0
LINE
  8
0
  6
DASHED
 10
185.399994
 20
306.290009
 11
185.399994
 21
315.290009
  0
LINE
  8
0
  6
CENTER
 10
246.149994
 20
319.180145
 11
246.149994
 21
302.039368
  0
LINE
  8
0
  6
DASHED
 10
249.399994
 20
306.290009
 11
249.399994
 21
315.290009
  0
LINE
  8
0
  6
DASHED
 10
242.899994
 20
306.290009
 11
242.899994
 21
315.290009
  0
LINE
  8
0
  6
CONTINUOUS
 10
338.649994
 20
315.290009
 11
338.649994
 21
235.289993
  0
LINE
  8
0
  6
CONTINUOUS
 10
382.649994
 20
235.289993
 11
338.649994
 21
235.289993
  0
LINE
  8
0
  6
CONTINUOUS
 10
382.649994
 20
315.290009
 11
338.649994
 21
315.290009
  0
LINE
  8
0
  6
CONTINUOUS
 10
387.649994
 20
310.290009
 11
387.649994
 21
240.289993
  0
ARC
  8
0
  6
CONTINUOUS
 10
382.649994
 20
240.289978
 40
5.000000
 50
-90.000000
 51
0.000000
  0
ARC
  8
0
  6
CONTINUOUS
 10
382.649994
 20
310.290009
 40
5.000000
 50
0.000000
 51
90.000000
  0
LINE
  8
0
  6
CONTINUOUS
 10
385.149994
 20
301.290009
 11
338.649994
 21
301.290009
  0
LINE
  8
0
  6
CONTINUOUS
 10
385.149994
 20
251.289993
 11
338.649994
 21
251.289993
  0
LINE
  8
0
  6
CONTINUOUS
 10
336.649994
 20
91.517502
 11
278.149994
 21
91.517502
  0
LINE
  8
0
  6
CONTINUOUS
 10
336.649994
 20
91.517502
 11
336.649994
 21
90.017502
  0
LINE
  8
0
  6
CONTINUOUS
 10
290.649994
 20
91.517502
 11
290.649994
 21
90.017502
  0
LINE
  8
0
  6
CONTINUOUS
 10
338.149994
 20
140.517502
 11
338.149994
 21
93.517502
  0
LINE
  8
0
  6
CONTINUOUS
 10
276.149994
 20
140.517517
 11
276.149994
 21
93.517502
  0
LINE
  8
0
  6
CONTINUOUS
 10
276.149994
 20
93.517502
 11
278.149994
 21
91.517502
  0
LINE
  8
0
  6
CONTINUOUS
 10
338.149994
 20
93.517502
 11
336.149994
 21
91.517502
  0
LINE
  8
0
  6
CONTINUOUS
 10
338.149994
 20
93.517502
 11
276.149994
 21
93.517502
  0
LINE
  8
0
  6
CONTINUOUS
 10
338.149994
 20
103.517517
 11
276.149994
 21
103.517517
  0
LINE
  8
0
  6
CENTER
 10
307.149994
 20
144.946487
 11
307.149994
 21
86.923492
  0
LINE
  8
0
  6
CONTINUOUS
 10
338.149994
 20
104.517517
 11
276.149994
 21
104.517517
  0
LINE
  8
0
  6
CONTINUOUS
 10
337.149994
 20
141.517502
 11
277.149994
 21
141.517517
  0
LINE
  8
0
  6
CONTINUOUS
 10
277.149994
 20
141.517517
 11
276.149994
 21
140.517517
  0
LINE
  8
0
  6
CONTINUOUS
 10
338.149994
 20
140.517502
 11
337.149994
 21
141.517502
  0
LINE
  8
0
  6
CONTINUOUS
 10
338.149994
 20
140.517502
 11
276.149994
 21
140.517517
  0
LINE
  8
0
  6
CENTER
 10
340.774994
 20
124.517517
 11
335.024994
 21
124.517517
  0
LINE
  8
0
  6
CONTINUOUS
 10
339.274994
 20
135.017517
 11
336.149994
 21
135.017517
  0
LINE
  8
0
  6
CONTINUOUS
 10
339.274994
 20
114.017517
 11
336.149994
 21
114.017517
  0
LINE
  8
0
  6
CONTINUOUS
 10
14.150000
 20
141.517502
 11
74.150002
 21
141.517502
  0
LINE
  8
0
  6
CONTINUOUS
 10
74.150002
 20
141.517502
 11
75.150002
 21
140.517502
  0
LINE
  8
0
  6
CONTINUOUS
 10
14.150000
 20
141.517502
 11
13.150000
 21
140.517502
  0
LINE
  8
0
  6
CONTINUOUS
 10
13.150000
 20
140.517502
 11
75.150002
 21
140.517502
  0
LINE
  8
0
  6
CONTINUOUS
 10
75.150002
 20
140.517502
 11
75.150002
 21
104.352089
  0
LINE
  8
0
  6
CONTINUOUS
 10
13.150000
 20
140.517502
 11
13.150000
 21
111.779381
  0
LINE
  8
0
  6
CONTINUOUS
 10
338.149994
 20
246.289993
 11
338.149994
 21
304.290009
  0
LINE
  8
0
  6
CONTINUOUS
 10
276.149994
 20
304.290009
 11
276.149994
 21
246.289993
  0
LINE
  8
0
  6
CONTINUOUS
 10
336.149994
 20
244.289993
 11
278.149994
 21
244.289993
  0
LINE
  8
0
  6
CONTINUOUS
 10
336.149994
 20
306.290009
 11
278.149994
 21
306.290009
  0
LINE
  8
0
  6
CONTINUOUS
 10
278.149994
 20
244.289993
 11
276.149994
 21
246.289993
  0
LINE
  8
0
  6
CONTINUOUS
 10
276.149994
 20
304.290009
 11
278.149994
 21
306.290009
  0
LINE
  8
0
  6
CONTINUOUS
 10
338.149994
 20
304.290009
 11
336.149994
 21
306.290009
  0
LINE
  8
0
  6
CONTINUOUS
 10
338.149994
 20
246.289993
 11
336.149994
 21
244.289993
  0
LINE
  8
0
  6
CONTINUOUS
 10
284.149994
 20
249.289993
 11
284.149994
 21
244.289993
  0
LINE
  8
0
  6
CONTINUOUS
 10
281.149994
 20
252.289993
 11
276.149994
 21
252.289993
  0
CIRCLE
  8
0
  6
CONTINUOUS
 10
280.149994
 20
248.289993
 40
2.250000
  0
ARC
  8
0
  6
CONTINUOUS
 10
281.149994
 20
249.289993
 40
3.000000
 50
0.000000
 51
90.000000
  0
LINE
  8
0
  6
CONTINUOUS
 10
277.149994
 20
253.289993
 11
277.149994
 21
297.290009
  0
LINE
  8
0
  6
CONTINUOUS
 10
281.149994
 20
253.289993
 11
277.149994
 21
253.289993
  0
ARC
  8
0
  6
CONTINUOUS
 10
281.149994
 20
249.289993
 40
4.000000
 50
0.000000
 51
90.000000
  0
LINE
  8
0
  6
CONTINUOUS
 10
285.149994
 20
245.289993
 11
285.149994
 21
249.289993
  0
LINE
  8
0
  6
CONTINUOUS
 10
277.149994
 20
253.289993
 11
276.149994
 21
252.289993
  0
LINE
  8
0
  6
CONTINUOUS
 10
329.149994
 20
245.289993
 11
285.149994
 21
245.289993
  0
LINE
  8
0
  6
CONTINUOUS
 10
285.149994
 20
245.289993
 11
284.149994
 21
244.289993
  0
LINE
  8
0
  6
CONTINUOUS
 10
333.149994
 20
252.289993
 11
338.149994
 21
252.289993
  0
LINE
  8
0
  6
CONTINUOUS
 10
330.149994
 20
249.289993
 11
330.149994
 21
244.289993
  0
CIRCLE
  8
0
  6
CONTINUOUS
 10
334.149994
 20
248.289993
 40
2.250000
  0
ARC
  8
0
  6
CONTINUOUS
 10
333.149994
 20
249.289993
 40
3.000000
 50
90.000000
 51
180.000000
  0
LINE
  8
0
  6
CONTINUOUS
 10
329.149994
 20
249.289993
 11
329.149994
 21
245.289993
  0
ARC
  8
0
  6
CONTINUOUS
 10
333.149994
 20
249.289993
 40
4.000000
 50
90.000000
 51
180.000000
  0
LINE
  8
0
  6
CONTINUOUS
 10
337.149994
 20
253.289993
 11
333.149994
 21
253.289993
  0
LINE
  8
0
  6
CONTINUOUS
 10
329.149994
 20
245.289993
 11
330.149994
 21
244.289993
  0
LINE
  8
0
  6
CONTINUOUS
 10
337.149994
 20
253.289993
 11
338.149994
 21
252.289993
  0
LINE
  8
0
  6
CONTINUOUS
 10
330.149994
 20
301.290009
 11
330.149994
 21
306.290009
  0
LINE
  8
0
  6
CONTINUOUS
 10
333.149994
 20
298.290009
 11
338.149994
 21
298.290009
  0
CIRCLE
  8
0
  6
CONTINUOUS
 10
334.149994
 20
302.290009
 40
2.250000
  0
ARC
  8
0
  6
CONTINUOUS
 10
333.149994
 20
301.290009
 40
3.000000
 50
180.000000
 51
270.000000
  0
LINE
  8
0
  6
CONTINUOUS
 10
333.149994
 20
297.290009
 11
337.149994
 21
297.290009
  0
ARC
  8
0
  6
CONTINUOUS
 10
333.149994
 20
301.290009
 40
4.000000
 50
180.000000
 51
270.000000
  0
LINE
  8
0
  6
CONTINUOUS
 10
329.149994
 20
305.290009
 11
329.149994
 21
301.290009
  0
LINE
  8
0
  6
CONTINUOUS
 10
337.149994
 20
297.290009
 11
338.149994
 21
298.290009
  0
LINE
  8
0
  6
CONTINUOUS
 10
329.149994
 20
305.290009
 11
330.149994
 21
306.290009
  0
LINE
  8
0
  6
CONTINUOUS
 10
281.149994
 20
298.290009
 11
276.149994
 21
298.290009
  0
LINE
  8
0
  6
CONTINUOUS
 10
284.149994
 20
301.290009
 11
284.149994
 21
306.290009
  0
CIRCLE
  8
0
  6
CONTINUOUS
 10
280.149994
 20
302.290009
 40
2.250000
  0
ARC
  8
0
  6
CONTINUOUS
 10
281.149994
 20
301.290009
 40
3.000000
 50
-90.000000
 51
0.000000
  0
LINE
  8
0
  6
CONTINUOUS
 10
285.149994
 20
301.290009
 11
285.149994
 21
305.290009
  0
ARC
  8
0
  6
CONTINUOUS
 10
281.149994
 20
301.290009
 40
4.000000
 50
-90.000000
 51
0.000000
  0
LINE
  8
0
  6
CONTINUOUS
 10
277.149994
 20
297.290009
 11
281.149994
 21
297.290009
  0
LINE
  8
0
  6
CONTINUOUS
 10
285.149994
 20
305.290009
 11
284.149994
 21
306.290009
  0
LINE
  8
0
  6
CONTINUOUS
 10
277.149994
 20
297.290009
 11
276.149994
 21
298.290009
  0
LINE
  8
0
  6
CONTINUOUS
 10
329.149994
 20
305.290009
 11
285.149994
 21
305.290009
  0
LINE
  8
0
  6
CONTINUOUS
 10
337.149994
 20
253.289993
 11
337.149994
 21
297.290009
  0
LINE
  8
0
  6
CENTER
 10
307.149994
 20
239.043747
 11
307.149994
 21
311.736572
  0
TEXT
  8
0
 10
-76.000000
 20
1.000000
 40
4.000000
 41
1.000000
  1
HFMN-15L-10~120-S40C
 50
0.000000
  0
ENDSEC
  0
EOF
