  0
SECTION
  2
HEADER
  9
$ACADVER
  1
AC1014
  9
$ACADMAINTVER
 70
     9
  9
$DWGCODEPAGE
  3
ANSI_932
  9
$INSBASE
 10
0.0
 20
0.0
 30
0.0
  9
$EXTMIN
 10
37.61776681435134
 20
39.44007077789024
 30
0.0
  9
$EXTMAX
 10
477.1635612473353
 20
327.3675647778901
 30
0.0
  9
$LIMMIN
 10
0.0
 20
0.0
  9
$LIMMAX
 10
297.0
 20
210.0
  9
$ORTHOMODE
 70
     1
  9
$REGENMODE
 70
     1
  9
$FILLMODE
 70
     1
  9
$QTEXTMODE
 70
     0
  9
$MIRRTEXT
 70
     0
  9
$DRAGMODE
 70
     2
  9
$LTSCALE
 40
2.0
  9
$OSMODE
 70
    37
  9
$ATTMODE
 70
     1
  9
$TEXTSIZE
 40
2.0
  9
$TRACEWID
 40
1.0
  9
$TEXTSTYLE
  7
STANDARD
  9
$CLAYER
  8
0
  9
$CELTYPE
  6
BYLAYER
  9
$CECOLOR
 62
   256
  9
$CELTSCALE
 40
1.0
  9
$DELOBJ
 70
     1
  9
$DISPSILH
 70
     0
  9
$DIMSCALE
 40
2.0
  9
$DIMASZ
 40
1.8
  9
$DIMEXO
 40
0.625
  9
$DIMDLI
 40
3.75
  9
$DIMRND
 40
0.0
  9
$DIMDLE
 40
0.0
  9
$DIMEXE
 40
0.8
  9
$DIMTP
 40
0.0
  9
$DIMTM
 40
0.0
  9
$DIMTXT
 40
1.8
  9
$DIMCEN
 40
2.5
  9
$DIMTSZ
 40
0.0
  9
$DIMTOL
 70
     0
  9
$DIMLIM
 70
     0
  9
$DIMTIH
 70
     0
  9
$DIMTOH
 70
     0
  9
$DIMSE1
 70
     0
  9
$DIMSE2
 70
     0
  9
$DIMTAD
 70
     1
  9
$DIMZIN
 70
     8
  9
$DIMBLK
  1

  9
$DIMASO
 70
     1
  9
$DIMSHO
 70
     1
  9
$DIMPOST
  1

  9
$DIMAPOST
  1

  9
$DIMALT
 70
     0
  9
$DIMALTD
 70
     4
  9
$DIMALTF
 40
0.0394
  9
$DIMLFAC
 40
1.0
  9
$DIMTOFL
 70
     1
  9
$DIMTVP
 40
0.0
  9
$DIMTIX
 70
     0
  9
$DIMSOXD
 70
     0
  9
$DIMSAH
 70
     0
  9
$DIMBLK1
  1

  9
$DIMBLK2
  1

  9
$DIMSTYLE
  2
STANDARD
  9
$DIMCLRD
 70
     0
  9
$DIMCLRE
 70
     0
  9
$DIMCLRT
 70
     0
  9
$DIMTFAC
 40
1.0
  9
$DIMGAP
 40
0.75
  9
$DIMJUST
 70
     0
  9
$DIMSD1
 70
     0
  9
$DIMSD2
 70
     0
  9
$DIMTOLJ
 70
     1
  9
$DIMTZIN
 70
     0
  9
$DIMALTZ
 70
     0
  9
$DIMALTTZ
 70
     0
  9
$DIMFIT
 70
     3
  9
$DIMUPT
 70
     0
  9
$DIMUNIT
 70
     8
  9
$DIMDEC
 70
     2
  9
$DIMTDEC
 70
     2
  9
$DIMALTU
 70
     8
  9
$DIMALTTD
 70
     4
  9
$DIMTXSTY
  7
STANDARD
  9
$DIMAUNIT
 70
     0
  9
$LUNITS
 70
     2
  9
$LUPREC
 70
     3
  9
$SKETCHINC
 40
1.0
  9
$FILLETRAD
 40
10.0
  9
$AUNITS
 70
     0
  9
$AUPREC
 70
     2
  9
$MENU
  1
.
  9
$ELEVATION
 40
0.0
  9
$PELEVATION
 40
0.0
  9
$THICKNESS
 40
0.0
  9
$LIMCHECK
 70
     0
  9
$BLIPMODE
 70
     0
  9
$CHAMFERA
 40
0.0
  9
$CHAMFERB
 40
0.0
  9
$CHAMFERC
 40
20.0
  9
$CHAMFERD
 40
0.0
  9
$SKPOLY
 70
     0
  9
$TDCREATE
 40
2453754.488016493
  9
$TDUPDATE
 40
2454399.558776759
  9
$TDINDWG
 40
0.1482396875
  9
$TDUSRTIMER
 40
0.1482396875
  9
$USRTIMER
 70
     1
  9
$ANGBASE
 50
0.0
  9
$ANGDIR
 70
     0
  9
$PDMODE
 70
     0
  9
$PDSIZE
 40
-10.0
  9
$PLINEWID
 40
0.0
  9
$COORDS
 70
     1
  9
$SPLFRAME
 70
     0
  9
$SPLINETYPE
 70
     6
  9
$SPLINESEGS
 70
     8
  9
$ATTDIA
 70
     0
  9
$ATTREQ
 70
     1
  9
$HANDLING
 70
-16383
  9
$HANDSEED
  5
1AE0
  9
$SURFTAB1
 70
     6
  9
$SURFTAB2
 70
     6
  9
$SURFTYPE
 70
     6
  9
$SURFU
 70
     6
  9
$SURFV
 70
     6
  9
$UCSNAME
  2

  9
$UCSORG
 10
0.0
 20
0.0
 30
0.0
  9
$UCSXDIR
 10
1.0
 20
0.0
 30
0.0
  9
$UCSYDIR
 10
0.0
 20
1.0
 30
0.0
  9
$PUCSNAME
  2

  9
$PUCSORG
 10
0.0
 20
0.0
 30
0.0
  9
$PUCSXDIR
 10
1.0
 20
0.0
 30
0.0
  9
$PUCSYDIR
 10
0.0
 20
1.0
 30
0.0
  9
$USERI1
 70
     0
  9
$USERI2
 70
     0
  9
$USERI3
 70
     0
  9
$USERI4
 70
     0
  9
$USERI5
 70
     0
  9
$USERR1
 40
0.0
  9
$USERR2
 40
0.0
  9
$USERR3
 40
0.0
  9
$USERR4
 40
0.0
  9
$USERR5
 40
0.0
  9
$WORLDVIEW
 70
     1
  9
$SHADEDGE
 70
     3
  9
$SHADEDIF
 70
    70
  9
$TILEMODE
 70
     1
  9
$MAXACTVP
 70
    48
  9
$PINSBASE
 10
0.0
 20
0.0
 30
0.0
  9
$PLIMCHECK
 70
     0
  9
$PEXTMIN
 10
0.0
 20
0.0
 30
0.0
  9
$PEXTMAX
 10
0.0
 20
0.0
 30
0.0
  9
$PLIMMIN
 10
0.0
 20
0.0
  9
$PLIMMAX
 10
12.0
 20
9.0
  9
$UNITMODE
 70
     0
  9
$VISRETAIN
 70
     1
  9
$PLINEGEN
 70
     0
  9
$PSLTSCALE
 70
     1
  9
$TREEDEPTH
 70
  3020
  9
$PICKSTYLE
 70
     1
  9
$CMLSTYLE
  2
STANDARD
  9
$CMLJUST
 70
     0
  9
$CMLSCALE
 40
1.0
  9
$PROXYGRAPHICS
 70
     1
  9
$MEASUREMENT
 70
     0
  0
ENDSEC
  0
SECTION
  2
CLASSES
  0
CLASS
  1
DICTIONARYVAR
  2
AcDbDictionaryVar
  3
AutoCAD 2000
 90
        0
280
     0
281
     0
  0
CLASS
  1
ACDBDICTIONARYWDFLT
  2
AcDbDictionaryWithDefault
  3
AutoCAD 2000
 90
        0
280
     0
281
     0
  0
CLASS
  1
ACDBPLACEHOLDER
  2
AcDbPlaceHolder
  3
AutoCAD 2000
 90
        0
280
     0
281
     0
  0
CLASS
  1
LAYOUT
  2
AcDbLayout
  3
AutoCAD 2000
 90
        0
280
     0
281
     0
  0
CLASS
  1
LONG_TRANSACTION
  2
AcDbLongTransaction
  3
AutoCAD 2000
 90
        0
280
     0
281
     0
  0
CLASS
  1
LWPOLYLINE
  2
AcDbPolyline
  3
AutoCAD 2000
 90
        0
280
     0
281
     1
  0
CLASS
  1
HATCH
  2
AcDbHatch
  3
AutoCAD 2000
 90
        0
280
     0
281
     1
  0
CLASS
  1
XRECORD
  2
AcDbXrecord
  3
AutoCAD 2000
 90
        0
280
     0
281
     0
  0
ENDSEC
  0
SECTION
  2
TABLES
  0
TABLE
  2
VPORT
  5
6E
330
0
100
AcDbSymbolTable
 70
     2
  0
VPORT
  5
1ABA
330
6E
100
AcDbSymbolTableRecord
100
AcDbViewportTableRecord
  2
*ACTIVE
 70
     0
 10
0.0
 20
0.0
 11
1.0
 21
1.0
 12
251.4326375479745
 22
173.002119989121
 13
0.0
 23
0.0
 14
10.0
 24
10.0
 15
10.0
 25
10.0
 16
0.0
 26
0.0
 36
1.0
 17
0.0
 27
0.0
 37
0.0
 40
311.1327177344851
 41
1.540920716112531
 42
50.0
 43
0.0
 44
0.0
 50
0.0
 51
0.0
 71
     0
 72
   100
 73
     1
 74
     3
 75
     0
 76
     0
 77
     0
 78
     0
  0
ENDTAB
  0
TABLE
  2
LTYPE
  5
69
330
0
100
AcDbSymbolTable
 70
     4
  0
LTYPE
  5
6A
330
69
100
AcDbSymbolTableRecord
100
AcDbLinetypeTableRecord
  2
BYBLOCK
 70
     0
  3

 72
    65
 73
     0
 40
0.0
  0
LTYPE
  5
6B
330
69
100
AcDbSymbolTableRecord
100
AcDbLinetypeTableRecord
  2
BYLAYER
 70
     0
  3

 72
    65
 73
     0
 40
0.0
  0
LTYPE
  5
8
330
69
100
AcDbSymbolTableRecord
100
AcDbLinetypeTableRecord
  2
CONTINUOUS
 70
     0
  3
Solid line
 72
    65
 73
     0
 40
0.0
  0
LTYPE
  5
27C
330
69
100
AcDbSymbolTableRecord
100
AcDbLinetypeTableRecord
  2
SEKKEI_A2_
 70
     0
  3
center(A2)  ____ _ ____ _ ____ _ ____ _ ____ _ 
 72
    65
 73
     4
 40
14.28749999999999
 49
9.525
 74
     0
 49
-1.587499999999999
 74
     0
 49
1.587499999999999
 74
     0
 49
-1.587499999999999
 74
     0
  0
LTYPE
  5
2B4
330
69
100
AcDbSymbolTableRecord
100
AcDbLinetypeTableRecord
  2
HIDDEN2
 70
     0
  3
Hidden (.5x) _ _ _ _ _ _ _ _ _ _ _ _ _ _ _ _ _
 72
    65
 73
     2
 40
4.762499999999999
 49
3.174999999999999
 74
     0
 49
-1.587499999999999
 74
     0
  0
LTYPE
  5
48F
330
69
100
AcDbSymbolTableRecord
100
AcDbLinetypeTableRecord
  2
SEKKEI_H
 70
     0
  3
Hidden-S _ _ _ _ _ _ _ _ _ _ _ _ _ _ _ _ _
 72
    65
 73
     2
 40
2.381249999999999
 49
1.587499999999999
 74
     0
 49
-0.79375
 74
     0
  0
ENDTAB
  0
TABLE
  2
LAYER
  5
66
330
0
100
AcDbSymbolTable
 70
     9
  0
LAYER
  5
5E
330
66
100
AcDbSymbolTableRecord
100
AcDbLayerTableRecord
  2
0
 70
     0
 62
     7
  6
CONTINUOUS
  0
LAYER
  5
3E
330
66
100
AcDbSymbolTableRecord
100
AcDbLayerTableRecord
  2
CENTER
 70
     0
 62
     3
  6
SEKKEI_A2_
  0
LAYER
  5
2B5
330
66
100
AcDbSymbolTableRecord
100
AcDbLayerTableRecord
  2
HIDS
 70
     0
 62
     1
  6
HIDDEN2
  0
LAYER
  5
2BA
330
66
100
AcDbSymbolTableRecord
100
AcDbLayerTableRecord
  2
HOJO
 70
     0
 62
     4
  6
CONTINUOUS
  0
LAYER
  5
3FA
330
66
100
AcDbSymbolTableRecord
100
AcDbLayerTableRecord
  2
TITLE
 70
     0
 62
     4
  6
CONTINUOUS
  0
ENDTAB
  0
TABLE
  2
STYLE
  5
67
330
0
100
AcDbSymbolTable
 70
     1
  0
STYLE
  5
16
330
67
100
AcDbSymbolTableRecord
100
AcDbTextStyleTableRecord
  2
STANDARD
 70
     0
 40
0.0
 41
1.0
 50
0.0
 71
     0
 42
2.0
  3
simplex.shx
  4
extfont.shx
  0
ENDTAB
  0
TABLE
  2
VIEW
  5
6C
330
0
100
AcDbSymbolTable
 70
     0
  0
ENDTAB
  0
TABLE
  2
UCS
  5
6D
330
0
100
AcDbSymbolTable
 70
     0
  0
ENDTAB
  0
TABLE
  2
APPID
  5
70
330
0
100
AcDbSymbolTable
 70
     1
  0
APPID
  5
71
330
70
100
AcDbSymbolTableRecord
100
AcDbRegAppTableRecord
  2
ACAD
 70
     0
  0
ENDTAB
  0
TABLE
  2
DIMSTYLE
  5
72
330
0
100
AcDbSymbolTable
 70
     1
  0
DIMSTYLE
105
73
330
72
100
AcDbSymbolTableRecord
100
AcDbDimStyleTableRecord
  2
STANDARD
 70
     0
  3

  4

  5

  6

  7

 40
2.0
 41
1.8
 42
0.625
 43
3.75
 44
0.8
 45
0.0
 46
0.0
 47
0.0
 48
0.0
140
1.8
141
2.5
142
0.0
143
0.0394
144
1.0
145
0.0
146
1.0
147
0.75
 71
     0
 72
     0
 73
     0
 74
     0
 75
     0
 76
     0
 77
     1
 78
     8
170
     0
171
     4
172
     1
173
     0
174
     0
175
     0
176
     0
177
     0
178
     0
270
     8
271
     2
272
     2
273
     8
274
     4
340
16
275
     0
280
     0
281
     0
282
     0
283
     1
284
     0
285
     0
286
     0
287
     3
288
     0
  0
ENDTAB
  0
TABLE
  2
BLOCK_RECORD
  5
1
330
0
100
AcDbSymbolTable
 70
    55
  0
BLOCK_RECORD
  5
2
102
{ACAD_XDICTIONARY
360
1ADC
102
}
330
1
100
AcDbSymbolTableRecord
100
AcDbBlockTableRecord
  2
*MODEL_SPACE
  0
BLOCK_RECORD
  5
1AB5
102
{ACAD_XDICTIONARY
360
1ADE
102
}
330
1
100
AcDbSymbolTableRecord
100
AcDbBlockTableRecord
  2
*PAPER_SPACE
  0
ENDTAB
  0
ENDSEC
  0
SECTION
  2
BLOCKS
  0
BLOCK
  5
5D
330
2
100
AcDbEntity
  8
0
100
AcDbBlockBegin
  2
*MODEL_SPACE
 70
     0
 10
0.0
 20
0.0
 30
0.0
  3
*MODEL_SPACE
  1

  0
ENDBLK
  5
5F
330
2
100
AcDbEntity
  8
0
100
AcDbBlockEnd
  0
BLOCK
  5
1AB7
330
1AB5
100
AcDbEntity
 67
     1
  8
0
100
AcDbBlockBegin
  2
*PAPER_SPACE
 70
     0
 10
0.0
 20
0.0
 30
0.0
  3
*PAPER_SPACE
  1

  0
ENDBLK
  5
1AB8
330
1AB5
100
AcDbEntity
 67
     1
  8
0
100
AcDbBlockEnd
  0
ENDSEC
  0
SECTION
  2
ENTITIES
  0
LINE
  5
634
330
2
100
AcDbEntity
  8
0
100
AcDbLine
 10
178.6177698143513
 20
242.3675647778902
 30
0.0
 11
263.6177698143512
 21
242.3675647778902
 31
0.0
  0
LINE
  5
635
330
2
100
AcDbEntity
  8
0
100
AcDbLine
 10
179.4086178143513
 20
251.3675647778902
 30
0.0
 11
262.4079308143513
 21
251.3675647778902
 31
0.0
  0
LINE
  5
636
330
2
100
AcDbEntity
  8
0
100
AcDbLine
 10
259.8102598143513
 20
313.3675647778902
 30
0.0
 11
180.5660888143513
 21
313.3675647778902
 31
0.0
  0
LINE
  5
637
330
2
100
AcDbEntity
  8
CENTER
100
AcDbLine
 10
37.6177668143514
 20
282.3675647778902
 30
0.0
 11
272.5703346271901
 21
282.3675647778902
 31
0.0
  0
CIRCLE
  5
638
330
2
100
AcDbEntity
  8
0
100
AcDbCircle
 10
221.1177698143513
 20
113.4400747778902
 30
0.0
 40
20.0
  0
LINE
  5
639
330
2
100
AcDbEntity
  8
0
100
AcDbLine
 10
201.1177698143513
 20
53.44007077789021
 30
0.0
 11
241.1177698143513
 21
53.44007077789021
 31
0.0
  0
LINE
  5
63A
330
2
100
AcDbEntity
  8
0
100
AcDbLine
 10
201.1177698143513
 20
147.4400747778902
 30
0.0
 11
241.1177698143513
 21
147.4400747778902
 31
0.0
  0
LINE
  5
63B
330
2
100
AcDbEntity
  8
CENTER
100
AcDbLine
 10
191.1177698143513
 20
113.4400747778902
 30
0.0
 11
251.1177698143513
 21
113.4400747778902
 31
0.0
  0
ARC
  5
63C
330
2
100
AcDbEntity
  8
0
100
AcDbCircle
 10
221.1177698143513
 20
100.4400707778902
 30
0.0
 40
42.5
100
AcDbArc
 50
199.7498930000002
 51
340.2500920000002
  0
ARC
  5
63D
330
2
100
AcDbEntity
  8
0
100
AcDbCircle
 10
221.1177698143513
 20
100.4400707778902
 30
0.0
 40
42.5
100
AcDbArc
 50
19.749901
 51
160.2501069999997
  0
LINE
  5
63E
330
2
100
AcDbEntity
  8
0
100
AcDbLine
 10
189.1177698143513
 20
151.4400747778902
 30
0.0
 11
253.1177698143512
 21
151.4400747778902
 31
0.0
  0
LINE
  5
63F
330
2
100
AcDbEntity
  8
0
100
AcDbLine
 10
189.1177698143513
 20
49.44007077789021
 30
0.0
 11
253.1177698143512
 21
49.44007077789021
 31
0.0
  0
LINE
  5
640
330
2
100
AcDbEntity
  8
0
100
AcDbLine
 10
106.1177658143513
 20
60.89111077789022
 30
0.0
 11
178.1177698143513
 21
60.89111077789022
 31
0.0
  0
LINE
  5
641
330
2
100
AcDbEntity
  8
0
100
AcDbLine
 10
106.1177658143513
 20
121.3890417778902
 30
0.0
 11
177.8677698143513
 21
121.3890417778902
 31
0.0
  0
LINE
  5
642
330
2
100
AcDbEntity
  8
0
100
AcDbLine
 10
176.6177698143513
 20
53.14007077789023
 30
0.0
 11
106.1177658143513
 21
53.14007077789023
 31
0.0
  0
LINE
  5
643
330
2
100
AcDbEntity
  8
0
100
AcDbLine
 10
106.1177658143513
 20
129.1400717778902
 30
0.0
 11
179.0377678143513
 21
129.1400717778902
 31
0.0
  0
LINE
  5
644
330
2
100
AcDbEntity
  8
CENTER
100
AcDbLine
 10
37.61776681435134
 20
91.14007177789023
 30
0.0
 11
196.4177728143513
 21
91.14007177789023
 31
0.0
  0
LINE
  5
645
330
2
100
AcDbEntity
  8
0
100
AcDbLine
 10
106.1177658143513
 20
53.14007077789023
 30
0.0
 11
106.1177658143513
 21
129.1400717778902
 31
0.0
  0
LINE
  5
646
330
2
100
AcDbEntity
  8
0
100
AcDbLine
 10
47.61776681435134
 20
56.14007077789023
 30
0.0
 11
47.61776681435134
 21
126.1400717778902
 31
0.0
  0
LINE
  5
647
330
2
100
AcDbEntity
  8
0
100
AcDbLine
 10
96.61776581435134
 20
51.14007077789023
 30
0.0
 11
96.61776581435134
 21
131.1400717778902
 31
0.0
  0
ARC
  5
648
330
2
100
AcDbEntity
  8
0
100
AcDbCircle
 10
52.61776681435134
 20
56.14007077789023
 30
0.0
 40
5.0
100
AcDbArc
 50
180.0
 51
270.0
  0
LINE
  5
649
330
2
100
AcDbEntity
  8
0
100
AcDbLine
 10
50.11776681435134
 20
67.14007177789023
 30
0.0
 11
96.61776581435134
 21
67.14007177789023
 31
0.0
  0
LINE
  5
64A
330
2
100
AcDbEntity
  8
0
100
AcDbLine
 10
52.61776781435134
 20
51.14007077789023
 30
0.0
 11
96.61776581435134
 21
51.14007077789023
 31
0.0
  0
LINE
  5
64B
330
2
100
AcDbEntity
  8
0
100
AcDbLine
 10
96.61776581435134
 20
60.8910707778902
 30
0.0
 11
106.1177658143513
 21
60.8910707778902
 31
0.0
  0
LINE
  5
64C
330
2
100
AcDbEntity
  8
0
100
AcDbLine
 10
96.61776581435134
 20
53.14007077789023
 30
0.0
 11
106.1177658143513
 21
53.14007077789023
 31
0.0
  0
LINE
  5
64D
330
2
100
AcDbEntity
  8
0
100
AcDbLine
 10
50.11776681435134
 20
117.1400717778902
 30
0.0
 11
96.61776581435134
 21
117.1400717778902
 31
0.0
  0
ARC
  5
64E
330
2
100
AcDbEntity
  8
0
100
AcDbCircle
 10
52.61779181435134
 20
126.1400937778902
 30
0.0
 40
5.0
100
AcDbArc
 50
90.0
 51
180.0
  0
LINE
  5
64F
330
2
100
AcDbEntity
  8
0
100
AcDbLine
 10
105.8177668143513
 20
143.0150717778902
 30
0.0
 11
105.8177668143513
 21
130.6400717778902
 31
0.0
  0
LINE
  5
650
330
2
100
AcDbEntity
  8
0
100
AcDbLine
 10
100.4177648143513
 20
142.2025717778902
 30
0.0
 11
100.4177648143513
 21
130.6400717778902
 31
0.0
  0
LINE
  5
651
330
2
100
AcDbEntity
  8
0
100
AcDbLine
 10
102.2177688143512
 20
144.2650717778902
 30
0.0
 11
102.2177688143512
 21
130.6400717778902
 31
0.0
  0
LINE
  5
652
330
2
100
AcDbEntity
  8
0
100
AcDbLine
 10
104.0177748143513
 20
143.6400717778902
 30
0.0
 11
104.0177748143513
 21
130.6400717778902
 31
0.0
  0
LINE
  5
653
330
2
100
AcDbEntity
  8
0
100
AcDbLine
 10
52.61776681435134
 20
131.1400717778902
 30
0.0
 11
96.61776581435134
 21
131.1400717778902
 31
0.0
  0
ARC
  5
654
330
2
100
AcDbEntity
  8
0
100
AcDbCircle
 10
96.61776581435134
 20
113.7650717778902
 30
0.0
 40
4.5
100
AcDbArc
 50
0.0
 51
90.0
  0
ARC
  5
655
330
2
100
AcDbEntity
  8
0
100
AcDbCircle
 10
96.61776581435134
 20
113.7650717778902
 30
0.0
 40
3.0
100
AcDbArc
 50
0.0
 51
90.0
  0
ARC
  5
656
330
2
100
AcDbEntity
  8
0
100
AcDbCircle
 10
96.61776581435134
 20
113.7650717778902
 30
0.0
 40
1.5
100
AcDbArc
 50
0.0
 51
90.0
  0
LINE
  5
657
330
2
100
AcDbEntity
  8
0
100
AcDbLine
 10
101.1177658143513
 20
113.7650717778902
 30
0.0
 11
101.1177658143513
 21
110.5421707778902
 31
0.0
  0
LINE
  5
658
330
2
100
AcDbEntity
  8
0
100
AcDbLine
 10
99.61776581435135
 20
113.7650717778902
 30
0.0
 11
99.61776581435135
 21
108.7282667778902
 31
0.0
  0
LINE
  5
659
330
2
100
AcDbEntity
  8
0
100
AcDbLine
 10
98.11776581435134
 20
113.7650717778902
 30
0.0
 11
98.11776581435134
 21
109.5224717778902
 31
0.0
  0
LINE
  5
65A
330
2
100
AcDbEntity
  8
HOJO
100
AcDbLine
 10
99.61776581435135
 20
109.7629737778902
 30
0.0
 11
101.1177658143513
 21
110.5421707778902
 31
0.0
  0
LINE
  5
65B
330
2
100
AcDbEntity
  8
HOJO
100
AcDbLine
 10
98.12016581435138
 20
109.5269727778902
 30
0.0
 11
99.61776581435135
 21
108.7282667778902
 31
0.0
  0
LINE
  5
65C
330
2
100
AcDbEntity
  8
0
100
AcDbLine
 10
96.61776581435134
 20
121.3890717778902
 30
0.0
 11
106.1177658143513
 21
121.3890717778902
 31
0.0
  0
LINE
  5
65D
330
2
100
AcDbEntity
  8
0
100
AcDbLine
 10
96.61776581435134
 20
129.1400717778902
 30
0.0
 11
106.1177658143513
 21
129.1400717778902
 31
0.0
  0
LINE
  5
65E
330
2
100
AcDbEntity
  8
0
100
AcDbLine
 10
99.61776581435135
 20
130.6400717778902
 30
0.0
 11
106.6177698143513
 21
130.6400717778902
 31
0.0
  0
LINE
  5
65F
330
2
100
AcDbEntity
  8
0
100
AcDbLine
 10
99.61776581435135
 20
130.6400717778902
 30
0.0
 11
99.61776581435135
 21
129.1400717778902
 31
0.0
  0
LINE
  5
660
330
2
100
AcDbEntity
  8
0
100
AcDbLine
 10
106.6177698143513
 20
130.6400717778902
 30
0.0
 11
106.6177698143513
 21
129.1400717778902
 31
0.0
  0
LINE
  5
661
330
2
100
AcDbEntity
  8
HOJO
100
AcDbLine
 10
105.8177668143513
 20
143.0150717778902
 30
0.0
 11
104.0187788143513
 21
142.5673627778902
 31
0.0
  0
LINE
  5
662
330
2
100
AcDbEntity
  8
HOJO
100
AcDbLine
 10
102.2177688143512
 20
144.2650717778902
 30
0.0
 11
104.0177748143513
 21
143.6400717778902
 31
0.0
  0
LINE
  5
663
330
2
100
AcDbEntity
  8
HOJO
100
AcDbLine
 10
100.4177648143513
 20
142.2025717778902
 30
0.0
 11
102.2177688143512
 21
142.8275717778902
 31
0.0
  0
LINE
  5
664
330
2
100
AcDbEntity
  8
0
100
AcDbLine
 10
181.1177698143513
 20
114.8013417778902
 30
0.0
 11
181.1177698143513
 21
86.07853277789022
 31
0.0
  0
LINE
  5
665
330
2
100
AcDbEntity
  8
CENTER
100
AcDbLine
 10
221.1177698143513
 20
161.4400747778902
 30
0.0
 11
221.1177698143513
 21
39.44007077789024
 31
0.0
  0
LINE
  5
666
330
2
100
AcDbEntity
  8
0
100
AcDbLine
 10
178.6177698143513
 20
126.1400717778902
 30
0.0
 11
178.6177698143513
 21
74.7400697778902
 31
0.0
  0
ARC
  5
667
330
2
100
AcDbEntity
  8
0
100
AcDbCircle
 10
189.1177698143513
 20
57.44007077789021
 30
0.0
 40
8.0
100
AcDbArc
 50
187.9696039999998
 51
270.0
  0
LINE
  5
668
330
2
100
AcDbEntity
  8
0
100
AcDbLine
 10
181.1682608143513
 20
85.37214977789023
 30
0.0
 11
183.4926628143513
 21
68.76958077789021
 31
0.0
  0
LINE
  5
669
330
2
100
AcDbEntity
  8
0
100
AcDbLine
 10
181.1950708143513
 20
56.3308707778902
 30
0.0
 11
178.6177698143513
 21
74.7400697778902
 31
0.0
  0
ARC
  5
66A
330
2
100
AcDbEntity
  8
0
100
AcDbCircle
 10
189.1177698143513
 20
57.44007077789021
 30
0.0
 40
8.0
100
AcDbArc
 50
0.0
 51
97.96981799999995
  0
CIRCLE
  5
66B
330
2
100
AcDbEntity
  8
0
100
AcDbCircle
 10
189.1177698143513
 20
57.44007077789021
 30
0.0
 40
3.25
  0
ARC
  5
66D
330
2
100
AcDbEntity
  8
0
100
AcDbCircle
 10
183.6177698143513
 20
61.14009077789024
 30
0.0
 40
5.0
100
AcDbArc
 50
135.7928009999995
 51
180.0
  0
LINE
  5
66F
330
2
100
AcDbEntity
  8
0
100
AcDbLine
 10
178.6177698143513
 20
55.14007077789023
 30
0.0
 11
178.6177698143513
 21
61.1400807778902
 31
0.0
  0
ARC
  5
670
330
2
100
AcDbEntity
  8
0
100
AcDbCircle
 10
176.6177698143513
 20
55.14007077789023
 30
0.0
 40
2.0
100
AcDbArc
 50
270.0
 51
0.0
  0
ARC
  5
671
330
2
100
AcDbEntity
  8
0
100
AcDbCircle
 10
187.4539668143513
 20
69.32417077789023
 30
0.0
 40
4.0
100
AcDbArc
 50
187.9696959999997
 51
277.9697570000001
  0
ARC
  5
672
330
2
100
AcDbEntity
  8
0
100
AcDbCircle
 10
201.1177698143513
 20
57.44007077789021
 30
0.0
 40
4.0
100
AcDbArc
 50
180.0
 51
270.0
  0
LINE
  5
673
330
2
100
AcDbEntity
  8
0
100
AcDbLine
 10
223.3515648143513
 20
83.83216477789023
 30
0.0
 11
223.6402618143513
 21
83.01038677789021
 31
0.0
  0
LINE
  5
674
330
2
100
AcDbEntity
  8
0
100
AcDbLine
 10
217.9302698143513
 20
85.00257477789023
 30
0.0
 11
224.3052698143513
 21
85.00257477789023
 31
0.0
  0
LINE
  5
675
330
2
100
AcDbEntity
  8
0
100
AcDbLine
 10
218.9802728143513
 20
83.83216477789023
 30
0.0
 11
218.6378658143513
 21
83.01038677789021
 31
0.0
  0
LINE
  5
676
330
2
100
AcDbEntity
  8
0
100
AcDbLine
 10
214.7427698143513
 20
83.96943277789024
 30
0.0
 11
214.7427698143513
 21
83.01038677789021
 31
0.0
  0
LINE
  5
677
330
2
100
AcDbEntity
  8
0
100
AcDbLine
 10
213.8213678143513
 20
83.16110577789022
 30
0.0
 11
213.2181728143513
 21
83.73255477789021
 31
0.0
  0
LINE
  5
678
330
2
100
AcDbEntity
  8
0
100
AcDbLine
 10
208.3677698143513
 20
83.52057177789021
 30
0.0
 11
208.3677698143513
 21
76.68093077789021
 31
0.0
  0
LINE
  5
679
330
2
100
AcDbEntity
  8
0
100
AcDbLine
 10
210.1583738143513
 20
83.73255477789021
 30
0.0
 11
209.4385708143513
 21
82.84004577789023
 31
0.0
  0
LINE
  5
67A
330
2
100
AcDbEntity
  8
0
100
AcDbLine
 10
221.6905698143512
 20
83.83216477789023
 30
0.0
 11
221.6905698143512
 21
76.48596877789021
 31
0.0
  0
LINE
  5
67B
330
2
100
AcDbEntity
  8
0
100
AcDbLine
 10
220.4951658143513
 20
83.83216477789023
 30
0.0
 11
220.4951658143513
 21
76.48596877789021
 31
0.0
  0
LINE
  5
67C
330
2
100
AcDbEntity
  8
0
100
AcDbLine
 10
217.9302698143513
 20
83.01038677789021
 30
0.0
 11
217.9302698143513
 21
85.00257477789023
 31
0.0
  0
ARC
  5
67D
330
2
100
AcDbEntity
  8
0
100
AcDbCircle
 10
211.8291648143513
 20
78.5528597778902
 30
0.0
 40
1.992186999999999
100
AcDbArc
 50
270.0002139999998
 51
0.0001089999998967
  0
LINE
  5
67E
330
2
100
AcDbEntity
  8
0
100
AcDbLine
 10
209.4385708143513
 20
82.84004577789023
 30
0.0
 11
209.4385708143513
 21
77.33098977789021
 31
0.0
  0
LINE
  5
67F
330
2
100
AcDbEntity
  8
0
100
AcDbLine
 10
214.7427698143513
 20
80.99330077789023
 30
0.0
 11
214.7427698143513
 21
75.44007077789022
 31
0.0
  0
LINE
  5
680
330
2
100
AcDbEntity
  8
0
100
AcDbLine
 10
209.5975668143513
 20
75.44007077789022
 30
0.0
 11
212.9128598143513
 21
75.44007077789022
 31
0.0
  0
LINE
  5
681
330
2
100
AcDbEntity
  8
0
100
AcDbLine
 10
211.8291648143513
 20
76.56067977789021
 30
0.0
 11
210.1698638143512
 21
76.56067977789021
 31
0.0
  0
LINE
  5
682
330
2
100
AcDbEntity
  8
0
100
AcDbLine
 10
208.3677698143513
 20
76.68093077789021
 30
0.0
 11
209.5975668143513
 21
75.44007077789022
 31
0.0
  0
LINE
  5
683
330
2
100
AcDbEntity
  8
0
100
AcDbLine
 10
209.4385708143513
 20
77.33098977789021
 30
0.0
 11
210.1698638143512
 21
76.56067977789021
 31
0.0
  0
LINE
  5
684
330
2
100
AcDbEntity
  8
0
100
AcDbLine
 10
213.8213678143513
 20
76.20233077789021
 30
0.0
 11
212.9128598143513
 21
75.44007077789022
 31
0.0
  0
LINE
  5
685
330
2
100
AcDbEntity
  8
0
100
AcDbLine
 10
213.8213678143513
 20
75.44007077789022
 30
0.0
 11
214.7427698143513
 21
75.44007077789022
 31
0.0
  0
LINE
  5
686
330
2
100
AcDbEntity
  8
0
100
AcDbLine
 10
213.8213678143513
 20
76.20233077789021
 30
0.0
 11
213.8213678143513
 21
75.44007077789022
 31
0.0
  0
LINE
  5
687
330
2
100
AcDbEntity
  8
0
100
AcDbLine
 10
212.1529718143512
 20
80.99330077789023
 30
0.0
 11
214.7427698143513
 21
80.99330077789023
 31
0.0
  0
LINE
  5
688
330
2
100
AcDbEntity
  8
0
100
AcDbLine
 10
213.8213678143513
 20
83.16110577789022
 30
0.0
 11
213.8213678143513
 21
83.01038677789021
 31
0.0
  0
LINE
  5
689
330
2
100
AcDbEntity
  8
0
100
AcDbLine
 10
212.1529718143512
 20
80.99330077789023
 30
0.0
 11
212.1529718143512
 21
79.9474027778902
 31
0.0
  0
LINE
  5
68A
330
2
100
AcDbEntity
  8
0
100
AcDbLine
 10
213.8213678143513
 20
79.9474027778902
 30
0.0
 11
213.8213678143513
 21
78.5528597778902
 31
0.0
  0
LINE
  5
68B
330
2
100
AcDbEntity
  8
0
100
AcDbLine
 10
213.8213678143513
 20
78.95130077789023
 30
0.0
 11
213.8213678143513
 21
79.74817977789022
 31
0.0
  0
LINE
  5
68C
330
2
100
AcDbEntity
  8
0
100
AcDbLine
 10
213.8213678143513
 20
79.9474027778902
 30
0.0
 11
212.1529718143512
 21
79.9474027778902
 31
0.0
  0
LINE
  5
68D
330
2
100
AcDbEntity
  8
0
100
AcDbLine
 10
213.8213678143513
 20
83.01038677789021
 30
0.0
 11
214.7427698143513
 21
83.01038677789021
 31
0.0
  0
LINE
  5
68E
330
2
100
AcDbEntity
  8
0
100
AcDbLine
 10
220.0220668143513
 20
76.48596877789021
 30
0.0
 11
220.4951658143513
 21
76.48596877789021
 31
0.0
  0
LINE
  5
68F
330
2
100
AcDbEntity
  8
0
100
AcDbLine
 10
220.0220668143513
 20
75.44007077789022
 30
0.0
 11
222.0889608143513
 21
75.44007077789022
 31
0.0
  0
LINE
  5
690
330
2
100
AcDbEntity
  8
0
100
AcDbLine
 10
222.0889608143513
 20
76.48596877789021
 30
0.0
 11
222.0889608143513
 21
75.44007077789022
 31
0.0
  0
LINE
  5
691
330
2
100
AcDbEntity
  8
0
100
AcDbLine
 10
220.0220668143513
 20
76.48596877789021
 30
0.0
 11
220.0220668143513
 21
75.44007077789022
 31
0.0
  0
LINE
  5
692
330
2
100
AcDbEntity
  8
0
100
AcDbLine
 10
221.6905698143512
 20
76.48596877789021
 30
0.0
 11
222.0889608143513
 21
76.48596877789021
 31
0.0
  0
LINE
  5
693
330
2
100
AcDbEntity
  8
0
100
AcDbLine
 10
217.9302698143513
 20
83.01038677789021
 30
0.0
 11
218.6378658143513
 21
83.01038677789021
 31
0.0
  0
LINE
  5
694
330
2
100
AcDbEntity
  8
0
100
AcDbLine
 10
209.5251638143513
 20
85.00257477789023
 30
0.0
 11
213.8117698143513
 21
85.00257477789023
 31
0.0
  0
LINE
  5
695
330
2
100
AcDbEntity
  8
0
100
AcDbLine
 10
213.2302728143513
 20
83.73255477789021
 30
0.0
 11
210.1583738143513
 21
83.73255477789021
 31
0.0
  0
LINE
  5
696
330
2
100
AcDbEntity
  8
0
100
AcDbLine
 10
209.5251638143513
 20
85.00257477789023
 30
0.0
 11
208.3677698143513
 21
83.52057177789021
 31
0.0
  0
LINE
  5
697
330
2
100
AcDbEntity
  8
0
100
AcDbLine
 10
213.8117698143513
 20
85.00257477789023
 30
0.0
 11
214.7427698143513
 21
83.96943277789024
 31
0.0
  0
LINE
  5
698
330
2
100
AcDbEntity
  8
0
100
AcDbLine
 10
220.4951658143513
 20
83.83216477789023
 30
0.0
 11
218.9802728143513
 21
83.83216477789023
 31
0.0
  0
LINE
  5
699
330
2
100
AcDbEntity
  8
0
100
AcDbLine
 10
221.6905698143512
 20
83.83216477789023
 30
0.0
 11
223.3515648143513
 21
83.83216477789023
 31
0.0
  0
LINE
  5
69A
330
2
100
AcDbEntity
  8
0
100
AcDbLine
 10
229.0615718143513
 20
83.83216477789023
 30
0.0
 11
229.0615718143513
 21
80.9059097778902
 31
0.0
  0
ARC
  5
69B
330
2
100
AcDbEntity
  8
0
100
AcDbCircle
 10
231.3152648143513
 20
82.45008377789019
 30
0.0
 40
1.557193
100
AcDbArc
 50
277.4147260000004
 51
62.41184999999949
  0
ARC
  5
69C
330
2
100
AcDbEntity
  8
0
100
AcDbCircle
 10
231.3152648143513
 20
82.45008377789019
 30
0.0
 40
2.55249
100
AcDbArc
 50
286.0181269999995
 51
90.00350999999964
  0
LINE
  5
69D
330
2
100
AcDbEntity
  8
0
100
AcDbLine
 10
227.9658688143513
 20
83.83216477789023
 30
0.0
 11
227.9658688143513
 21
76.4361697778902
 31
0.0
  0
LINE
  5
69E
330
2
100
AcDbEntity
  8
0
100
AcDbLine
 10
224.3052698143513
 20
83.01038677789021
 30
0.0
 11
224.3052698143513
 21
85.00257477789023
 31
0.0
  0
LINE
  5
69F
330
2
100
AcDbEntity
  8
0
100
AcDbLine
 10
229.0615718143513
 20
80.9059097778902
 30
0.0
 11
231.5162688143512
 21
80.9059097778902
 31
0.0
  0
LINE
  5
6A0
330
2
100
AcDbEntity
  8
0
100
AcDbLine
 10
231.1020688143513
 20
79.91004177789022
 30
0.0
 11
232.5970638143513
 21
76.4361697778902
 31
0.0
  0
LINE
  5
6A1
330
2
100
AcDbEntity
  8
0
100
AcDbLine
 10
229.0615718143513
 20
79.91004177789022
 30
0.0
 11
229.0615718143513
 21
76.4361697778902
 31
0.0
  0
LINE
  5
6A2
330
2
100
AcDbEntity
  8
0
100
AcDbLine
 10
227.4927698143513
 20
76.4361697778902
 30
0.0
 11
227.4927698143513
 21
75.44007077789022
 31
0.0
  0
LINE
  5
6A3
330
2
100
AcDbEntity
  8
0
100
AcDbLine
 10
229.4973628143513
 20
76.4361697778902
 30
0.0
 11
229.4973628143513
 21
75.44007077789022
 31
0.0
  0
LINE
  5
6A4
330
2
100
AcDbEntity
  8
0
100
AcDbLine
 10
229.4973628143513
 20
75.44007077789022
 30
0.0
 11
227.4927698143513
 21
75.44007077789022
 31
0.0
  0
LINE
  5
6A5
330
2
100
AcDbEntity
  8
0
100
AcDbLine
 10
229.0615718143513
 20
76.4361697778902
 30
0.0
 11
229.4973628143513
 21
76.4361697778902
 31
0.0
  0
LINE
  5
6A6
330
2
100
AcDbEntity
  8
0
100
AcDbLine
 10
227.4927698143513
 20
76.4361697778902
 30
0.0
 11
227.9658688143513
 21
76.4361697778902
 31
0.0
  0
LINE
  5
6A7
330
2
100
AcDbEntity
  8
0
100
AcDbLine
 10
223.6402618143513
 20
83.01038677789021
 30
0.0
 11
224.3052698143513
 21
83.01038677789021
 31
0.0
  0
LINE
  5
6A8
330
2
100
AcDbEntity
  8
0
100
AcDbLine
 10
229.0615718143513
 20
79.91004177789022
 30
0.0
 11
231.1020688143513
 21
79.91004177789022
 31
0.0
  0
LINE
  5
6A9
330
2
100
AcDbEntity
  8
0
100
AcDbLine
 10
232.0195638143513
 20
79.99669177789022
 30
0.0
 11
233.5994598143513
 21
76.4361697778902
 31
0.0
  0
LINE
  5
6AA
330
2
100
AcDbEntity
  8
0
100
AcDbLine
 10
232.3985618143513
 20
76.4361697778902
 30
0.0
 11
232.3985618143513
 21
75.44007077789022
 31
0.0
  0
LINE
  5
6AB
330
2
100
AcDbEntity
  8
0
100
AcDbLine
 10
233.8677698143513
 20
76.4361697778902
 30
0.0
 11
233.8677698143513
 21
75.44007077789022
 31
0.0
  0
LINE
  5
6AC
330
2
100
AcDbEntity
  8
0
100
AcDbLine
 10
232.3985618143513
 20
75.44007077789022
 30
0.0
 11
233.8677698143513
 21
75.44007077789022
 31
0.0
  0
LINE
  5
6AD
330
2
100
AcDbEntity
  8
0
100
AcDbLine
 10
233.5994598143513
 20
76.4361697778902
 30
0.0
 11
233.8677698143513
 21
76.4361697778902
 31
0.0
  0
LINE
  5
6AE
330
2
100
AcDbEntity
  8
0
100
AcDbLine
 10
232.3985618143513
 20
76.4361697778902
 30
0.0
 11
232.5970638143513
 21
76.4361697778902
 31
0.0
  0
LINE
  5
6AF
330
2
100
AcDbEntity
  8
0
100
AcDbLine
 10
229.0615718143513
 20
83.83216477789023
 30
0.0
 11
232.0364708143513
 21
83.83021877789023
 31
0.0
  0
LINE
  5
6B0
330
2
100
AcDbEntity
  8
0
100
AcDbLine
 10
227.4927698143513
 20
83.83216477789023
 30
0.0
 11
227.9658688143513
 21
83.83216477789023
 31
0.0
  0
LINE
  5
6B1
330
2
100
AcDbEntity
  8
0
100
AcDbLine
 10
227.4927698143513
 20
85.00257477789023
 30
0.0
 11
227.4927698143513
 21
83.83216477789023
 31
0.0
  0
LINE
  5
6B2
330
2
100
AcDbEntity
  8
0
100
AcDbLine
 10
227.4927698143513
 20
85.00257477789023
 30
0.0
 11
231.3152648143513
 21
85.00257477789023
 31
0.0
  0
ARC
  5
6B3
330
2
100
AcDbEntity
  8
0
100
AcDbCircle
 10
189.1177698143513
 20
143.4400747778902
 30
0.0
 40
8.0
100
AcDbArc
 50
262.0304029999998
 51
0.0
  0
LINE
  5
6B4
330
2
100
AcDbEntity
  8
0
100
AcDbLine
 10
181.1950708143513
 20
144.5492207778902
 30
0.0
 11
178.6177698143513
 21
126.1400717778902
 31
0.0
  0
LINE
  5
6B6
330
2
100
AcDbEntity
  8
0
100
AcDbLine
 10
183.4926628143513
 20
132.1105607778902
 30
0.0
 11
181.0344718143513
 21
114.5517537778902
 31
0.0
  0
ARC
  5
6B7
330
2
100
AcDbEntity
  8
0
100
AcDbCircle
 10
187.4539668143513
 20
131.5559727778902
 30
0.0
 40
4.0
100
AcDbArc
 50
82.03024299999984
 51
172.0303040000002
  0
ARC
  5
6B8
330
2
100
AcDbEntity
  8
0
100
AcDbCircle
 10
221.1177698143513
 20
113.4400747778902
 30
0.0
 40
7.5
100
AcDbArc
 50
19.47120099999961
 51
340.5288089999999
  0
LINE
  5
6B9
330
2
100
AcDbEntity
  8
0
100
AcDbLine
 10
225.6177698143513
 20
110.9400747778902
 30
0.0
 11
225.6177698143513
 21
115.9400747778902
 31
0.0
  0
LINE
  5
6BA
330
2
100
AcDbEntity
  8
0
100
AcDbLine
 10
230.6177698143513
 20
115.9400747778902
 30
0.0
 11
230.6177698143513
 21
110.9400747778902
 31
0.0
  0
LINE
  5
6BB
330
2
100
AcDbEntity
  8
0
100
AcDbLine
 10
225.6177698143513
 20
110.9400747778902
 30
0.0
 11
230.6177698143513
 21
110.9400747778902
 31
0.0
  0
LINE
  5
6BC
330
2
100
AcDbEntity
  8
0
100
AcDbLine
 10
225.6177698143513
 20
115.9400747778902
 30
0.0
 11
230.6177698143513
 21
115.9400747778902
 31
0.0
  0
CIRCLE
  5
6BD
330
2
100
AcDbEntity
  8
0
100
AcDbCircle
 10
189.1177698143513
 20
143.4400747778902
 30
0.0
 40
3.25
  0
ARC
  5
6BF
330
2
100
AcDbEntity
  8
0
100
AcDbCircle
 10
189.1177698143513
 20
143.4400747778902
 30
0.0
 40
8.0
100
AcDbArc
 50
90.0
 51
172.030502
  0
ARC
  5
6C0
330
2
100
AcDbEntity
  8
0
100
AcDbCircle
 10
201.1177698143513
 20
143.4400747778902
 30
0.0
 40
4.0
100
AcDbArc
 50
90.0
 51
180.0
  0
LINE
  5
6C1
330
2
100
AcDbEntity
  8
0
100
AcDbLine
 10
106.1177658143513
 20
259.3675647778902
 30
0.0
 11
178.1726098143512
 21
259.3675647778902
 31
0.0
  0
LINE
  5
6C2
330
2
100
AcDbEntity
  8
0
100
AcDbLine
 10
177.1041588143513
 20
244.3675647778902
 30
0.0
 11
106.1177658143513
 21
244.3675647778902
 31
0.0
  0
LINE
  5
6C3
330
2
100
AcDbEntity
  8
0
100
AcDbLine
 10
106.1177658143513
 20
305.3675647778902
 30
0.0
 11
182.0374478143513
 21
305.3675647778902
 31
0.0
  0
LINE
  5
6C4
330
2
100
AcDbEntity
  8
0
100
AcDbLine
 10
176.4861478143513
 20
320.3675647778902
 30
0.0
 11
106.1177658143513
 21
320.3675647778902
 31
0.0
  0
LINE
  5
6C5
330
2
100
AcDbEntity
  8
0
100
AcDbLine
 10
47.61776681435134
 20
247.3675647778902
 30
0.0
 11
47.61776681435134
 21
317.3675647778902
 31
0.0
  0
LINE
  5
6C6
330
2
100
AcDbEntity
  8
0
100
AcDbLine
 10
96.61776581435134
 20
242.3675647778902
 30
0.0
 11
96.61776581435134
 21
322.3675647778902
 31
0.0
  0
LINE
  5
6C7
330
2
100
AcDbEntity
  8
0
100
AcDbLine
 10
106.1177658143513
 20
244.3675647778902
 30
0.0
 11
106.1177658143513
 21
275.5015517778902
 31
0.0
  0
LINE
  5
6C8
330
2
100
AcDbEntity
  8
0
100
AcDbLine
 10
50.11776681435134
 20
256.3675647778902
 30
0.0
 11
96.61776581435134
 21
256.3675647778902
 31
0.0
  0
ARC
  5
6C9
330
2
100
AcDbEntity
  8
0
100
AcDbCircle
 10
52.61776681435134
 20
247.3675647778902
 30
0.0
 40
5.0
100
AcDbArc
 50
180.0
 51
270.0
  0
LINE
  5
6CA
330
2
100
AcDbEntity
  8
0
100
AcDbLine
 10
52.61776681435134
 20
242.3675647778902
 30
0.0
 11
96.61776581435134
 21
242.3675647778902
 31
0.0
  0
LINE
  5
6CB
330
2
100
AcDbEntity
  8
0
100
AcDbLine
 10
101.1177658143513
 20
250.5916397778902
 30
0.0
 11
101.1177658143513
 21
247.3687397778902
 31
0.0
  0
LINE
  5
6CC
330
2
100
AcDbEntity
  8
0
100
AcDbLine
 10
99.61776581435135
 20
250.5916397778902
 30
0.0
 11
99.61776581435135
 21
245.5548357778902
 31
0.0
  0
LINE
  5
6CD
330
2
100
AcDbEntity
  8
0
100
AcDbLine
 10
98.11776581435134
 20
250.5916397778902
 30
0.0
 11
98.11776581435134
 21
246.3490247778902
 31
0.0
  0
LINE
  5
6CE
330
2
100
AcDbEntity
  8
0
100
AcDbLine
 10
96.61776581435134
 20
244.3675647778902
 30
0.0
 11
106.1177658143513
 21
244.3675647778902
 31
0.0
  0
LINE
  5
6CF
330
2
100
AcDbEntity
  8
HOJO
100
AcDbLine
 10
99.61776581435135
 20
246.5895347778902
 30
0.0
 11
101.1177658143513
 21
247.3687397778902
 31
0.0
  0
LINE
  5
6D0
330
2
100
AcDbEntity
  8
HOJO
100
AcDbLine
 10
98.12016581435138
 20
246.3535267778902
 30
0.0
 11
99.61776581435135
 21
245.5548357778902
 31
0.0
  0
ARC
  5
6D1
330
2
100
AcDbEntity
  8
0
100
AcDbCircle
 10
96.61776581435134
 20
250.5916397778902
 30
0.0
 40
4.5
100
AcDbArc
 50
0.0
 51
90.0
  0
ARC
  5
6D2
330
2
100
AcDbEntity
  8
0
100
AcDbCircle
 10
96.61776581435134
 20
250.5916397778902
 30
0.0
 40
3.0
100
AcDbArc
 50
0.0
 51
90.0
  0
ARC
  5
6D3
330
2
100
AcDbEntity
  8
0
100
AcDbCircle
 10
96.61776581435134
 20
250.5916397778902
 30
0.0
 40
1.5
100
AcDbArc
 50
0.0
 51
90.0
  0
LINE
  5
6D4
330
2
100
AcDbEntity
  8
0
100
AcDbLine
 10
96.61776581435134
 20
259.3675647778902
 30
0.0
 11
106.1177658143513
 21
259.3675647778902
 31
0.0
  0
LINE
  5
6D5
330
2
100
AcDbEntity
  8
0
100
AcDbLine
 10
50.11776681435134
 20
306.3675647778902
 30
0.0
 11
96.61776581435134
 21
306.3675647778902
 31
0.0
  0
ARC
  5
6D6
330
2
100
AcDbEntity
  8
0
100
AcDbCircle
 10
52.61778681435135
 20
317.3675947778902
 30
0.0
 40
5.0
100
AcDbArc
 50
90.0
 51
180.0
  0
LINE
  5
6D7
330
2
100
AcDbEntity
  8
0
100
AcDbLine
 10
106.1177658143513
 20
289.2335927778902
 30
0.0
 11
106.1177658143513
 21
320.3675647778902
 31
0.0
  0
LINE
  5
6D8
330
2
100
AcDbEntity
  8
0
100
AcDbLine
 10
102.1177658143513
 20
278.8675647778902
 30
0.0
 11
102.1177658143513
 21
285.8675647778902
 31
0.0
  0
LINE
  5
6D9
330
2
100
AcDbEntity
  8
0
100
AcDbLine
 10
104.1177658143513
 20
278.8675647778902
 30
0.0
 11
104.1177658143513
 21
285.8675647778902
 31
0.0
  0
LINE
  5
6DA
330
2
100
AcDbEntity
  8
0
100
AcDbLine
 10
106.6177698143513
 20
276.3675647778902
 30
0.0
 11
106.6177698143513
 21
288.3675647778902
 31
0.0
  0
LINE
  5
6DB
330
2
100
AcDbEntity
  8
0
100
AcDbLine
 10
99.61776581435135
 20
276.3675647778902
 30
0.0
 11
99.61776581435135
 21
288.3675647778902
 31
0.0
  0
LINE
  5
6DC
330
2
100
AcDbEntity
  8
0
100
AcDbLine
 10
105.6177658143513
 20
275.3675647778901
 30
0.0
 11
100.6177658143513
 21
275.3675647778901
 31
0.0
  0
ARC
  5
6DD
330
2
100
AcDbEntity
  8
0
100
AcDbCircle
 10
100.6177658143513
 20
276.3675647778902
 30
0.0
 40
1.0
100
AcDbArc
 50
180.0
 51
270.0
  0
ARC
  5
6DE
330
2
100
AcDbEntity
  8
0
100
AcDbCircle
 10
103.1177658143513
 20
278.8675647778902
 30
0.0
 40
1.0
100
AcDbArc
 50
270.0
 51
0.0
  0
ARC
  5
6DF
330
2
100
AcDbEntity
  8
0
100
AcDbCircle
 10
103.1177658143513
 20
278.8675647778902
 30
0.0
 40
1.0
100
AcDbArc
 50
180.0
 51
270.0
  0
ARC
  5
6E0
330
2
100
AcDbEntity
  8
0
100
AcDbCircle
 10
105.6177658143513
 20
276.3675647778902
 30
0.0
 40
1.0
100
AcDbArc
 50
270.0
 51
0.0
  0
LINE
  5
6E1
330
2
100
AcDbEntity
  8
0
100
AcDbLine
 10
100.6177658143513
 20
289.3675647778902
 30
0.0
 11
105.6177658143513
 21
289.3675647778902
 31
0.0
  0
ARC
  5
6E2
330
2
100
AcDbEntity
  8
0
100
AcDbCircle
 10
103.1177658143513
 20
285.8675647778902
 30
0.0
 40
1.0
100
AcDbArc
 50
0.0
 51
90.0
  0
ARC
  5
6E3
330
2
100
AcDbEntity
  8
0
100
AcDbCircle
 10
103.1177658143513
 20
285.8675647778902
 30
0.0
 40
1.0
100
AcDbArc
 50
90.0
 51
180.0
  0
ARC
  5
6E4
330
2
100
AcDbEntity
  8
0
100
AcDbCircle
 10
100.6177658143513
 20
288.3675647778902
 30
0.0
 40
1.0
100
AcDbArc
 50
90.0
 51
180.0
  0
ARC
  5
6E5
330
2
100
AcDbEntity
  8
0
100
AcDbCircle
 10
105.6177658143513
 20
288.3675647778902
 30
0.0
 40
1.0
100
AcDbArc
 50
0.0
 51
90.0
  0
LINE
  5
6E6
330
2
100
AcDbEntity
  8
0
100
AcDbLine
 10
96.61776581435134
 20
305.3675647778902
 30
0.0
 11
106.1177658143513
 21
305.3675647778902
 31
0.0
  0
LINE
  5
6E7
330
2
100
AcDbEntity
  8
0
100
AcDbLine
 10
52.61776681435134
 20
322.3675647778902
 30
0.0
 11
96.61776581435134
 21
322.3675647778902
 31
0.0
  0
LINE
  5
6E8
330
2
100
AcDbEntity
  8
0
100
AcDbLine
 10
96.61776581435134
 20
320.3675647778902
 30
0.0
 11
106.1177658143513
 21
320.3675647778902
 31
0.0
  0
LINE
  5
6E9
330
2
100
AcDbEntity
  8
0
100
AcDbLine
 10
177.5703298143513
 20
282.3675647778902
 30
0.0
 11
178.6177698143513
 21
242.3675647778902
 31
0.0
  0
LINE
  5
6EA
330
2
100
AcDbEntity
  8
0
100
AcDbLine
 10
182.8923818143513
 20
252.5488237778902
 30
0.0
 11
182.8923818143513
 21
303.3678397778901
 31
0.0
  0
LINE
  5
6EB
330
2
100
AcDbEntity
  8
0
100
AcDbLine
 10
206.1177698143513
 20
252.3675647778901
 30
0.0
 11
206.1177698143513
 21
311.4024767778902
 31
0.0
  0
LINE
  5
6EC
330
2
100
AcDbEntity
  8
0
100
AcDbLine
 10
236.1177698143513
 20
252.3675647778901
 30
0.0
 11
236.1177698143513
 21
311.4024767778902
 31
0.0
  0
LINE
  5
6ED
330
2
100
AcDbEntity
  8
CENTER
100
AcDbLine
 10
221.1177698143513
 20
327.3675647778901
 30
0.0
 11
221.1177698143513
 21
208.3675647778902
 31
0.0
  0
LINE
  5
6EE
330
2
100
AcDbEntity
  8
0
100
AcDbLine
 10
228.1887688143513
 20
242.3675647778902
 30
0.0
 11
228.1887688143513
 21
218.3675647778902
 31
0.0
  0
LINE
  5
6EF
330
2
100
AcDbEntity
  8
0
100
AcDbLine
 10
230.6177698143513
 20
242.3675647778902
 30
0.0
 11
230.6177698143513
 21
218.3675647778902
 31
0.0
  0
LINE
  5
6F0
330
2
100
AcDbEntity
  8
0
100
AcDbLine
 10
213.6177698143513
 20
218.3675647778902
 30
0.0
 11
213.6177698143513
 21
242.3675647778902
 31
0.0
  0
LINE
  5
6F1
330
2
100
AcDbEntity
  8
0
100
AcDbLine
 10
213.6177698143513
 20
218.3675647778902
 30
0.0
 11
230.6177698143513
 21
218.3675647778902
 31
0.0
  0
LINE
  5
6F2
330
2
100
AcDbEntity
  8
0
100
AcDbLine
 10
206.1177698143513
 20
252.6875717778902
 30
0.0
 11
236.1177698143513
 21
252.6875717778902
 31
0.0
  0
LINE
  5
6F3
330
2
100
AcDbEntity
  8
HIDS
  6
SEKKEI_H
100
AcDbLine
 10
192.3677698143513
 20
251.3675647778902
 30
0.0
 11
192.3677698143513
 21
242.3675647778902
 31
0.0
  0
LINE
  5
6F4
330
2
100
AcDbEntity
  8
HIDS
  6
SEKKEI_H
100
AcDbLine
 10
185.8677698143513
 20
251.3675647778902
 30
0.0
 11
185.8677698143513
 21
242.3675647778902
 31
0.0
  0
LINE
  5
6F5
330
2
100
AcDbEntity
  8
CENTER
100
AcDbLine
 10
189.1177698143513
 20
237.3675647778902
 30
0.0
 11
189.1177698143512
 21
256.3675647778902
 31
0.0
  0
LINE
  5
6F6
330
2
100
AcDbEntity
  8
0
100
AcDbLine
 10
181.1950708143513
 20
242.3675647778902
 30
0.0
 11
181.1950708143513
 21
250.0572617778901
 31
0.0
  0
ARC
  5
6F7
330
2
100
AcDbEntity
  8
0
100
AcDbCircle
 10
177.1041588143513
 20
242.8675647778902
 30
0.0
 40
1.5
100
AcDbArc
 50
1.49999899999979
 51
90.0
  0
ARC
  5
6F8
330
2
100
AcDbEntity
  8
0
100
AcDbCircle
 10
179.4086178143513
 20
250.3675647778901
 30
0.0
 40
1.0
100
AcDbArc
 50
90.0
 51
181.5000000000002
  0
ARC
  5
6F9
330
2
100
AcDbEntity
  8
0
100
AcDbCircle
 10
205.1177698143513
 20
252.3675647778901
 30
0.0
 40
1.0
100
AcDbArc
 50
270.0
 51
0.0
  0
ARC
  5
6FA
330
2
100
AcDbEntity
  8
0
100
AcDbCircle
 10
237.1177698143513
 20
252.3675647778901
 30
0.0
 40
1.0
100
AcDbArc
 50
180.0
 51
270.0
  0
LINE
  5
6FB
330
2
100
AcDbEntity
  8
0
100
AcDbLine
 10
178.4854608143513
 20
318.4199327778902
 30
0.0
 11
178.5667598143513
 21
315.3152267778902
 31
0.0
  0
LINE
  5
6FC
330
2
100
AcDbEntity
  8
0
100
AcDbLine
 10
178.4083578143513
 20
305.3703107778902
 30
0.0
 11
178.5667598143513
 21
311.4199327778901
 31
0.0
  0
ARC
  5
6FD
330
2
100
AcDbEntity
  8
0
100
AcDbCircle
 10
180.5660888143513
 20
311.3675647778902
 30
0.0
 40
2.0
100
AcDbArc
 50
90.0
 51
178.4999999999997
  0
ARC
  5
6FE
330
2
100
AcDbEntity
  8
0
100
AcDbCircle
 10
180.5660888143513
 20
315.3675647778902
 30
0.0
 40
2.0
100
AcDbArc
 50
181.5000000000002
 51
270.0
  0
ARC
  5
6FF
330
2
100
AcDbEntity
  8
0
100
AcDbCircle
 10
176.4861478143513
 20
318.3675647778902
 30
0.0
 40
2.0
100
AcDbArc
 50
1.500000000000274
 51
90.0
  0
ARC
  5
700
330
2
100
AcDbEntity
  8
0
100
AcDbCircle
 10
385.6049584050518
 20
51.4031407778902
 30
0.0
 40
3.0
100
AcDbArc
 50
91.00048800000001
 51
165.0003050000002
  0
LINE
  5
701
330
2
100
AcDbEntity
  8
CENTER
100
AcDbLine
 10
362.9731534050518
 20
91.14007177789023
 30
0.0
 11
462.9731534050518
 21
91.14007177789025
 31
0.0
  0
LINE
  5
704
330
2
100
AcDbEntity
  8
CENTER
100
AcDbLine
 10
367.9731534050519
 20
57.44007077789024
 30
0.0
 11
386.9731534050518
 21
57.44007077789024
 31
0.0
  0
LINE
  5
705
330
2
100
AcDbEntity
  8
CENTER
100
AcDbLine
 10
367.9731534050518
 20
143.4400747778902
 30
0.0
 11
386.9731534050518
 21
143.4400747778902
 31
0.0
  0
ARC
  5
706
330
2
100
AcDbEntity
  8
0
100
AcDbCircle
 10
384.9731534050518
 20
71.7400907778902
 30
0.0
 40
3.0
100
AcDbArc
 50
90.0
 51
180.0
  0
ARC
  5
707
330
2
100
AcDbEntity
  8
0
100
AcDbCircle
 10
385.6062704050518
 20
149.4591097778902
 30
0.0
 40
3.0
100
AcDbArc
 50
194.9326020000002
 51
269.0006099999996
  0
LINE
  5
708
330
2
100
AcDbEntity
  8
0
100
AcDbLine
 10
442.0080654050518
 20
55.38830077789021
 30
0.0
 11
383.9382714050518
 21
54.37449077789023
 31
0.0
  0
LINE
  5
709
330
2
100
AcDbEntity
  8
0
100
AcDbLine
 10
442.0080654050518
 20
145.4743687778902
 30
0.0
 11
383.9382714050518
 21
146.4877507778902
 31
0.0
  0
LINE
  5
70A
330
2
100
AcDbEntity
  8
CENTER
100
AcDbLine
 10
338.9731534050519
 20
113.4400747778902
 30
0.0
 11
462.9593633127035
 21
113.4400747778902
 31
0.0
  0
LINE
  5
70B
330
2
100
AcDbEntity
  8
0
100
AcDbLine
 10
381.9731534050518
 20
150.9019507778902
 30
0.0
 11
381.9731534050518
 21
89.77738877789022
 31
0.0
  0
LINE
  5
70C
330
2
100
AcDbEntity
  8
0
100
AcDbLine
 10
372.9731534050518
 20
49.44007077789021
 30
0.0
 11
372.9731534050518
 21
105.9400707778902
 31
0.0
  0
LINE
  5
70D
330
2
100
AcDbEntity
  8
0
100
AcDbLine
 10
377.9731534050518
 20
94.44007077789022
 30
0.0
 11
377.9731534050518
 21
132.4400747778902
 31
0.0
  0
LINE
  5
70E
330
2
100
AcDbEntity
  8
0
100
AcDbLine
 10
263.6177698143512
 20
126.1400717778902
 30
0.0
 11
263.6177698143512
 21
74.74008177789023
 31
0.0
  0
LINE
  5
70F
330
2
100
AcDbEntity
  8
0
100
AcDbLine
 10
261.1177698143512
 20
114.8014707778902
 30
0.0
 11
261.1177698143512
 21
86.0789327778902
 31
0.0
  0
ARC
  5
710
330
2
100
AcDbEntity
  8
0
100
AcDbCircle
 10
253.1177698143512
 20
57.44007077789021
 30
0.0
 40
8.0
100
AcDbArc
 50
270.0
 51
352.0303040000003
  0
LINE
  5
711
330
2
100
AcDbEntity
  8
0
100
AcDbLine
 10
261.1201658143513
 20
85.74980477789024
 30
0.0
 11
258.7428618143513
 21
68.76957077789021
 31
0.0
  0
LINE
  5
712
330
2
100
AcDbEntity
  8
0
100
AcDbLine
 10
261.0404688143513
 20
56.33095077789022
 30
0.0
 11
263.6177698143512
 21
74.74008177789023
 31
0.0
  0
ARC
  5
713
330
2
100
AcDbEntity
  8
0
100
AcDbCircle
 10
254.7815728143512
 20
69.32417077789023
 30
0.0
 40
4.0
100
AcDbArc
 50
262.0302429999998
 51
352.0302989999998
  0
CIRCLE
  5
714
330
2
100
AcDbEntity
  8
0
100
AcDbCircle
 10
253.1177698143512
 20
57.44007077789021
 30
0.0
 40
3.25
  0
ARC
  5
716
330
2
100
AcDbEntity
  8
0
100
AcDbCircle
 10
253.1177698143512
 20
57.44007077789021
 30
0.0
 40
8.0
100
AcDbArc
 50
82.03034999999957
 51
180.0
  0
ARC
  5
718
330
2
100
AcDbEntity
  8
0
100
AcDbCircle
 10
241.1177698143513
 20
57.44007077789021
 30
0.0
 40
4.0
100
AcDbArc
 50
270.0
 51
0.0
  0
ARC
  5
719
330
2
100
AcDbEntity
  8
0
100
AcDbCircle
 10
380.4384544050518
 20
51.44007077789021
 30
0.0
 40
2.0
100
AcDbArc
 50
270.0
 51
345.0000919999997
  0
ARC
  5
71A
330
2
100
AcDbEntity
  8
0
100
AcDbCircle
 10
380.4731534050518
 20
50.94007077789021
 30
0.0
 40
1.5
100
AcDbArc
 50
270.0
 51
0.0
  0
LINE
  5
71B
330
2
100
AcDbEntity
  8
0
100
AcDbLine
 10
380.4384544050518
 20
49.44007077789021
 30
0.0
 11
372.9731534050518
 21
49.44007077789021
 31
0.0
  0
LINE
  5
71C
330
2
100
AcDbEntity
  8
0
100
AcDbLine
 10
381.9731534050518
 20
71.7400907778902
 30
0.0
 11
381.9731534050518
 21
50.94007077789021
 31
0.0
  0
LINE
  5
71D
330
2
100
AcDbEntity
  8
HIDS
  6
SEKKEI_H
100
AcDbLine
 10
372.9731534050518
 20
54.19007077789022
 30
0.0
 11
381.9731534050518
 21
54.19007077789022
 31
0.0
  0
LINE
  5
71E
330
2
100
AcDbEntity
  8
HIDS
  6
SEKKEI_H
100
AcDbLine
 10
372.9731534050518
 20
60.69007077789021
 30
0.0
 11
381.9731534050518
 21
60.69007077789021
 31
0.0
  0
LINE
  5
71F
330
2
100
AcDbEntity
  8
0
100
AcDbLine
 10
382.3703694050518
 20
50.92243077789021
 30
0.0
 11
382.7071614050518
 21
52.1795707778902
 31
0.0
  0
ARC
  5
720
330
2
100
AcDbEntity
  8
0
100
AcDbCircle
 10
383.9731534050518
 20
52.37480077789022
 30
0.0
 40
2.0
100
AcDbArc
 50
91.00058700000005
 51
180.0
  0
LINE
  5
723
330
2
100
AcDbEntity
  8
0
100
AcDbLine
 10
378.9731534050518
 20
93.4400707778902
 30
0.0
 11
379.9784449030515
 21
93.4400707778902
 31
0.0
  0
ARC
  5
724
330
2
100
AcDbEntity
  8
0
100
AcDbCircle
 10
378.9731534050518
 20
94.44006677789023
 30
0.0
 40
1.0
100
AcDbArc
 50
180.0
 51
270.0
  0
ARC
  5
725
330
2
100
AcDbEntity
  8
0
100
AcDbCircle
 10
253.1177698143512
 20
143.4400747778902
 30
0.0
 40
8.0
100
AcDbArc
 50
180.0
 51
277.9695130000001
  0
LINE
  5
726
330
2
100
AcDbEntity
  8
0
100
AcDbLine
 10
261.0404688143513
 20
144.5492277778902
 30
0.0
 11
263.6177698143512
 21
126.1400717778902
 31
0.0
  0
LINE
  5
727
330
2
100
AcDbEntity
  8
CENTER
100
AcDbLine
 10
253.1177698143512
 20
137.5963707778902
 30
0.0
 11
253.1177698143512
 21
149.2837787778901
 31
0.0
  0
LINE
  5
728
330
2
100
AcDbEntity
  8
0
100
AcDbLine
 10
258.7428618143513
 20
132.1105687778902
 30
0.0
 11
261.1420618143513
 21
114.9734987778902
 31
0.0
  0
ARC
  5
729
330
2
100
AcDbEntity
  8
0
100
AcDbCircle
 10
254.7815728143512
 20
131.5559727778902
 30
0.0
 40
4.0
100
AcDbArc
 50
7.969701000000192
 51
97.96975700000015
  0
ARC
  5
72A
330
2
100
AcDbEntity
  8
0
100
AcDbCircle
 10
253.1177698143512
 20
143.4400747778902
 30
0.0
 40
8.0
100
AcDbArc
 50
7.969647000000191
 51
90.0
  0
CIRCLE
  5
72B
330
2
100
AcDbEntity
  8
0
100
AcDbCircle
 10
253.1177698143512
 20
143.4400747778902
 30
0.0
 40
3.25
  0
LINE
  5
72C
330
2
100
AcDbEntity
  8
CENTER
100
AcDbLine
 10
247.2740658143513
 20
143.4400747778902
 30
0.0
 11
258.9614738143512
 21
143.4400747778902
 31
0.0
  0
ARC
  5
72D
330
2
100
AcDbEntity
  8
0
100
AcDbCircle
 10
241.1177698143513
 20
143.4400747778902
 30
0.0
 40
4.0
100
AcDbArc
 50
0.0
 51
90.0
  0
LINE
  5
72E
330
2
100
AcDbEntity
  8
0
100
AcDbLine
 10
372.9731534050518
 20
151.4400747778902
 30
0.0
 11
372.9731534050518
 21
120.9400747778902
 31
0.0
  0
LINE
  5
72F
330
2
100
AcDbEntity
  8
0
100
AcDbLine
 10
370.4731534050518
 20
115.9400747778902
 30
0.0
 11
348.9731534050518
 21
115.9400747778902
 31
0.0
  0
LINE
  5
730
330
2
100
AcDbEntity
  8
0
100
AcDbLine
 10
370.4731534050518
 20
110.9400747778902
 30
0.0
 11
348.9731534050518
 21
110.9400747778902
 31
0.0
  0
LINE
  5
731
330
2
100
AcDbEntity
  8
0
100
AcDbLine
 10
375.9731534050518
 20
105.9400707778902
 30
0.0
 11
348.9731534050518
 21
105.9400707778902
 31
0.0
  0
LINE
  5
732
330
2
100
AcDbEntity
  8
0
100
AcDbLine
 10
375.9731534050518
 20
120.9400747778902
 30
0.0
 11
348.9731534050518
 21
120.9400747778902
 31
0.0
  0
LINE
  5
733
330
2
100
AcDbEntity
  8
0
100
AcDbLine
 10
348.9731534050518
 20
105.9400707778902
 30
0.0
 11
348.9731534050518
 21
120.9400747778902
 31
0.0
  0
LINE
  5
734
330
2
100
AcDbEntity
  8
0
100
AcDbLine
 10
375.9731534050518
 20
121.9400747778902
 30
0.0
 11
375.9731534050518
 21
104.9400707778902
 31
0.0
  0
LINE
  5
735
330
2
100
AcDbEntity
  8
0
100
AcDbLine
 10
375.9731534050518
 20
104.9400707778902
 30
0.0
 11
377.9731534050518
 21
104.9400707778902
 31
0.0
  0
ARC
  5
736
330
2
100
AcDbEntity
  8
0
100
AcDbCircle
 10
370.4731534050518
 20
113.4400747778902
 30
0.0
 40
2.5
100
AcDbArc
 50
270.0
 51
0.0
  0
ARC
  5
737
330
2
100
AcDbEntity
  8
0
100
AcDbCircle
 10
370.4731534050518
 20
113.4400817778902
 30
0.0
 40
2.5
100
AcDbArc
 50
0.0
 51
90.0
  0
LINE
  5
739
330
2
100
AcDbEntity
  8
0
100
AcDbLine
 10
375.9731534050518
 20
121.9400747778902
 30
0.0
 11
377.9731534050518
 21
121.9400747778902
 31
0.0
  0
ARC
  5
73C
330
2
100
AcDbEntity
  8
0
100
AcDbCircle
 10
378.9731534050518
 20
132.4400747778902
 30
0.0
 40
1.0
100
AcDbArc
 50
90.0
 51
180.0
  0
LINE
  5
73D
330
2
100
AcDbEntity
  8
0
100
AcDbLine
 10
378.9731534050518
 20
133.4400747778902
 30
0.0
 11
379.9731534050518
 21
133.4400747778902
 31
0.0
  0
LINE
  5
73E
330
2
100
AcDbEntity
  8
0
100
AcDbLine
 10
382.2710654050517
 20
150.3282887778902
 30
0.0
 11
382.7108544050517
 21
148.6869307778902
 31
0.0
  0
LINE
  5
73F
330
2
100
AcDbEntity
  8
HIDS
  6
SEKKEI_H
100
AcDbLine
 10
372.9731534050518
 20
140.1900747778902
 30
0.0
 11
381.9731534050518
 21
140.1900747778902
 31
0.0
  0
LINE
  5
740
330
2
100
AcDbEntity
  8
HIDS
  6
SEKKEI_H
100
AcDbLine
 10
372.9731534050518
 20
146.6900747778902
 30
0.0
 11
381.9731534050518
 21
146.6900747778902
 31
0.0
  0
ARC
  5
741
330
2
100
AcDbEntity
  8
0
100
AcDbCircle
 10
383.9731534050518
 20
148.4874527778902
 30
0.0
 40
2.0
100
AcDbArc
 50
180.0
 51
269.0006099999996
  0
LINE
  5
742
330
2
100
AcDbEntity
  8
0
100
AcDbLine
 10
372.9731534050518
 20
151.4400747778902
 30
0.0
 11
380.8221524050517
 21
151.4400747778902
 31
0.0
  0
ARC
  5
743
330
2
100
AcDbEntity
  8
0
100
AcDbCircle
 10
380.8221524050517
 20
149.9400747778902
 30
0.0
 40
1.5
100
AcDbArc
 50
15.00007000000016
 51
90.0
  0
LINE
  5
744
330
2
100
AcDbEntity
  8
0
100
AcDbLine
 10
452.9731534050518
 20
68.14007177789022
 30
0.0
 11
452.9731534050518
 21
113.0690037778901
 31
0.0
  0
ARC
  5
746
330
2
100
AcDbEntity
  8
0
100
AcDbCircle
 10
412.9731534050518
 20
91.14007177789023
 30
0.0
 40
38.0
100
AcDbArc
 50
324.6655309999995
 51
22.91951899999947
  0
LINE
  5
747
330
2
100
AcDbEntity
  8
0
100
AcDbLine
 10
447.9731534050518
 20
94.44007077789022
 30
0.0
 11
447.9731534050518
 21
132.4400747778902
 31
0.0
  0
LINE
  5
748
330
2
100
AcDbEntity
  8
0
100
AcDbLine
 10
443.9731534050518
 20
57.38800077789022
 30
0.0
 11
443.9731534050518
 21
143.4746737778902
 31
0.0
  0
LINE
  5
749
330
2
100
AcDbEntity
  8
CENTER
100
AcDbLine
 10
412.9731534050518
 20
41.14007077789023
 30
0.0
 11
412.9731534050518
 21
155.9810600396567
 31
0.0
  0
LINE
  5
74A
330
2
100
AcDbEntity
  8
0
100
AcDbLine
 10
449.9731534050518
 20
65.14007177789022
 30
0.0
 11
446.3701564050518
 21
65.14007177789022
 31
0.0
  0
ARC
  5
74B
330
2
100
AcDbEntity
  8
0
100
AcDbCircle
 10
446.9731534050518
 20
94.44006677789023
 30
0.0
 40
1.0
100
AcDbArc
 50
270.0
 51
0.0
  0
LINE
  5
74C
330
2
100
AcDbEntity
  8
0
100
AcDbLine
 10
391.0441674050517
 20
51.14007077789023
 30
0.0
 11
435.9731534050518
 21
51.14007077789023
 31
0.0
  0
LINE
  5
74D
330
2
100
AcDbEntity
  8
0
100
AcDbLine
 10
391.9731534050518
 20
53.14007077789023
 30
0.0
 11
433.9731534050518
 21
53.14007077789023
 31
0.0
  0
LINE
  5
74E
330
2
100
AcDbEntity
  8
0
100
AcDbLine
 10
384.9731534050518
 20
74.7400697778902
 30
0.0
 11
442.5356534050518
 21
74.7400697778902
 31
0.0
  0
ARC
  5
74F
330
2
100
AcDbEntity
  8
0
100
AcDbCircle
 10
391.0441674050517
 20
56.14007077789023
 30
0.0
 40
5.0
100
AcDbArc
 50
225.0001069999998
 51
270.0
  0
LINE
  5
750
330
2
100
AcDbEntity
  8
0
100
AcDbLine
 10
387.5087674050518
 20
52.60452077789023
 30
0.0
 11
385.7078634050517
 21
54.4053907778902
 31
0.0
  0
ARC
  5
751
330
2
100
AcDbEntity
  8
0
100
AcDbCircle
 10
391.9731534050518
 20
55.14007077789023
 30
0.0
 40
2.0
100
AcDbArc
 50
199.2169950000003
 51
270.0
  0
ARC
  5
752
330
2
100
AcDbEntity
  8
0
100
AcDbCircle
 10
435.9731534050518
 20
54.1400607778902
 30
0.0
 40
3.0
100
AcDbArc
 50
270.0
 51
0.0
  0
ARC
  5
753
330
2
100
AcDbEntity
  8
0
100
AcDbCircle
 10
433.9731534050518
 20
55.14007077789023
 30
0.0
 40
2.0
100
AcDbArc
 50
270.0
 51
0.0
  0
LINE
  5
754
330
2
100
AcDbEntity
  8
0
100
AcDbLine
 10
435.9731534050518
 20
55.14007077789023
 30
0.0
 11
435.9731534050518
 21
55.28285077789021
 31
0.0
  0
LINE
  5
755
330
2
100
AcDbEntity
  8
0
100
AcDbLine
 10
438.9731534050518
 20
54.14007077789023
 30
0.0
 11
438.9731534050518
 21
55.33532077789022
 31
0.0
  0
ARC
  5
756
330
2
100
AcDbEntity
  8
0
100
AcDbCircle
 10
441.9731534050518
 20
57.38799077789022
 30
0.0
 40
2.0
100
AcDbArc
 50
271.0003660000003
 51
0.0
  0
LINE
  5
757
330
2
100
AcDbEntity
  8
0
100
AcDbLine
 10
443.9731534050518
 20
62.74310077789022
 30
0.0
 11
446.3701564050518
 21
65.14007177789022
 31
0.0
  0
ARC
  5
758
330
2
100
AcDbEntity
  8
0
100
AcDbCircle
 10
445.9731534050518
 20
91.44007777789022
 30
0.0
 40
2.0
100
AcDbArc
 50
90.0
 51
180.0
  0
LINE
  5
759
330
2
100
AcDbEntity
  8
0
100
AcDbLine
 10
446.9731534050518
 20
93.4400707778902
 30
0.0
 11
445.9731534050518
 21
93.4400707778902
 31
0.0
  0
ARC
  5
75A
330
2
100
AcDbEntity
  8
0
100
AcDbCircle
 10
449.9731534050518
 20
68.1400597778902
 30
0.0
 40
3.0
100
AcDbArc
 50
270.0
 51
0.0
  0
ARC
  5
75B
330
2
100
AcDbEntity
  8
0
100
AcDbCircle
 10
446.9731534050518
 20
132.4400747778902
 30
0.0
 40
1.0
100
AcDbArc
 50
0.0
 51
90.0
  0
LINE
  5
75C
330
2
100
AcDbEntity
  8
0
100
AcDbLine
 10
385.4741604050518
 20
126.1400717778902
 30
0.0
 11
442.0044644050518
 21
126.1400717778902
 31
0.0
  0
ARC
  5
762
330
2
100
AcDbEntity
  8
0
100
AcDbCircle
 10
445.9731534050518
 20
135.4400747778902
 30
0.0
 40
2.0
100
AcDbArc
 50
180.0
 51
270.0
  0
LINE
  5
763
330
2
100
AcDbEntity
  8
0
100
AcDbLine
 10
446.9731534050518
 20
133.4400747778902
 30
0.0
 11
445.9731534050518
 21
133.4400747778902
 31
0.0
  0
ARC
  5
764
330
2
100
AcDbEntity
  8
0
100
AcDbCircle
 10
441.9731534050518
 20
143.4746587778902
 30
0.0
 40
2.0
100
AcDbArc
 50
0.0
 51
89.00035899999958
  0
ARC
  5
765
330
2
100
AcDbEntity
  8
0
100
AcDbCircle
 10
447.9731534050518
 20
113.0689807778902
 30
0.0
 40
5.0
100
AcDbArc
 50
0.0
 51
45.00022900000016
  0
LINE
  5
766
330
2
100
AcDbEntity
  8
0
100
AcDbLine
 10
451.5086454050518
 20
116.6045417778902
 30
0.0
 11
447.9731534050518
 21
120.1400637778902
 31
0.0
  0
LINE
  5
768
330
2
100
AcDbEntity
  8
0
100
AcDbLine
 10
261.8095728143513
 20
311.4199327778901
 30
0.0
 11
263.6177698143512
 21
242.3675647778902
 31
0.0
  0
LINE
  5
769
330
2
100
AcDbEntity
  8
HIDS
  6
SEKKEI_H
100
AcDbLine
 10
249.8677698143513
 20
251.3675647778902
 30
0.0
 11
249.8677698143513
 21
242.3675647778902
 31
0.0
  0
LINE
  5
76A
330
2
100
AcDbEntity
  8
HIDS
  6
SEKKEI_H
100
AcDbLine
 10
256.3677698143512
 20
251.3675647778902
 30
0.0
 11
256.3677698143512
 21
242.3675647778902
 31
0.0
  0
LINE
  5
76B
330
2
100
AcDbEntity
  8
CENTER
100
AcDbLine
 10
253.1177698143512
 20
237.3675647778902
 30
0.0
 11
253.1177698143512
 21
256.3675647778902
 31
0.0
  0
LINE
  5
76C
330
2
100
AcDbEntity
  8
0
100
AcDbLine
 10
261.0404688143513
 20
242.3675647778902
 30
0.0
 11
261.0404688143513
 21
250.0572617778901
 31
0.0
  0
ARC
  5
76D
330
2
100
AcDbEntity
  8
0
100
AcDbCircle
 10
262.4079308143513
 20
250.3675647778901
 30
0.0
 40
1.0
100
AcDbArc
 50
1.499998000000141
 51
90.0
  0
ARC
  5
76E
330
2
100
AcDbEntity
  8
0
100
AcDbCircle
 10
259.8102598143513
 20
311.3675647778902
 30
0.0
 40
2.0
100
AcDbArc
 50
1.500000000000274
 51
90.0
  0
LWPOLYLINE
  5
775
330
2
100
AcDbEntity
  8
HOJO
100
AcDbPolyline
 90
       13
 70
     0
 43
0.0
 10
372.9731534050518
 20
136.6497227778902
 10
378.8637474050517
 20
135.4369537778902
 10
384.1137474050518
 20
132.1869537778902
 10
384.6137474050518
 20
127.0619537778902
 10
386.3637474050518
 20
125.1869537778902
 10
387.1137474050518
 20
115.9369537778902
 10
387.8637474050518
 20
110.6869537778902
 10
385.8637474050518
 20
104.3119497778902
 10
386.4887474050518
 20
97.81194677789024
 10
384.9887474050518
 20
92.06194677789023
 10
380.8637474050518
 20
88.93694677789023
 10
375.9887474050518
 20
88.31194677789023
 10
372.9731534050518
 20
87.08335877789023
  0
LINE
  5
77E
330
2
100
AcDbEntity
  8
CENTER
100
AcDbLine
 10
189.1177698143513
 20
137.5963707778902
 30
0.0
 11
189.1177698143513
 21
149.2837787778901
 31
0.0
  0
LINE
  5
77F
330
2
100
AcDbEntity
  8
CENTER
100
AcDbLine
 10
183.2740658143513
 20
143.4400747778902
 30
0.0
 11
194.9614738143512
 21
143.4400747778902
 31
0.0
  0
LINE
  5
780
330
2
100
AcDbEntity
  8
CENTER
100
AcDbLine
 10
189.1177698143513
 20
51.59636677789027
 30
0.0
 11
189.1177698143513
 21
63.28377477789016
 31
0.0
  0
LINE
  5
781
330
2
100
AcDbEntity
  8
CENTER
100
AcDbLine
 10
183.2740658143513
 20
57.44007077789021
 30
0.0
 11
194.9614738143512
 21
57.44007077789021
 31
0.0
  0
LINE
  5
782
330
2
100
AcDbEntity
  8
CENTER
100
AcDbLine
 10
253.1177698143512
 20
51.59636677789027
 30
0.0
 11
253.1177698143512
 21
63.28377477789016
 31
0.0
  0
LINE
  5
783
330
2
100
AcDbEntity
  8
CENTER
100
AcDbLine
 10
247.2740658143513
 20
57.44007077789021
 30
0.0
 11
258.9614738143512
 21
57.44007077789021
 31
0.0
  0
TEXT
  5
79B
330
2
100
AcDbEntity
  8
TITLE
100
AcDbText
 10
304.2616012994516
 20
251.1577426781232
 30
0.0
 40
5.0
  1
HFMN-15R-10~60-T60
 41
0.8
100
AcDbText
  0
TEXT
  5
79C
330
2
100
AcDbEntity
  8
TITLE
100
AcDbText
 10
304.2616012994516
 20
267.1577426781232
 30
0.0
 40
5.0
  1
HFMN-15R-10~120-T40
 41
0.8
100
AcDbText
  0
TEXT
  5
79D
330
2
100
AcDbEntity
  8
TITLE
100
AcDbText
 10
304.2616012994516
 20
259.1577426781232
 30
0.0
 40
5.0
  1
HFMN-15R-10~120-T40W
 41
0.8
100
AcDbText
  0
TEXT
  5
79E
330
2
100
AcDbEntity
  8
TITLE
100
AcDbText
 10
304.2616012994516
 20
275.1577426781232
 30
0.0
 40
5.0
  1
HFMN-15R-10~240-T25W
 41
0.8
100
AcDbText
  0
TEXT
  5
79F
330
2
100
AcDbEntity
  8
TITLE
100
AcDbText
 10
304.2616012994516
 20
283.1577426781232
 30
0.0
 40
5.0
  1
HFMN-15R-10~240-T25
 41
0.8
100
AcDbText
  0
TEXT
  5
7A0
330
2
100
AcDbEntity
  8
TITLE
100
AcDbText
 10
304.2616012994516
 20
291.1577426781232
 30
0.0
 40
5.0
  1
HFMN-15R-10~240-T15W
 41
0.8
100
AcDbText
  0
TEXT
  5
7A1
330
2
100
AcDbEntity
  8
TITLE
100
AcDbText
 10
304.2616012994516
 20
299.1577426781232
 30
0.0
 40
5.0
  1
HFMN-15R-10~240-T15
 41
0.8
100
AcDbText
  0
TEXT
  5
7A2
330
2
100
AcDbEntity
  8
TITLE
100
AcDbText
 10
396.5921326759063
 20
275.1577426781232
 30
0.0
 40
5.0
  1
HFMN-15R-10~240-S25W
 41
0.8
100
AcDbText
  0
TEXT
  5
7A3
330
2
100
AcDbEntity
  8
TITLE
100
AcDbText
 10
396.5921326759063
 20
259.1577426781232
 30
0.0
 40
5.0
  1
HFMN-15R-10~120-S40W
 41
0.8
100
AcDbText
  0
TEXT
  5
7A4
330
2
100
AcDbEntity
  8
TITLE
100
AcDbText
 10
396.5921326759063
 20
267.1577426781232
 30
0.0
 40
5.0
  1
HFMN-15R-10~120-S40
 41
0.8
100
AcDbText
  0
TEXT
  5
7A5
330
2
100
AcDbEntity
  8
TITLE
100
AcDbText
 10
396.5921326759063
 20
291.1577426781232
 30
0.0
 40
5.0
  1
HFMN-15R-10~240-S15W
 41
0.8
100
AcDbText
  0
TEXT
  5
7A6
330
2
100
AcDbEntity
  8
TITLE
100
AcDbText
 10
396.5921326759063
 20
283.1577426781232
 30
0.0
 40
5.0
  1
HFMN-15R-10~240-S25
 41
0.8
100
AcDbText
  0
TEXT
  5
7A7
330
2
100
AcDbEntity
  8
TITLE
100
AcDbText
 10
396.5921326759063
 20
299.1577426781232
 30
0.0
 40
5.0
  1
HFMN-15R-10~240-S15
 41
0.8
100
AcDbText
  0
ARC
  5
1A71
330
2
100
AcDbEntity
  8
0
100
AcDbCircle
 10
379.9731534050518
 20
91.44007777789022
 30
0.0
 40
2.0
100
AcDbArc
 50
0.000000000000007
 51
90.0
  0
ARC
  5
1A72
330
2
100
AcDbEntity
  8
0
100
AcDbCircle
 10
379.9731534050518
 20
135.4400747778902
 30
0.0
 40
2.0
100
AcDbArc
 50
270.0
 51
311.1850544871401
  0
LINE
  5
1A73
330
2
100
AcDbEntity
  8
0
100
AcDbLine
 10
240.1177738143513
 20
317.3675647778902
 30
0.0
 11
202.1177698143513
 21
317.3675647778902
 31
0.0
  0
ARC
  5
1A74
330
2
100
AcDbEntity
  8
0
100
AcDbCircle
 10
243.1177668143513
 20
315.3675647778902
 30
0.0
 40
2.0
100
AcDbArc
 50
180.0
 51
270.0
  0
LINE
  5
1A75
330
2
100
AcDbEntity
  8
0
100
AcDbLine
 10
241.1177738143513
 20
316.3675647778902
 30
0.0
 11
241.1177738143513
 21
315.3675647778902
 31
0.0
  0
ARC
  5
1A76
330
2
100
AcDbEntity
  8
0
100
AcDbCircle
 10
240.1177778143513
 20
316.3675647778902
 30
0.0
 40
1.0
100
AcDbArc
 50
0.0
 51
90.0
  0
ARC
  5
1A77
330
2
100
AcDbEntity
  8
0
100
AcDbCircle
 10
199.1177698143513
 20
315.3675647778902
 30
0.0
 40
2.0
100
AcDbArc
 50
270.0
 51
0.0
  0
LINE
  5
1A78
330
2
100
AcDbEntity
  8
0
100
AcDbLine
 10
201.1177698143513
 20
316.3675647778902
 30
0.0
 11
201.1177698143513
 21
315.3675647778902
 31
0.0
  0
ARC
  5
1A79
330
2
100
AcDbEntity
  8
0
100
AcDbCircle
 10
202.1177698143513
 20
316.3675647778902
 30
0.0
 40
1.0
100
AcDbArc
 50
90.0
 51
180.0
  0
ENDSEC
  0
SECTION
  2
OBJECTS
  0
DICTIONARY
  5
7
330
0
100
AcDbDictionary
  3
ACAD_GROUP
350
75
  3
ACAD_LAYOUT
350
61
  3
ACAD_MLINESTYLE
350
76
  3
ACAD_PLOTSETTINGS
350
77
  3
ACAD_PLOTSTYLENAME
350
6
  3
ACADDIM
350
480
  3
ACDBHEADERROUNDTRIPXREC
350
1ABB
  3
ACDBVARIABLEDICTIONARY
350
102
  3
DWGPROPS
350
3D2
  0
DICTIONARY
  5
1ADC
330
2
100
AcDbDictionary
280
     1
  3
ACAD_LAYOUTSELFREF
360
1ADD
  0
DICTIONARY
  5
1ADE
330
1AB5
100
AcDbDictionary
280
     1
  3
ACAD_LAYOUTSELFREF
360
1ADF
  0
DICTIONARY
  5
75
102
{ACAD_REACTORS
330
7
102
}
330
7
100
AcDbDictionary
  0
DICTIONARY
  5
61
102
{ACAD_REACTORS
330
7
102
}
330
7
100
AcDbDictionary
  0
DICTIONARY
  5
76
102
{ACAD_REACTORS
330
7
102
}
330
7
100
AcDbDictionary
  3
STANDARD
350
78
  0
DICTIONARY
  5
77
102
{ACAD_REACTORS
330
7
102
}
330
7
100
AcDbDictionary
  0
ACDBDICTIONARYWDFLT
  5
6
102
{ACAD_REACTORS
330
7
102
}
330
7
100
AcDbDictionary
281
     1
  3
Normal
350
5
100
AcDbDictionaryWithDefault
340
5
  0
XRECORD
  5
480
102
{ACAD_REACTORS
330
7
102
}
330
7
100
AcDbXrecord
 90
   990106
  3

 60
     0
 61
     0
 62
     1
 63
     3
 64
     1
 65
     0
 66
     0
 67
     3
 68
     1
 69
     0
 70
     0
 71
     0
 72
     0
 40
0.0
170
     2
340
0
  0
DICTIONARY
  5
1ABB
102
{ACAD_REACTORS
330
7
102
}
330
7
100
AcDbDictionary
  3
CEPSNTYPE
350
1AC5
  3
DIMSTYLEDATA
350
1AC9
  3
FINGERPRINTGUID
350
1AC6
  3
HYPERLINKBASE
350
1ABE
  3
INSUNITS
350
1AC4
  3
LAYOUTDICT
350
1AC0
  3
LWETCUNION
350
1AC3
  3
PLOTSETDICT
350
1AC1
  3
PLOTSTYLNAMDICT
350
1AC2
  3
PSVPSCALE
350
1AC8
  3
PUCSBASE
350
1ACC
  3
PUCSORGBACK
350
1AD2
  3
PUCSORGBOTTOM
350
1ACE
  3
PUCSORGFRONT
350
1AD1
  3
PUCSORGLEFT
350
1ACF
  3
PUCSORGRIGHT
350
1AD0
  3
PUCSORGTOP
350
1ACD
  3
PUCSORTHOREF
350
1ACA
  3
PUCSORTHOVIEW
350
1ACB
  3
STYLESHEET
350
1ABF
  3
TSTACKALIGN
350
1ABC
  3
TSTACKSIZE
350
1ABD
  3
UCSBASE
350
1AD5
  3
UCSORGBACK
350
1ADB
  3
UCSORGBOTTOM
350
1AD7
  3
UCSORGFRONT
350
1ADA
  3
UCSORGLEFT
350
1AD8
  3
UCSORGRIGHT
350
1AD9
  3
UCSORGTOP
350
1AD6
  3
UCSORTHOREF
350
1AD3
  3
UCSORTHOVIEW
350
1AD4
  3
VERSIONGUID
350
1AC7
  0
DICTIONARY
  5
102
102
{ACAD_REACTORS
330
7
102
}
330
7
100
AcDbDictionary
  3
DIMASSOC
350
103
  0
XRECORD
  5
3D2
102
{ACAD_REACTORS
330
7
102
}
330
7
100
AcDbXrecord
  1
DWGPROPS COOKIE
  2

  3

  4

  6

  7

  8

  9

300
=
301
=
302
=
303
=
304
=
305
=
306
=
307
=
308
=
309
=
 40
0.5353330671296296
 41
2452052.431989363
 42
2453406.550756377
  1

 90
        0
  0
XRECORD
  5
1ADD
102
{ACAD_REACTORS
330
1ADC
102
}
330
1ADC
100
AcDbXrecord
340
2
  0
XRECORD
  5
1ADF
102
{ACAD_REACTORS
330
1ADE
102
}
330
1ADE
100
AcDbXrecord
340
1AB5
  0
MLINESTYLE
  5
78
102
{ACAD_REACTORS
330
76
102
}
330
76
100
AcDbMlineStyle
  2
STANDARD
 70
     0
  3

 62
     0
 51
90.0
 52
90.0
 71
     2
 49
0.5
 62
   256
  6
BYLAYER
 49
-0.5
 62
   256
  6
BYLAYER
  0
ACDBPLACEHOLDER
  5
5
102
{ACAD_REACTORS
330
6
102
}
330
6
100
AcDbPlaceHolder
280
     0
  0
XRECORD
  5
1AC5
102
{ACAD_REACTORS
330
1ABB
102
}
330
1ABB
100
AcDbXrecord
 90
        0
  0
XRECORD
  5
1AC9
102
{ACAD_REACTORS
330
1ABB
102
}
330
1ABB
100
AcDbXrecord
1000
DSTYLE
1002
{
1070
   179
 70
     2
1070
   277
 70
     6
1002
}
  0
XRECORD
  5
1AC6
102
{ACAD_REACTORS
330
1ABB
102
}
330
1ABB
100
AcDbXrecord
  1
{6385560B-F4B1-4644-A7C2-A3E32AC3D232}
  0
XRECORD
  5
1ABE
102
{ACAD_REACTORS
330
1ABB
102
}
330
1ABB
100
AcDbXrecord
  1

  0
XRECORD
  5
1AC4
102
{ACAD_REACTORS
330
1ABB
102
}
330
1ABB
100
AcDbXrecord
 90
        0
  0
XRECORD
  5
1AC0
102
{ACAD_REACTORS
330
1ABB
102
}
330
1ABB
100
AcDbXrecord
340
61
  0
XRECORD
  5
1AC3
102
{ACAD_REACTORS
330
1ABB
102
}
330
1ABB
100
AcDbXrecord
 90
    10781
  0
XRECORD
  5
1AC1
102
{ACAD_REACTORS
330
1ABB
102
}
330
1ABB
100
AcDbXrecord
340
77
  0
XRECORD
  5
1AC2
102
{ACAD_REACTORS
330
1ABB
102
}
330
1ABB
100
AcDbXrecord
340
6
  0
XRECORD
  5
1AC8
102
{ACAD_REACTORS
330
1ABB
102
}
330
1ABB
100
AcDbXrecord
 40
0.0
  0
XRECORD
  5
1ACC
102
{ACAD_REACTORS
330
1ABB
102
}
330
1ABB
100
AcDbXrecord
340
0
  0
XRECORD
  5
1AD2
102
{ACAD_REACTORS
330
1ABB
102
}
330
1ABB
100
AcDbXrecord
 10
0.0
 20
0.0
 30
0.0
  0
XRECORD
  5
1ACE
102
{ACAD_REACTORS
330
1ABB
102
}
330
1ABB
100
AcDbXrecord
 10
0.0
 20
0.0
 30
0.0
  0
XRECORD
  5
1AD1
102
{ACAD_REACTORS
330
1ABB
102
}
330
1ABB
100
AcDbXrecord
 10
0.0
 20
0.0
 30
0.0
  0
XRECORD
  5
1ACF
102
{ACAD_REACTORS
330
1ABB
102
}
330
1ABB
100
AcDbXrecord
 10
0.0
 20
0.0
 30
0.0
  0
XRECORD
  5
1AD0
102
{ACAD_REACTORS
330
1ABB
102
}
330
1ABB
100
AcDbXrecord
 10
0.0
 20
0.0
 30
0.0
  0
XRECORD
  5
1ACD
102
{ACAD_REACTORS
330
1ABB
102
}
330
1ABB
100
AcDbXrecord
 10
0.0
 20
0.0
 30
0.0
  0
XRECORD
  5
1ACA
102
{ACAD_REACTORS
330
1ABB
102
}
330
1ABB
100
AcDbXrecord
340
0
  0
XRECORD
  5
1ACB
102
{ACAD_REACTORS
330
1ABB
102
}
330
1ABB
100
AcDbXrecord
 70
     0
  0
XRECORD
  5
1ABF
102
{ACAD_REACTORS
330
1ABB
102
}
330
1ABB
100
AcDbXrecord
  1
Sekkei.ctb
  0
XRECORD
  5
1ABC
102
{ACAD_REACTORS
330
1ABB
102
}
330
1ABB
100
AcDbXrecord
 90
        1
  0
XRECORD
  5
1ABD
102
{ACAD_REACTORS
330
1ABB
102
}
330
1ABB
100
AcDbXrecord
 90
       70
  0
XRECORD
  5
1AD5
102
{ACAD_REACTORS
330
1ABB
102
}
330
1ABB
100
AcDbXrecord
340
0
  0
XRECORD
  5
1ADB
102
{ACAD_REACTORS
330
1ABB
102
}
330
1ABB
100
AcDbXrecord
 10
0.0
 20
0.0
 30
0.0
  0
XRECORD
  5
1AD7
102
{ACAD_REACTORS
330
1ABB
102
}
330
1ABB
100
AcDbXrecord
 10
0.0
 20
0.0
 30
0.0
  0
XRECORD
  5
1ADA
102
{ACAD_REACTORS
330
1ABB
102
}
330
1ABB
100
AcDbXrecord
 10
0.0
 20
0.0
 30
0.0
  0
XRECORD
  5
1AD8
102
{ACAD_REACTORS
330
1ABB
102
}
330
1ABB
100
AcDbXrecord
 10
0.0
 20
0.0
 30
0.0
  0
XRECORD
  5
1AD9
102
{ACAD_REACTORS
330
1ABB
102
}
330
1ABB
100
AcDbXrecord
 10
0.0
 20
0.0
 30
0.0
  0
XRECORD
  5
1AD6
102
{ACAD_REACTORS
330
1ABB
102
}
330
1ABB
100
AcDbXrecord
 10
0.0
 20
0.0
 30
0.0
  0
XRECORD
  5
1AD3
102
{ACAD_REACTORS
330
1ABB
102
}
330
1ABB
100
AcDbXrecord
340
0
  0
XRECORD
  5
1AD4
102
{ACAD_REACTORS
330
1ABB
102
}
330
1ABB
100
AcDbXrecord
 70
     0
  0
XRECORD
  5
1AC7
102
{ACAD_REACTORS
330
1ABB
102
}
330
1ABB
100
AcDbXrecord
  1
{FDAE1552-962C-4ADC-A278-4303EEFAC820}
  0
DICTIONARYVAR
  5
103
102
{ACAD_REACTORS
330
102
102
}
330
102
100
DictionaryVariables
280
     0
  1
1
  0
ENDSEC
  0
EOF
