  0
SECTION
  2
HEADER
  9
$ACADVER
  1
AC1014
  9
$ACADMAINTVER
 70
     9
  9
$DWGCODEPAGE
  3
ANSI_932
  9
$INSBASE
 10
0.0
 20
0.0
 30
0.0
  9
$EXTMIN
 10
36.0655775050867
 20
39.14236421870934
 30
0.0
  9
$EXTMAX
 10
487.4431930050699
 20
386.0698652187093
 30
0.0
  9
$LIMMIN
 10
-70.28053099019939
 20
-6.274991275618731
  9
$LIMMAX
 10
612.9587594192647
 20
396.2758531988848
  9
$ORTHOMODE
 70
     1
  9
$REGENMODE
 70
     1
  9
$FILLMODE
 70
     1
  9
$QTEXTMODE
 70
     0
  9
$MIRRTEXT
 70
     0
  9
$DRAGMODE
 70
     2
  9
$LTSCALE
 40
2.0
  9
$OSMODE
 70
    37
  9
$ATTMODE
 70
     1
  9
$TEXTSIZE
 40
2.0
  9
$TRACEWID
 40
1.0
  9
$TEXTSTYLE
  7
STANDARD
  9
$CLAYER
  8
0
  9
$CELTYPE
  6
BYLAYER
  9
$CECOLOR
 62
   256
  9
$CELTSCALE
 40
1.0
  9
$DELOBJ
 70
     1
  9
$DISPSILH
 70
     0
  9
$DIMSCALE
 40
2.0
  9
$DIMASZ
 40
1.8
  9
$DIMEXO
 40
0.625
  9
$DIMDLI
 40
3.75
  9
$DIMRND
 40
0.0
  9
$DIMDLE
 40
0.0
  9
$DIMEXE
 40
0.8
  9
$DIMTP
 40
0.0
  9
$DIMTM
 40
0.0
  9
$DIMTXT
 40
1.8
  9
$DIMCEN
 40
2.5
  9
$DIMTSZ
 40
0.0
  9
$DIMTOL
 70
     0
  9
$DIMLIM
 70
     0
  9
$DIMTIH
 70
     0
  9
$DIMTOH
 70
     0
  9
$DIMSE1
 70
     0
  9
$DIMSE2
 70
     0
  9
$DIMTAD
 70
     1
  9
$DIMZIN
 70
     8
  9
$DIMBLK
  1

  9
$DIMASO
 70
     1
  9
$DIMSHO
 70
     1
  9
$DIMPOST
  1

  9
$DIMAPOST
  1

  9
$DIMALT
 70
     0
  9
$DIMALTD
 70
     4
  9
$DIMALTF
 40
0.0394
  9
$DIMLFAC
 40
1.0
  9
$DIMTOFL
 70
     1
  9
$DIMTVP
 40
0.0
  9
$DIMTIX
 70
     0
  9
$DIMSOXD
 70
     0
  9
$DIMSAH
 70
     0
  9
$DIMBLK1
  1

  9
$DIMBLK2
  1

  9
$DIMSTYLE
  2
STANDARD
  9
$DIMCLRD
 70
     0
  9
$DIMCLRE
 70
     0
  9
$DIMCLRT
 70
     0
  9
$DIMTFAC
 40
1.0
  9
$DIMGAP
 40
0.75
  9
$DIMJUST
 70
     0
  9
$DIMSD1
 70
     0
  9
$DIMSD2
 70
     0
  9
$DIMTOLJ
 70
     1
  9
$DIMTZIN
 70
     0
  9
$DIMALTZ
 70
     0
  9
$DIMALTTZ
 70
     0
  9
$DIMFIT
 70
     3
  9
$DIMUPT
 70
     0
  9
$DIMUNIT
 70
     8
  9
$DIMDEC
 70
     2
  9
$DIMTDEC
 70
     2
  9
$DIMALTU
 70
     8
  9
$DIMALTTD
 70
     4
  9
$DIMTXSTY
  7
STANDARD
  9
$DIMAUNIT
 70
     0
  9
$LUNITS
 70
     2
  9
$LUPREC
 70
     3
  9
$SKETCHINC
 40
1.0
  9
$FILLETRAD
 40
10.0
  9
$AUNITS
 70
     0
  9
$AUPREC
 70
     2
  9
$MENU
  1
.
  9
$ELEVATION
 40
0.0
  9
$PELEVATION
 40
0.0
  9
$THICKNESS
 40
0.0
  9
$LIMCHECK
 70
     0
  9
$BLIPMODE
 70
     0
  9
$CHAMFERA
 40
0.0
  9
$CHAMFERB
 40
0.0
  9
$CHAMFERC
 40
20.0
  9
$CHAMFERD
 40
0.0
  9
$SKPOLY
 70
     0
  9
$TDCREATE
 40
2453754.487571967
  9
$TDUPDATE
 40
2453832.468298240
  9
$TDINDWG
 40
0.2343538426
  9
$TDUSRTIMER
 40
0.2343538426
  9
$USRTIMER
 70
     1
  9
$ANGBASE
 50
0.0
  9
$ANGDIR
 70
     0
  9
$PDMODE
 70
     0
  9
$PDSIZE
 40
-10.0
  9
$PLINEWID
 40
0.0
  9
$COORDS
 70
     0
  9
$SPLFRAME
 70
     0
  9
$SPLINETYPE
 70
     6
  9
$SPLINESEGS
 70
     8
  9
$ATTDIA
 70
     0
  9
$ATTREQ
 70
     1
  9
$HANDLING
 70
-16383
  9
$HANDSEED
  5
1E73
  9
$SURFTAB1
 70
     6
  9
$SURFTAB2
 70
     6
  9
$SURFTYPE
 70
     6
  9
$SURFU
 70
     6
  9
$SURFV
 70
     6
  9
$UCSNAME
  2

  9
$UCSORG
 10
0.0
 20
0.0
 30
0.0
  9
$UCSXDIR
 10
1.0
 20
0.0
 30
0.0
  9
$UCSYDIR
 10
0.0
 20
1.0
 30
0.0
  9
$PUCSNAME
  2

  9
$PUCSORG
 10
0.0
 20
0.0
 30
0.0
  9
$PUCSXDIR
 10
1.0
 20
0.0
 30
0.0
  9
$PUCSYDIR
 10
0.0
 20
1.0
 30
0.0
  9
$USERI1
 70
     0
  9
$USERI2
 70
     0
  9
$USERI3
 70
     0
  9
$USERI4
 70
     0
  9
$USERI5
 70
     0
  9
$USERR1
 40
0.0
  9
$USERR2
 40
0.0
  9
$USERR3
 40
0.0
  9
$USERR4
 40
0.0
  9
$USERR5
 40
0.0
  9
$WORLDVIEW
 70
     1
  9
$SHADEDGE
 70
     3
  9
$SHADEDIF
 70
    70
  9
$TILEMODE
 70
     1
  9
$MAXACTVP
 70
    48
  9
$PINSBASE
 10
0.0
 20
0.0
 30
0.0
  9
$PLIMCHECK
 70
     0
  9
$PEXTMIN
 10
0.0
 20
0.0
 30
0.0
  9
$PEXTMAX
 10
0.0
 20
0.0
 30
0.0
  9
$PLIMMIN
 10
0.0
 20
0.0
  9
$PLIMMAX
 10
12.0
 20
9.0
  9
$UNITMODE
 70
     0
  9
$VISRETAIN
 70
     1
  9
$PLINEGEN
 70
     0
  9
$PSLTSCALE
 70
     1
  9
$TREEDEPTH
 70
  3020
  9
$PICKSTYLE
 70
     1
  9
$CMLSTYLE
  2
STANDARD
  9
$CMLJUST
 70
     0
  9
$CMLSCALE
 40
1.0
  9
$PROXYGRAPHICS
 70
     1
  9
$MEASUREMENT
 70
     0
  0
ENDSEC
  0
SECTION
  2
CLASSES
  0
CLASS
  1
DICTIONARYVAR
  2
AcDbDictionaryVar
  3
AutoCAD 2000
 90
        0
280
     0
281
     0
  0
CLASS
  1
ACDBDICTIONARYWDFLT
  2
AcDbDictionaryWithDefault
  3
AutoCAD 2000
 90
        0
280
     0
281
     0
  0
CLASS
  1
ACDBPLACEHOLDER
  2
AcDbPlaceHolder
  3
AutoCAD 2000
 90
        0
280
     0
281
     0
  0
CLASS
  1
LAYOUT
  2
AcDbLayout
  3
AutoCAD 2000
 90
        0
280
     0
281
     0
  0
CLASS
  1
LONG_TRANSACTION
  2
AcDbLongTransaction
  3
AutoCAD 2000
 90
        0
280
     0
281
     0
  0
CLASS
  1
LWPOLYLINE
  2
AcDbPolyline
  3
AutoCAD 2000
 90
        0
280
     0
281
     1
  0
CLASS
  1
HATCH
  2
AcDbHatch
  3
AutoCAD 2000
 90
        0
280
     0
281
     1
  0
CLASS
  1
XRECORD
  2
AcDbXrecord
  3
AutoCAD 2000
 90
        0
280
     0
281
     0
  0
ENDSEC
  0
SECTION
  2
TABLES
  0
TABLE
  2
VPORT
  5
6E
330
0
100
AcDbSymbolTable
 70
     2
  0
VPORT
  5
1E4D
330
6E
100
AcDbSymbolTableRecord
100
AcDbViewportTableRecord
  2
*ACTIVE
 70
     0
 10
0.0
 20
0.0
 11
1.0
 21
1.0
 12
259.1674563741452
 22
202.2024409579741
 13
0.0
 23
0.0
 14
10.0
 24
10.0
 15
12.0
 25
12.0
 16
0.0
 26
0.0
 36
1.0
 17
0.0
 27
0.0
 37
0.0
 40
370.6631240730341
 41
1.566970091027308
 42
50.0
 43
0.0
 44
0.0
 50
0.0
 51
0.0
 71
     0
 72
   100
 73
     1
 74
     3
 75
     0
 76
     0
 77
     0
 78
     0
  0
ENDTAB
  0
TABLE
  2
LTYPE
  5
69
330
0
100
AcDbSymbolTable
 70
     4
  0
LTYPE
  5
6A
330
69
100
AcDbSymbolTableRecord
100
AcDbLinetypeTableRecord
  2
BYBLOCK
 70
     0
  3

 72
    65
 73
     0
 40
0.0
  0
LTYPE
  5
6B
330
69
100
AcDbSymbolTableRecord
100
AcDbLinetypeTableRecord
  2
BYLAYER
 70
     0
  3

 72
    65
 73
     0
 40
0.0
  0
LTYPE
  5
8
330
69
100
AcDbSymbolTableRecord
100
AcDbLinetypeTableRecord
  2
CONTINUOUS
 70
     0
  3
Solid line
 72
    65
 73
     0
 40
0.0
  0
LTYPE
  5
27C
330
69
100
AcDbSymbolTableRecord
100
AcDbLinetypeTableRecord
  2
SEKKEI_A2_
 70
     0
  3
center(A2)  ____ _ ____ _ ____ _ ____ _ ____ _ 
 72
    65
 73
     4
 40
14.28749999999999
 49
9.525
 74
     0
 49
-1.587499999999999
 74
     0
 49
1.587499999999999
 74
     0
 49
-1.587499999999999
 74
     0
  0
LTYPE
  5
2B4
330
69
100
AcDbSymbolTableRecord
100
AcDbLinetypeTableRecord
  2
HIDDEN2
 70
     0
  3
Hidden (.5x) _ _ _ _ _ _ _ _ _ _ _ _ _ _ _ _ _
 72
    65
 73
     2
 40
4.762499999999999
 49
3.174999999999999
 74
     0
 49
-1.587499999999999
 74
     0
  0
LTYPE
  5
48F
330
69
100
AcDbSymbolTableRecord
100
AcDbLinetypeTableRecord
  2
SEKKEI_H
 70
     0
  3
Hidden-S _ _ _ _ _ _ _ _ _ _ _ _ _ _ _ _ _
 72
    65
 73
     2
 40
2.381249999999999
 49
1.587499999999999
 74
     0
 49
-0.79375
 74
     0
  0
ENDTAB
  0
TABLE
  2
LAYER
  5
66
330
0
100
AcDbSymbolTable
 70
     9
  0
LAYER
  5
5E
330
66
100
AcDbSymbolTableRecord
100
AcDbLayerTableRecord
  2
0
 70
     0
 62
     7
  6
CONTINUOUS
  0
LAYER
  5
3E
330
66
100
AcDbSymbolTableRecord
100
AcDbLayerTableRecord
  2
CENTER
 70
     0
 62
     3
  6
SEKKEI_A2_
  0
LAYER
  5
2B5
330
66
100
AcDbSymbolTableRecord
100
AcDbLayerTableRecord
  2
HIDS
 70
     0
 62
     1
  6
HIDDEN2
  0
LAYER
  5
2BA
330
66
100
AcDbSymbolTableRecord
100
AcDbLayerTableRecord
  2
HOJO
 70
     0
 62
     4
  6
CONTINUOUS
  0
LAYER
  5
3FA
330
66
100
AcDbSymbolTableRecord
100
AcDbLayerTableRecord
  2
TITLE
 70
     0
 62
     4
  6
CONTINUOUS
  0
ENDTAB
  0
TABLE
  2
STYLE
  5
67
330
0
100
AcDbSymbolTable
 70
     1
  0
STYLE
  5
16
330
67
100
AcDbSymbolTableRecord
100
AcDbTextStyleTableRecord
  2
STANDARD
 70
     0
 40
0.0
 41
1.0
 50
0.0
 71
     0
 42
2.0
  3
simplex.shx
  4
extfont.shx
  0
ENDTAB
  0
TABLE
  2
VIEW
  5
6C
330
0
100
AcDbSymbolTable
 70
     0
  0
ENDTAB
  0
TABLE
  2
UCS
  5
6D
330
0
100
AcDbSymbolTable
 70
     0
  0
ENDTAB
  0
TABLE
  2
APPID
  5
70
330
0
100
AcDbSymbolTable
 70
     1
  0
APPID
  5
71
330
70
100
AcDbSymbolTableRecord
100
AcDbRegAppTableRecord
  2
ACAD
 70
     0
  0
ENDTAB
  0
TABLE
  2
DIMSTYLE
  5
72
330
0
100
AcDbSymbolTable
 70
     1
  0
DIMSTYLE
105
73
330
72
100
AcDbSymbolTableRecord
100
AcDbDimStyleTableRecord
  2
STANDARD
 70
     0
  3

  4

  5

  6

  7

 40
2.0
 41
1.8
 42
0.625
 43
3.75
 44
0.8
 45
0.0
 46
0.0
 47
0.0
 48
0.0
140
1.8
141
2.5
142
0.0
143
0.0394
144
1.0
145
0.0
146
1.0
147
0.75
 71
     0
 72
     0
 73
     0
 74
     0
 75
     0
 76
     0
 77
     1
 78
     8
170
     0
171
     4
172
     1
173
     0
174
     0
175
     0
176
     0
177
     0
178
     0
270
     8
271
     2
272
     2
273
     8
274
     4
340
16
275
     0
280
     0
281
     0
282
     0
283
     1
284
     0
285
     0
286
     0
287
     3
288
     0
  0
ENDTAB
  0
TABLE
  2
BLOCK_RECORD
  5
1
330
0
100
AcDbSymbolTable
 70
    60
  0
BLOCK_RECORD
  5
2
102
{ACAD_XDICTIONARY
360
1E6F
102
}
330
1
100
AcDbSymbolTableRecord
100
AcDbBlockTableRecord
  2
*MODEL_SPACE
  0
BLOCK_RECORD
  5
1E48
102
{ACAD_XDICTIONARY
360
1E71
102
}
330
1
100
AcDbSymbolTableRecord
100
AcDbBlockTableRecord
  2
*PAPER_SPACE
  0
ENDTAB
  0
ENDSEC
  0
SECTION
  2
BLOCKS
  0
BLOCK
  5
5D
330
2
100
AcDbEntity
  8
0
100
AcDbBlockBegin
  2
*MODEL_SPACE
 70
     0
 10
0.0
 20
0.0
 30
0.0
  3
*MODEL_SPACE
  1

  0
ENDBLK
  5
5F
330
2
100
AcDbEntity
  8
0
100
AcDbBlockEnd
  0
BLOCK
  5
1E4A
330
1E48
100
AcDbEntity
 67
     1
  8
0
100
AcDbBlockBegin
  2
*PAPER_SPACE
 70
     0
 10
0.0
 20
0.0
 30
0.0
  3
*PAPER_SPACE
  1

  0
ENDBLK
  5
1E4B
330
1E48
100
AcDbEntity
 67
     1
  8
0
100
AcDbBlockEnd
  0
ENDSEC
  0
SECTION
  2
ENTITIES
  0
LINE
  5
64A
330
2
100
AcDbEntity
  8
0
100
AcDbLine
 10
177.0655845050868
 20
272.0698652187093
 30
0.0
 11
262.0655845050867
 21
272.0698652187093
 31
0.0
  0
LINE
  5
64B
330
2
100
AcDbEntity
  8
0
100
AcDbLine
 10
177.8564325050867
 20
281.0698652187093
 30
0.0
 11
260.8557455050868
 21
281.0698652187093
 31
0.0
  0
LINE
  5
64C
330
2
100
AcDbEntity
  8
0
100
AcDbLine
 10
258.2580595050867
 20
343.0698652187093
 30
0.0
 11
179.0138885050868
 21
343.0698652187093
 31
0.0
  0
LINE
  5
64D
330
2
100
AcDbEntity
  8
CENTER
100
AcDbLine
 10
36.06557750508676
 20
312.0698652187093
 30
0.0
 11
271.0181401738029
 21
312.0698652187093
 31
0.0
  0
ARC
  5
64E
330
2
100
AcDbEntity
  8
0
100
AcDbCircle
 10
251.5655845050868
 20
57.14236421870935
 30
0.0
 40
8.0
100
AcDbArc
 50
82.03034999999957
 51
180.0
  0
ARC
  5
64F
330
2
100
AcDbEntity
  8
0
100
AcDbCircle
 10
251.5655845050868
 20
57.14236421870935
 30
0.0
 40
8.0
100
AcDbArc
 50
270.0
 51
352.0303040000003
  0
ARC
  5
650
330
2
100
AcDbEntity
  8
0
100
AcDbCircle
 10
251.5655845050868
 20
143.1423672187093
 30
0.0
 40
8.0
100
AcDbArc
 50
7.969647000000191
 51
90.0
  0
ARC
  5
651
330
2
100
AcDbEntity
  8
0
100
AcDbCircle
 10
251.5655845050868
 20
143.1423672187093
 30
0.0
 40
8.0
100
AcDbArc
 50
180.0
 51
277.9695130000001
  0
ARC
  5
652
330
2
100
AcDbEntity
  8
0
100
AcDbCircle
 10
219.5655845050868
 20
100.1423642187093
 30
0.0
 40
42.5
100
AcDbArc
 50
199.7498930000002
 51
340.2500920000002
  0
ARC
  5
653
330
2
100
AcDbEntity
  8
0
100
AcDbCircle
 10
219.5655845050868
 20
100.1423642187093
 30
0.0
 40
42.5
100
AcDbArc
 50
19.749901
 51
160.2501069999997
  0
CIRCLE
  5
654
330
2
100
AcDbEntity
  8
0
100
AcDbCircle
 10
251.5655845050868
 20
143.1423672187093
 30
0.0
 40
3.25
  0
LINE
  5
655
330
2
100
AcDbEntity
  8
CENTER
100
AcDbLine
 10
245.7218805050867
 20
143.1423672187093
 30
0.0
 11
257.4092885050867
 21
143.1423672187093
 31
0.0
  0
CIRCLE
  5
656
330
2
100
AcDbEntity
  8
0
100
AcDbCircle
 10
251.5655845050868
 20
57.14236421870935
 30
0.0
 40
3.25
  0
LINE
  5
658
330
2
100
AcDbEntity
  8
0
100
AcDbLine
 10
104.5655775050867
 20
60.59340421870934
 30
0.0
 11
176.5655845050868
 21
60.59340421870934
 31
0.0
  0
LINE
  5
659
330
2
100
AcDbEntity
  8
0
100
AcDbLine
 10
104.5655775050867
 20
121.0913342187093
 30
0.0
 11
176.3155845050867
 21
121.0913342187093
 31
0.0
  0
LINE
  5
65A
330
2
100
AcDbEntity
  8
0
100
AcDbLine
 10
175.0655845050868
 20
52.84236421870935
 30
0.0
 11
104.5655775050867
 21
52.84236421870935
 31
0.0
  0
LINE
  5
65B
330
2
100
AcDbEntity
  8
0
100
AcDbLine
 10
104.5655775050867
 20
128.8423642187093
 30
0.0
 11
177.4855825050867
 21
128.8423642187093
 31
0.0
  0
LINE
  5
65C
330
2
100
AcDbEntity
  8
CENTER
100
AcDbLine
 10
36.0655775050867
 20
90.84236421870935
 30
0.0
 11
194.8655725050867
 21
90.84236421870935
 31
0.0
  0
LINE
  5
65D
330
2
100
AcDbEntity
  8
0
100
AcDbLine
 10
104.5655775050867
 20
52.84236421870935
 30
0.0
 11
104.5655775050867
 21
128.8423642187093
 31
0.0
  0
LINE
  5
65E
330
2
100
AcDbEntity
  8
0
100
AcDbLine
 10
46.06557750508676
 20
55.84236421870935
 30
0.0
 11
46.06557750508676
 21
125.8423642187093
 31
0.0
  0
LINE
  5
65F
330
2
100
AcDbEntity
  8
0
100
AcDbLine
 10
95.06557750508676
 20
50.84236421870935
 30
0.0
 11
95.06557750508676
 21
130.8423642187093
 31
0.0
  0
ARC
  5
660
330
2
100
AcDbEntity
  8
0
100
AcDbCircle
 10
51.06557750508676
 20
55.84236421870935
 30
0.0
 40
5.0
100
AcDbArc
 50
180.0
 51
270.0
  0
LINE
  5
661
330
2
100
AcDbEntity
  8
0
100
AcDbLine
 10
48.56557750508676
 20
66.84236421870934
 30
0.0
 11
95.06557750508676
 21
66.84236421870934
 31
0.0
  0
LINE
  5
662
330
2
100
AcDbEntity
  8
0
100
AcDbLine
 10
51.06557750508676
 20
50.84236421870935
 30
0.0
 11
95.06557750508676
 21
50.84236421870935
 31
0.0
  0
LINE
  5
663
330
2
100
AcDbEntity
  8
0
100
AcDbLine
 10
95.06557750508676
 20
60.59336421870934
 30
0.0
 11
104.5655775050867
 21
60.59336421870934
 31
0.0
  0
LINE
  5
664
330
2
100
AcDbEntity
  8
0
100
AcDbLine
 10
95.06557750508676
 20
52.84236421870935
 30
0.0
 11
104.5655775050867
 21
52.84236421870935
 31
0.0
  0
LINE
  5
665
330
2
100
AcDbEntity
  8
0
100
AcDbLine
 10
48.56557750508676
 20
116.8423642187093
 30
0.0
 11
95.06557750508676
 21
116.8423642187093
 31
0.0
  0
ARC
  5
666
330
2
100
AcDbEntity
  8
0
100
AcDbCircle
 10
51.06559750508677
 20
125.8423872187093
 30
0.0
 40
5.0
100
AcDbArc
 50
90.0
 51
180.0
  0
LINE
  5
667
330
2
100
AcDbEntity
  8
0
100
AcDbLine
 10
51.06557750508676
 20
130.8423642187093
 30
0.0
 11
95.06557750508676
 21
130.8423642187093
 31
0.0
  0
ARC
  5
668
330
2
100
AcDbEntity
  8
0
100
AcDbCircle
 10
95.06557750508676
 20
113.4673642187093
 30
0.0
 40
4.5
100
AcDbArc
 50
0.0
 51
90.0
  0
LINE
  5
669
330
2
100
AcDbEntity
  8
0
100
AcDbLine
 10
95.06557750508676
 20
121.0913652187093
 30
0.0
 11
104.5655775050867
 21
121.0913652187093
 31
0.0
  0
LINE
  5
66A
330
2
100
AcDbEntity
  8
0
100
AcDbLine
 10
99.56557750508677
 20
113.4673642187093
 30
0.0
 11
99.56557750508677
 21
110.2444642187093
 31
0.0
  0
LINE
  5
66B
330
2
100
AcDbEntity
  8
0
100
AcDbLine
 10
98.06557750508677
 20
113.4673642187093
 30
0.0
 11
98.06557750508677
 21
108.4305682187093
 31
0.0
  0
LINE
  5
66C
330
2
100
AcDbEntity
  8
0
100
AcDbLine
 10
96.56557750508676
 20
113.4673642187093
 30
0.0
 11
96.56557750508676
 21
109.2247652187093
 31
0.0
  0
LINE
  5
66D
330
2
100
AcDbEntity
  8
HOJO
100
AcDbLine
 10
98.06557750508677
 20
109.4652662187093
 30
0.0
 11
99.56557750508677
 21
110.2444642187093
 31
0.0
  0
LINE
  5
66E
330
2
100
AcDbEntity
  8
HOJO
100
AcDbLine
 10
96.56797650508678
 20
109.2292662187093
 30
0.0
 11
98.06557750508677
 21
108.4305682187093
 31
0.0
  0
ARC
  5
66F
330
2
100
AcDbEntity
  8
0
100
AcDbCircle
 10
95.06557750508676
 20
113.4673642187093
 30
0.0
 40
3.0
100
AcDbArc
 50
0.0
 51
90.0
  0
ARC
  5
670
330
2
100
AcDbEntity
  8
0
100
AcDbCircle
 10
95.06557750508676
 20
113.4673642187093
 30
0.0
 40
1.5
100
AcDbArc
 50
0.0
 51
90.0
  0
LINE
  5
673
330
2
100
AcDbEntity
  8
0
100
AcDbLine
 10
95.06557750508676
 20
128.8423642187093
 30
0.0
 11
104.5655775050867
 21
128.8423642187093
 31
0.0
  0
CIRCLE
  5
67C
330
2
100
AcDbEntity
  8
0
100
AcDbCircle
 10
219.5655845050868
 20
113.1423672187093
 30
0.0
 40
20.0
  0
LINE
  5
67D
330
2
100
AcDbEntity
  8
0
100
AcDbLine
 10
179.5655845050868
 20
114.5036342187093
 30
0.0
 11
179.5655845050868
 21
85.78082621870933
 31
0.0
  0
LINE
  5
67E
330
2
100
AcDbEntity
  8
CENTER
100
AcDbLine
 10
219.5655845050868
 20
161.1423672187093
 30
0.0
 11
219.5655845050868
 21
39.14236421870934
 31
0.0
  0
LINE
  5
67F
330
2
100
AcDbEntity
  8
0
100
AcDbLine
 10
177.0655845050868
 20
125.8423642187093
 30
0.0
 11
177.0655845050868
 21
74.44236521870934
 31
0.0
  0
ARC
  5
680
330
2
100
AcDbEntity
  8
0
100
AcDbCircle
 10
187.5655845050868
 20
57.14236421870935
 30
0.0
 40
8.0
100
AcDbArc
 50
187.9696039999998
 51
270.0
  0
ARC
  5
681
330
2
100
AcDbEntity
  8
0
100
AcDbCircle
 10
185.9017815050867
 20
69.02646421870935
 30
0.0
 40
4.0
100
AcDbArc
 50
187.9696959999997
 51
277.9697570000001
  0
CIRCLE
  5
682
330
2
100
AcDbEntity
  8
0
100
AcDbCircle
 10
187.5655845050868
 20
57.14236421870935
 30
0.0
 40
3.25
  0
LINE
  5
684
330
2
100
AcDbEntity
  8
0
100
AcDbLine
 10
179.6160765050867
 20
85.07444321870934
 30
0.0
 11
181.9404785050867
 21
68.47187321870933
 31
0.0
  0
LINE
  5
685
330
2
100
AcDbEntity
  8
0
100
AcDbLine
 10
179.6428705050867
 20
56.03316421870935
 30
0.0
 11
177.0655845050868
 21
74.44236521870934
 31
0.0
  0
ARC
  5
686
330
2
100
AcDbEntity
  8
0
100
AcDbCircle
 10
182.0655845050868
 20
60.84238321870934
 30
0.0
 40
5.0
100
AcDbArc
 50
135.7928009999995
 51
180.0
  0
ARC
  5
687
330
2
100
AcDbEntity
  8
0
100
AcDbCircle
 10
175.0655845050868
 20
54.84236421870935
 30
0.0
 40
2.0
100
AcDbArc
 50
270.0
 51
0.0
  0
LINE
  5
688
330
2
100
AcDbEntity
  8
0
100
AcDbLine
 10
177.0655845050868
 20
54.84236421870935
 30
0.0
 11
177.0655845050868
 21
60.84237421870934
 31
0.0
  0
LINE
  5
689
330
2
100
AcDbEntity
  8
0
100
AcDbLine
 10
187.5655845050868
 20
49.14236421870935
 30
0.0
 11
251.5655845050868
 21
49.14236421870935
 31
0.0
  0
LINE
  5
68A
330
2
100
AcDbEntity
  8
0
100
AcDbLine
 10
218.9429805050867
 20
83.53445721870935
 30
0.0
 11
217.4280725050867
 21
83.53445721870935
 31
0.0
  0
LINE
  5
68B
330
2
100
AcDbEntity
  8
0
100
AcDbLine
 10
216.3780845050867
 20
84.70486721870935
 30
0.0
 11
222.7530845050868
 21
84.70486721870935
 31
0.0
  0
LINE
  5
68C
330
2
100
AcDbEntity
  8
0
100
AcDbLine
 10
199.5655845050868
 20
53.14236421870934
 30
0.0
 11
239.5655845050868
 21
53.14236421870934
 31
0.0
  0
ARC
  5
68D
330
2
100
AcDbEntity
  8
0
100
AcDbCircle
 10
187.5655845050868
 20
57.14236421870935
 30
0.0
 40
8.0
100
AcDbArc
 50
0.0
 51
97.96981799999995
  0
ARC
  5
68F
330
2
100
AcDbEntity
  8
0
100
AcDbCircle
 10
199.5655845050868
 20
57.14236421870935
 30
0.0
 40
4.0
100
AcDbArc
 50
180.0
 51
270.0
  0
LINE
  5
690
330
2
100
AcDbEntity
  8
0
100
AcDbLine
 10
208.0453825050867
 20
75.14236421870936
 30
0.0
 11
211.3606745050867
 21
75.14236421870936
 31
0.0
  0
LINE
  5
691
330
2
100
AcDbEntity
  8
0
100
AcDbLine
 10
210.2769805050868
 20
76.26297321870936
 30
0.0
 11
208.6176785050868
 21
76.26297321870936
 31
0.0
  0
LINE
  5
692
330
2
100
AcDbEntity
  8
0
100
AcDbLine
 10
207.9729795050867
 20
84.70486721870935
 30
0.0
 11
212.2595855050867
 21
84.70486721870935
 31
0.0
  0
LINE
  5
693
330
2
100
AcDbEntity
  8
0
100
AcDbLine
 10
211.6780725050868
 20
83.43484821870935
 30
0.0
 11
208.6061735050867
 21
83.43484821870935
 31
0.0
  0
LINE
  5
694
330
2
100
AcDbEntity
  8
0
100
AcDbLine
 10
207.8863705050868
 20
82.54233821870935
 30
0.0
 11
207.8863705050868
 21
77.03328221870933
 31
0.0
  0
LINE
  5
695
330
2
100
AcDbEntity
  8
0
100
AcDbLine
 10
206.8155845050867
 20
83.22286521870934
 30
0.0
 11
206.8155845050867
 21
76.38322421870933
 31
0.0
  0
LINE
  5
696
330
2
100
AcDbEntity
  8
0
100
AcDbLine
 10
206.8155845050867
 20
76.38322421870933
 30
0.0
 11
208.0453825050867
 21
75.14236421870936
 31
0.0
  0
LINE
  5
697
330
2
100
AcDbEntity
  8
0
100
AcDbLine
 10
207.8863705050868
 20
77.03328221870933
 30
0.0
 11
208.6176785050868
 21
76.26297321870936
 31
0.0
  0
LINE
  5
698
330
2
100
AcDbEntity
  8
0
100
AcDbLine
 10
207.9729795050867
 20
84.70486721870935
 30
0.0
 11
206.8155845050867
 21
83.22286521870934
 31
0.0
  0
LINE
  5
699
330
2
100
AcDbEntity
  8
0
100
AcDbLine
 10
208.6061735050867
 20
83.43484821870935
 30
0.0
 11
207.8863705050868
 21
82.54233821870935
 31
0.0
  0
LINE
  5
69A
330
2
100
AcDbEntity
  8
0
100
AcDbLine
 10
210.6007715050867
 20
80.69559421870934
 30
0.0
 11
210.6007715050867
 21
79.64969521870933
 31
0.0
  0
LINE
  5
69B
330
2
100
AcDbEntity
  8
0
100
AcDbLine
 10
213.1905845050868
 20
80.69559421870934
 30
0.0
 11
213.1905845050868
 21
75.14236421870936
 31
0.0
  0
LINE
  5
69C
330
2
100
AcDbEntity
  8
0
100
AcDbLine
 10
212.2691825050867
 20
75.90462421870933
 30
0.0
 11
211.3606745050867
 21
75.14236421870936
 31
0.0
  0
LINE
  5
69D
330
2
100
AcDbEntity
  8
0
100
AcDbLine
 10
212.2691825050867
 20
75.14236421870936
 30
0.0
 11
213.1905845050868
 21
75.14236421870936
 31
0.0
  0
LINE
  5
69E
330
2
100
AcDbEntity
  8
0
100
AcDbLine
 10
212.2691825050867
 20
79.64969521870933
 30
0.0
 11
212.2691825050867
 21
78.25515321870935
 31
0.0
  0
LINE
  5
69F
330
2
100
AcDbEntity
  8
0
100
AcDbLine
 10
212.2691825050867
 20
75.90462421870933
 30
0.0
 11
212.2691825050867
 21
75.14236421870936
 31
0.0
  0
ARC
  5
6A0
330
2
100
AcDbEntity
  8
0
100
AcDbCircle
 10
210.2769805050868
 20
78.25515321870935
 30
0.0
 40
1.992186999999999
100
AcDbArc
 50
270.0002139999998
 51
0.0001089999998967
  0
LINE
  5
6A1
330
2
100
AcDbEntity
  8
0
100
AcDbLine
 10
212.2691825050867
 20
78.65359421870934
 30
0.0
 11
212.2691825050867
 21
79.45047321870936
 31
0.0
  0
LINE
  5
6A2
330
2
100
AcDbEntity
  8
0
100
AcDbLine
 10
212.2691825050867
 20
79.64969521870933
 30
0.0
 11
210.6007715050867
 21
79.64969521870933
 31
0.0
  0
LINE
  5
6A3
330
2
100
AcDbEntity
  8
0
100
AcDbLine
 10
210.6007715050867
 20
80.69559421870934
 30
0.0
 11
213.1905845050868
 21
80.69559421870934
 31
0.0
  0
LINE
  5
6A4
330
2
100
AcDbEntity
  8
0
100
AcDbLine
 10
212.2691825050867
 20
82.86339921870933
 30
0.0
 11
212.2691825050867
 21
82.71268021870936
 31
0.0
  0
LINE
  5
6A5
330
2
100
AcDbEntity
  8
0
100
AcDbLine
 10
213.1905845050868
 20
83.67172521870935
 30
0.0
 11
213.1905845050868
 21
82.71268021870936
 31
0.0
  0
LINE
  5
6A6
330
2
100
AcDbEntity
  8
0
100
AcDbLine
 10
212.2691825050867
 20
82.71268021870936
 30
0.0
 11
213.1905845050868
 21
82.71268021870936
 31
0.0
  0
LINE
  5
6A7
330
2
100
AcDbEntity
  8
0
100
AcDbLine
 10
212.2595855050867
 20
84.70486721870935
 30
0.0
 11
213.1905845050868
 21
83.67172521870935
 31
0.0
  0
LINE
  5
6A8
330
2
100
AcDbEntity
  8
0
100
AcDbLine
 10
212.2691825050867
 20
82.86339921870933
 30
0.0
 11
211.6659725050867
 21
83.43484821870935
 31
0.0
  0
LINE
  5
6A9
330
2
100
AcDbEntity
  8
0
100
AcDbLine
 10
217.4280725050867
 20
83.53445721870935
 30
0.0
 11
217.0856805050867
 21
82.71268021870936
 31
0.0
  0
LINE
  5
6AA
330
2
100
AcDbEntity
  8
0
100
AcDbLine
 10
216.3780845050867
 20
82.71268021870936
 30
0.0
 11
217.0856805050867
 21
82.71268021870936
 31
0.0
  0
LINE
  5
6AB
330
2
100
AcDbEntity
  8
0
100
AcDbLine
 10
216.3780845050867
 20
82.71268021870936
 30
0.0
 11
216.3780845050867
 21
84.70486721870935
 31
0.0
  0
ARC
  5
6AD
330
2
100
AcDbEntity
  8
0
100
AcDbCircle
 10
239.5655845050868
 20
57.14236421870935
 30
0.0
 40
4.0
100
AcDbArc
 50
270.0
 51
0.0
  0
LINE
  5
6AE
330
2
100
AcDbEntity
  8
0
100
AcDbLine
 10
227.9451775050868
 20
75.14236421870936
 30
0.0
 11
225.9405845050868
 21
75.14236421870936
 31
0.0
  0
LINE
  5
6AF
330
2
100
AcDbEntity
  8
0
100
AcDbLine
 10
225.9405845050868
 20
84.70486721870935
 30
0.0
 11
229.7630795050868
 21
84.70486721870935
 31
0.0
  0
LINE
  5
6B0
330
2
100
AcDbEntity
  8
0
100
AcDbLine
 10
226.4136835050867
 20
83.53445721870935
 30
0.0
 11
226.4136835050867
 21
76.13846521870934
 31
0.0
  0
LINE
  5
6B1
330
2
100
AcDbEntity
  8
0
100
AcDbLine
 10
220.1383845050867
 20
83.53445721870935
 30
0.0
 11
220.1383845050867
 21
76.18826621870934
 31
0.0
  0
LINE
  5
6B2
330
2
100
AcDbEntity
  8
0
100
AcDbLine
 10
218.9429805050867
 20
83.53445721870935
 30
0.0
 11
218.9429805050867
 21
76.18826621870934
 31
0.0
  0
LINE
  5
6B3
330
2
100
AcDbEntity
  8
0
100
AcDbLine
 10
218.4698815050868
 20
76.18826621870934
 30
0.0
 11
218.9429805050867
 21
76.18826621870934
 31
0.0
  0
LINE
  5
6B4
330
2
100
AcDbEntity
  8
0
100
AcDbLine
 10
218.4698815050868
 20
75.14236421870936
 30
0.0
 11
220.5367765050867
 21
75.14236421870936
 31
0.0
  0
LINE
  5
6B5
330
2
100
AcDbEntity
  8
0
100
AcDbLine
 10
220.5367765050867
 20
76.18826621870934
 30
0.0
 11
220.5367765050867
 21
75.14236421870936
 31
0.0
  0
LINE
  5
6B6
330
2
100
AcDbEntity
  8
0
100
AcDbLine
 10
218.4698815050868
 20
76.18826621870934
 30
0.0
 11
218.4698815050868
 21
75.14236421870936
 31
0.0
  0
LINE
  5
6B7
330
2
100
AcDbEntity
  8
0
100
AcDbLine
 10
220.1383845050867
 20
76.18826621870934
 30
0.0
 11
220.5367765050867
 21
76.18826621870934
 31
0.0
  0
LINE
  5
6B8
330
2
100
AcDbEntity
  8
0
100
AcDbLine
 10
225.9405845050868
 20
76.13846521870934
 30
0.0
 11
225.9405845050868
 21
75.14236421870936
 31
0.0
  0
LINE
  5
6B9
330
2
100
AcDbEntity
  8
0
100
AcDbLine
 10
225.9405845050868
 20
76.13846521870934
 30
0.0
 11
226.4136835050867
 21
76.13846521870934
 31
0.0
  0
LINE
  5
6BA
330
2
100
AcDbEntity
  8
0
100
AcDbLine
 10
222.0880765050867
 20
82.71268021870936
 30
0.0
 11
222.7530845050868
 21
82.71268021870936
 31
0.0
  0
LINE
  5
6BB
330
2
100
AcDbEntity
  8
0
100
AcDbLine
 10
220.1383845050867
 20
83.53445721870935
 30
0.0
 11
221.7993795050868
 21
83.53445721870935
 31
0.0
  0
LINE
  5
6BC
330
2
100
AcDbEntity
  8
0
100
AcDbLine
 10
221.7993795050868
 20
83.53445721870935
 30
0.0
 11
222.0880765050867
 21
82.71268021870936
 31
0.0
  0
LINE
  5
6BD
330
2
100
AcDbEntity
  8
0
100
AcDbLine
 10
225.9405845050868
 20
83.53445721870935
 30
0.0
 11
226.4136835050867
 21
83.53445721870935
 31
0.0
  0
LINE
  5
6BE
330
2
100
AcDbEntity
  8
0
100
AcDbLine
 10
225.9405845050868
 20
84.70486721870935
 30
0.0
 11
225.9405845050868
 21
83.53445721870935
 31
0.0
  0
LINE
  5
6BF
330
2
100
AcDbEntity
  8
0
100
AcDbLine
 10
222.7530845050868
 20
82.71268021870936
 30
0.0
 11
222.7530845050868
 21
84.70486721870935
 31
0.0
  0
ARC
  5
6C0
330
2
100
AcDbEntity
  8
0
100
AcDbCircle
 10
229.7630795050868
 20
82.15237721870934
 30
0.0
 40
2.55249
100
AcDbArc
 50
286.0181269999995
 51
90.00350999999964
  0
LINE
  5
6C1
330
2
100
AcDbEntity
  8
0
100
AcDbLine
 10
229.5498835050867
 20
79.61233421870935
 30
0.0
 11
231.0448785050867
 21
76.13846521870934
 31
0.0
  0
LINE
  5
6C2
330
2
100
AcDbEntity
  8
0
100
AcDbLine
 10
230.4673795050868
 20
79.69898521870934
 30
0.0
 11
232.0472745050867
 21
76.13846521870934
 31
0.0
  0
LINE
  5
6C3
330
2
100
AcDbEntity
  8
0
100
AcDbLine
 10
227.5093715050867
 20
79.61233421870935
 30
0.0
 11
229.5498835050867
 21
79.61233421870935
 31
0.0
  0
LINE
  5
6C4
330
2
100
AcDbEntity
  8
0
100
AcDbLine
 10
227.9451775050868
 20
76.13846521870934
 30
0.0
 11
227.9451775050868
 21
75.14236421870936
 31
0.0
  0
LINE
  5
6C5
330
2
100
AcDbEntity
  8
0
100
AcDbLine
 10
227.5093715050867
 20
76.13846521870934
 30
0.0
 11
227.9451775050868
 21
76.13846521870934
 31
0.0
  0
LINE
  5
6C6
330
2
100
AcDbEntity
  8
0
100
AcDbLine
 10
227.5093715050867
 20
79.61233421870935
 30
0.0
 11
227.5093715050867
 21
76.13846521870934
 31
0.0
  0
LINE
  5
6C7
330
2
100
AcDbEntity
  8
0
100
AcDbLine
 10
230.8463775050867
 20
76.13846521870934
 30
0.0
 11
230.8463775050867
 21
75.14236421870936
 31
0.0
  0
LINE
  5
6C8
330
2
100
AcDbEntity
  8
0
100
AcDbLine
 10
232.3155845050868
 20
76.13846521870934
 30
0.0
 11
232.3155845050868
 21
75.14236421870936
 31
0.0
  0
LINE
  5
6C9
330
2
100
AcDbEntity
  8
0
100
AcDbLine
 10
230.8463775050867
 20
75.14236421870936
 30
0.0
 11
232.3155845050868
 21
75.14236421870936
 31
0.0
  0
LINE
  5
6CA
330
2
100
AcDbEntity
  8
0
100
AcDbLine
 10
232.0472745050867
 20
76.13846521870934
 30
0.0
 11
232.3155845050868
 21
76.13846521870934
 31
0.0
  0
LINE
  5
6CB
330
2
100
AcDbEntity
  8
0
100
AcDbLine
 10
230.8463775050867
 20
76.13846521870934
 30
0.0
 11
231.0448785050867
 21
76.13846521870934
 31
0.0
  0
ARC
  5
6CC
330
2
100
AcDbEntity
  8
0
100
AcDbCircle
 10
229.7630795050868
 20
82.15237721870934
 30
0.0
 40
1.557193
100
AcDbArc
 50
277.4147260000004
 51
62.41184999999949
  0
LINE
  5
6CD
330
2
100
AcDbEntity
  8
0
100
AcDbLine
 10
227.5093715050867
 20
80.60820321870934
 30
0.0
 11
229.9640835050868
 21
80.60820321870934
 31
0.0
  0
LINE
  5
6CE
330
2
100
AcDbEntity
  8
0
100
AcDbLine
 10
227.5093715050867
 20
83.53445721870935
 30
0.0
 11
230.4842705050867
 21
83.53251221870934
 31
0.0
  0
LINE
  5
6CF
330
2
100
AcDbEntity
  8
0
100
AcDbLine
 10
227.5093715050867
 20
83.53445721870935
 30
0.0
 11
227.5093715050867
 21
80.60820321870934
 31
0.0
  0
ARC
  5
6D0
330
2
100
AcDbEntity
  8
0
100
AcDbCircle
 10
187.5655845050868
 20
143.1423672187093
 30
0.0
 40
8.0
100
AcDbArc
 50
90.0
 51
172.030502
  0
ARC
  5
6D1
330
2
100
AcDbEntity
  8
0
100
AcDbCircle
 10
185.9017815050867
 20
131.2582652187093
 30
0.0
 40
4.0
100
AcDbArc
 50
82.03024299999984
 51
172.0303040000002
  0
CIRCLE
  5
6D2
330
2
100
AcDbEntity
  8
0
100
AcDbCircle
 10
187.5655845050868
 20
143.1423672187093
 30
0.0
 40
3.25
  0
LINE
  5
6D4
330
2
100
AcDbEntity
  8
0
100
AcDbLine
 10
181.9404785050867
 20
131.8128542187093
 30
0.0
 11
179.4822715050867
 21
114.2540462187093
 31
0.0
  0
LINE
  5
6D5
330
2
100
AcDbEntity
  8
0
100
AcDbLine
 10
179.6428705050867
 20
144.2515132187093
 30
0.0
 11
177.0655845050868
 21
125.8423642187093
 31
0.0
  0
ARC
  5
6D6
330
2
100
AcDbEntity
  8
0
100
AcDbCircle
 10
199.5655845050868
 20
143.1423672187093
 30
0.0
 40
4.0
100
AcDbArc
 50
90.0
 51
180.0
  0
ARC
  5
6D7
330
2
100
AcDbEntity
  8
0
100
AcDbCircle
 10
239.5655845050868
 20
143.1423672187093
 30
0.0
 40
4.0
100
AcDbArc
 50
0.0
 51
90.0
  0
LINE
  5
6D9
330
2
100
AcDbEntity
  8
CENTER
100
AcDbLine
 10
251.5655845050868
 20
137.2986632187093
 30
0.0
 11
251.5655845050868
 21
148.9860712187093
 31
0.0
  0
ARC
  5
6DA
330
2
100
AcDbEntity
  8
0
100
AcDbCircle
 10
219.5655845050868
 20
113.1423672187093
 30
0.0
 40
7.5
100
AcDbArc
 50
19.47120099999961
 51
340.5288089999999
  0
LINE
  5
6DB
330
2
100
AcDbEntity
  8
CENTER
100
AcDbLine
 10
189.5655845050868
 20
113.1423672187093
 30
0.0
 11
249.5655845050868
 21
113.1423672187093
 31
0.0
  0
ARC
  5
6DC
330
2
100
AcDbEntity
  8
0
100
AcDbCircle
 10
187.5655845050868
 20
143.1423672187093
 30
0.0
 40
8.0
100
AcDbArc
 50
262.0304029999998
 51
0.0
  0
LINE
  5
6DD
330
2
100
AcDbEntity
  8
0
100
AcDbLine
 10
224.0655845050868
 20
110.6423672187093
 30
0.0
 11
229.0655845050868
 21
110.6423672187093
 31
0.0
  0
LINE
  5
6DE
330
2
100
AcDbEntity
  8
0
100
AcDbLine
 10
224.0655845050868
 20
115.6423672187093
 30
0.0
 11
229.0655845050868
 21
115.6423672187093
 31
0.0
  0
LINE
  5
6DF
330
2
100
AcDbEntity
  8
0
100
AcDbLine
 10
224.0655845050868
 20
110.6423672187093
 30
0.0
 11
224.0655845050868
 21
115.6423672187093
 31
0.0
  0
LINE
  5
6E0
330
2
100
AcDbEntity
  8
0
100
AcDbLine
 10
229.0655845050868
 20
115.6423672187093
 30
0.0
 11
229.0655845050868
 21
110.6423672187093
 31
0.0
  0
LINE
  5
6E1
330
2
100
AcDbEntity
  8
0
100
AcDbLine
 10
199.5655845050868
 20
147.1423672187093
 30
0.0
 11
239.5655845050868
 21
147.1423672187093
 31
0.0
  0
LINE
  5
6E2
330
2
100
AcDbEntity
  8
0
100
AcDbLine
 10
187.5655845050868
 20
151.1423672187093
 30
0.0
 11
251.5655845050868
 21
151.1423672187093
 31
0.0
  0
LINE
  5
6E3
330
2
100
AcDbEntity
  8
0
100
AcDbLine
 10
145.5653795050868
 20
289.0698652187093
 30
0.0
 11
176.6204245050867
 21
289.0698652187093
 31
0.0
  0
LINE
  5
6E4
330
2
100
AcDbEntity
  8
0
100
AcDbLine
 10
175.5519735050867
 20
274.0698652187093
 30
0.0
 11
104.5655775050867
 21
274.0698652187093
 31
0.0
  0
LINE
  5
6E5
330
2
100
AcDbEntity
  8
0
100
AcDbLine
 10
145.5655775050868
 20
335.0698652187093
 30
0.0
 11
180.4852625050867
 21
335.0698652187093
 31
0.0
  0
LINE
  5
6E6
330
2
100
AcDbEntity
  8
0
100
AcDbLine
 10
174.9339625050868
 20
350.0698652187093
 30
0.0
 11
104.5655775050867
 21
350.0698652187093
 31
0.0
  0
LINE
  5
6E7
330
2
100
AcDbEntity
  8
0
100
AcDbLine
 10
46.06557750508676
 20
277.0698652187093
 30
0.0
 11
46.06557750508676
 21
347.0698652187093
 31
0.0
  0
LINE
  5
6E8
330
2
100
AcDbEntity
  8
0
100
AcDbLine
 10
95.06557750508676
 20
272.0698652187093
 30
0.0
 11
95.06557750508676
 21
304.5698652187093
 31
0.0
  0
LINE
  5
6E9
330
2
100
AcDbEntity
  8
0
100
AcDbLine
 10
104.5655775050867
 20
337.0698652187092
 30
0.0
 11
104.5655775050867
 21
350.0698652187093
 31
0.0
  0
LINE
  5
6EA
330
2
100
AcDbEntity
  8
0
100
AcDbLine
 10
48.56557750508676
 20
286.0698652187092
 30
0.0
 11
95.06557750508676
 21
286.0698652187092
 31
0.0
  0
ARC
  5
6EB
330
2
100
AcDbEntity
  8
0
100
AcDbCircle
 10
51.06557750508676
 20
277.0698652187093
 30
0.0
 40
5.0
100
AcDbArc
 50
180.0
 51
270.0
  0
LINE
  5
6EC
330
2
100
AcDbEntity
  8
0
100
AcDbLine
 10
51.06557750508676
 20
272.0698652187093
 30
0.0
 11
95.06557750508676
 21
272.0698652187093
 31
0.0
  0
LINE
  5
6ED
330
2
100
AcDbEntity
  8
0
100
AcDbLine
 10
104.5655775050867
 20
274.0698652187093
 30
0.0
 11
104.5655775050867
 21
287.0698652187093
 31
0.0
  0
ARC
  5
6EE
330
2
100
AcDbEntity
  8
0
100
AcDbCircle
 10
95.06557750508676
 20
280.2939252187093
 30
0.0
 40
4.5
100
AcDbArc
 50
0.0
 51
90.0
  0
LINE
  5
6EF
330
2
100
AcDbEntity
  8
0
100
AcDbLine
 10
95.06557750508676
 20
289.0698652187093
 30
0.0
 11
95.56547050508687
 21
289.0698652187093
 31
0.0
  0
LINE
  5
6F0
330
2
100
AcDbEntity
  8
0
100
AcDbLine
 10
95.06557750508676
 20
274.0698652187093
 30
0.0
 11
104.5655775050867
 21
274.0698652187093
 31
0.0
  0
LINE
  5
6F1
330
2
100
AcDbEntity
  8
0
100
AcDbLine
 10
99.56557750508677
 20
280.2939252187093
 30
0.0
 11
99.56557750508677
 21
277.0710252187093
 31
0.0
  0
LINE
  5
6F2
330
2
100
AcDbEntity
  8
0
100
AcDbLine
 10
98.06557750508677
 20
280.2939252187093
 30
0.0
 11
98.06557750508677
 21
275.2571212187093
 31
0.0
  0
LINE
  5
6F3
330
2
100
AcDbEntity
  8
0
100
AcDbLine
 10
96.56557750508676
 20
280.2939252187093
 30
0.0
 11
96.56557750508676
 21
276.0513262187093
 31
0.0
  0
LINE
  5
6F4
330
2
100
AcDbEntity
  8
HOJO
100
AcDbLine
 10
98.06557750508677
 20
276.2918202187093
 30
0.0
 11
99.56557750508677
 21
277.0710252187093
 31
0.0
  0
LINE
  5
6F5
330
2
100
AcDbEntity
  8
HOJO
100
AcDbLine
 10
96.56797650508678
 20
276.0558272187093
 30
0.0
 11
98.06557750508677
 21
275.2571212187093
 31
0.0
  0
ARC
  5
6F6
330
2
100
AcDbEntity
  8
0
100
AcDbCircle
 10
95.06557750508676
 20
280.2939252187093
 30
0.0
 40
3.0
100
AcDbArc
 50
0.0
 51
90.0
  0
ARC
  5
6F7
330
2
100
AcDbEntity
  8
0
100
AcDbCircle
 10
95.06557750508676
 20
280.2939252187093
 30
0.0
 40
1.5
100
AcDbArc
 50
0.0
 51
90.0
  0
LINE
  5
706
330
2
100
AcDbEntity
  8
0
100
AcDbLine
 10
48.56557750508676
 20
336.0698652187092
 30
0.0
 11
95.06557750508676
 21
336.0698652187092
 31
0.0
  0
ARC
  5
707
330
2
100
AcDbEntity
  8
0
100
AcDbCircle
 10
51.06559750508677
 20
347.0698962187093
 30
0.0
 40
5.0
100
AcDbArc
 50
90.0
 51
180.0
  0
LINE
  5
708
330
2
100
AcDbEntity
  8
0
100
AcDbLine
 10
51.06557750508676
 20
352.0698652187093
 30
0.0
 11
95.06557750508676
 21
352.0698652187093
 31
0.0
  0
LINE
  5
709
330
2
100
AcDbEntity
  8
0
100
AcDbLine
 10
95.06557750508676
 20
335.0698652187093
 30
0.0
 11
95.56547050508687
 21
335.0698652187093
 31
0.0
  0
LINE
  5
70A
330
2
100
AcDbEntity
  8
0
100
AcDbLine
 10
95.06557750508676
 20
350.0698652187093
 30
0.0
 11
104.5655775050867
 21
350.0698652187093
 31
0.0
  0
LINE
  5
70B
330
2
100
AcDbEntity
  8
0
100
AcDbLine
 10
181.3401815050867
 20
282.2511092187093
 30
0.0
 11
181.3401815050867
 21
333.0701402187092
 31
0.0
  0
LINE
  5
70C
330
2
100
AcDbEntity
  8
0
100
AcDbLine
 10
204.5655845050867
 20
282.0698652187093
 30
0.0
 11
204.5655845050867
 21
341.1047772187093
 31
0.0
  0
LINE
  5
70D
330
2
100
AcDbEntity
  8
0
100
AcDbLine
 10
234.5655845050868
 20
282.0698652187093
 30
0.0
 11
234.5655845050868
 21
341.1047772187093
 31
0.0
  0
LINE
  5
70E
330
2
100
AcDbEntity
  8
CENTER
100
AcDbLine
 10
219.5655845050868
 20
386.0698652187093
 30
0.0
 11
219.5655845050868
 21
238.0698652187092
 31
0.0
  0
LINE
  5
70F
330
2
100
AcDbEntity
  8
HIDS
  6
SEKKEI_H
100
AcDbLine
 10
184.3155845050868
 20
281.0698652187093
 30
0.0
 11
184.3155845050868
 21
272.0698652187093
 31
0.0
  0
ARC
  5
710
330
2
100
AcDbEntity
  8
0
100
AcDbCircle
 10
175.5519735050867
 20
272.5698652187093
 30
0.0
 40
1.5
100
AcDbArc
 50
1.49999899999979
 51
90.0
  0
LINE
  5
711
330
2
100
AcDbEntity
  8
0
100
AcDbLine
 10
179.6428705050867
 20
272.0698652187093
 30
0.0
 11
179.6428705050867
 21
279.7595472187093
 31
0.0
  0
LINE
  5
712
330
2
100
AcDbEntity
  8
0
100
AcDbLine
 10
176.0181455050867
 20
312.0698652187093
 30
0.0
 11
177.0655845050868
 21
272.0698652187093
 31
0.0
  0
ARC
  5
713
330
2
100
AcDbEntity
  8
0
100
AcDbCircle
 10
177.8564325050867
 20
280.0698652187093
 30
0.0
 40
1.0
100
AcDbArc
 50
90.0
 51
181.5000000000002
  0
LINE
  5
714
330
2
100
AcDbEntity
  8
HIDS
  6
SEKKEI_H
100
AcDbLine
 10
190.8155845050868
 20
281.0698652187093
 30
0.0
 11
190.8155845050868
 21
272.0698652187093
 31
0.0
  0
LINE
  5
715
330
2
100
AcDbEntity
  8
CENTER
100
AcDbLine
 10
187.5655845050866
 20
267.0698652187092
 30
0.0
 11
187.5655845050868
 21
286.0698652187092
 31
0.0
  0
LINE
  5
716
330
2
100
AcDbEntity
  8
HIDS
  6
SEKKEI_H
100
AcDbLine
 10
248.3155845050867
 20
281.0698652187093
 30
0.0
 11
248.3155845050867
 21
272.0698652187093
 31
0.0
  0
LINE
  5
717
330
2
100
AcDbEntity
  8
CENTER
100
AcDbLine
 10
251.5655845050868
 20
267.0698652187093
 30
0.0
 11
251.5655845050868
 21
286.0698652187092
 31
0.0
  0
LINE
  5
718
330
2
100
AcDbEntity
  8
0
100
AcDbLine
 10
212.0655845050868
 20
248.0698652187093
 30
0.0
 11
229.0655845050868
 21
248.0698652187093
 31
0.0
  0
LINE
  5
719
330
2
100
AcDbEntity
  8
0
100
AcDbLine
 10
212.0655845050868
 20
248.0698652187093
 30
0.0
 11
212.0655845050868
 21
272.0698652187093
 31
0.0
  0
LINE
  5
71A
330
2
100
AcDbEntity
  8
0
100
AcDbLine
 10
226.6365835050867
 20
272.0698652187093
 30
0.0
 11
226.6365835050867
 21
248.0698652187093
 31
0.0
  0
LINE
  5
71B
330
2
100
AcDbEntity
  8
0
100
AcDbLine
 10
229.0655845050868
 20
272.0698652187093
 30
0.0
 11
229.0655845050868
 21
248.0698652187093
 31
0.0
  0
LINE
  5
71C
330
2
100
AcDbEntity
  8
0
100
AcDbLine
 10
204.5655845050867
 20
282.3898572187093
 30
0.0
 11
234.5655845050868
 21
282.3898572187093
 31
0.0
  0
ARC
  5
71D
330
2
100
AcDbEntity
  8
0
100
AcDbCircle
 10
203.5655845050868
 20
282.0698652187093
 30
0.0
 40
1.0
100
AcDbArc
 50
270.0
 51
0.0
  0
ARC
  5
71E
330
2
100
AcDbEntity
  8
0
100
AcDbCircle
 10
235.5655845050868
 20
282.0698652187093
 30
0.0
 40
1.0
100
AcDbArc
 50
180.0
 51
270.0
  0
LINE
  5
71F
330
2
100
AcDbEntity
  8
0
100
AcDbLine
 10
176.9332755050867
 20
348.1222032187093
 30
0.0
 11
177.0145745050867
 21
345.0174972187093
 31
0.0
  0
LINE
  5
720
330
2
100
AcDbEntity
  8
0
100
AcDbLine
 10
176.8561575050868
 20
335.0726122187093
 30
0.0
 11
177.0145745050867
 21
341.1222032187093
 31
0.0
  0
ARC
  5
721
330
2
100
AcDbEntity
  8
0
100
AcDbCircle
 10
179.0138885050868
 20
341.0698652187093
 30
0.0
 40
2.0
100
AcDbArc
 50
90.0
 51
178.4999999999997
  0
ARC
  5
722
330
2
100
AcDbEntity
  8
0
100
AcDbCircle
 10
179.0138885050868
 20
345.0698652187093
 30
0.0
 40
2.0
100
AcDbArc
 50
181.5000000000002
 51
270.0
  0
ARC
  5
723
330
2
100
AcDbEntity
  8
0
100
AcDbCircle
 10
174.9339625050868
 20
348.0698652187093
 30
0.0
 40
2.0
100
AcDbArc
 50
1.500000000000274
 51
90.0
  0
LINE
  5
724
330
2
100
AcDbEntity
  8
0
100
AcDbLine
 10
226.6365835050867
 20
352.0698652187093
 30
0.0
 11
226.6365835050867
 21
376.0698652187093
 31
0.0
  0
LINE
  5
725
330
2
100
AcDbEntity
  8
0
100
AcDbLine
 10
229.0655845050868
 20
352.0698652187093
 30
0.0
 11
229.0655845050868
 21
376.0698652187093
 31
0.0
  0
LINE
  5
726
330
2
100
AcDbEntity
  8
0
100
AcDbLine
 10
212.0655845050868
 20
376.0698652187093
 30
0.0
 11
212.0655845050868
 21
349.0698652187093
 31
0.0
  0
LINE
  5
727
330
2
100
AcDbEntity
  8
0
100
AcDbLine
 10
211.0655845050867
 20
349.0698652187093
 30
0.0
 11
228.0655845050868
 21
349.0698652187093
 31
0.0
  0
LINE
  5
728
330
2
100
AcDbEntity
  8
0
100
AcDbLine
 10
238.5655845050868
 20
347.0698652187093
 30
0.0
 11
200.5655845050867
 21
347.0698652187093
 31
0.0
  0
ARC
  5
729
330
2
100
AcDbEntity
  8
0
100
AcDbCircle
 10
200.5655845050867
 20
346.0698652187093
 30
0.0
 40
1.0
100
AcDbArc
 50
90.0
 51
180.0
  0
LINE
  5
72A
330
2
100
AcDbEntity
  8
0
100
AcDbLine
 10
199.5655845050868
 20
346.0698652187093
 30
0.0
 11
199.5655845050868
 21
343.0698652187093
 31
0.0
  0
LINE
  5
72B
330
2
100
AcDbEntity
  8
0
100
AcDbLine
 10
211.0655845050867
 20
349.0698652187093
 30
0.0
 11
211.0655845050867
 21
347.0698652187093
 31
0.0
  0
ARC
  5
72C
330
2
100
AcDbEntity
  8
0
100
AcDbCircle
 10
238.5655845050868
 20
346.0698652187093
 30
0.0
 40
1.0
100
AcDbArc
 50
0.0
 51
90.0
  0
LINE
  5
72D
330
2
100
AcDbEntity
  8
0
100
AcDbLine
 10
239.5655845050868
 20
346.0698652187093
 30
0.0
 11
239.5655845050868
 21
343.0698652187093
 31
0.0
  0
LINE
  5
72E
330
2
100
AcDbEntity
  8
0
100
AcDbLine
 10
227.0655845050868
 20
352.0698652187093
 30
0.0
 11
227.0655845050868
 21
349.0698652187093
 31
0.0
  0
LINE
  5
72F
330
2
100
AcDbEntity
  8
0
100
AcDbLine
 10
226.6365835050867
 20
352.0698652187093
 30
0.0
 11
229.0655845050868
 21
352.0698652187093
 31
0.0
  0
LINE
  5
730
330
2
100
AcDbEntity
  8
0
100
AcDbLine
 10
228.0655845050868
 20
349.0698652187093
 30
0.0
 11
228.0655845050868
 21
347.0698652187093
 31
0.0
  0
LINE
  5
731
330
2
100
AcDbEntity
  8
0
100
AcDbLine
 10
212.0655845050868
 20
376.0698652187093
 30
0.0
 11
229.0655845050868
 21
376.0698652187093
 31
0.0
  0
LINE
  5
732
330
2
100
AcDbEntity
  8
0
100
AcDbLine
 10
434.059228390204
 20
50.84236421870935
 30
0.0
 11
389.1302123902041
 21
50.84236421870935
 31
0.0
  0
LINE
  5
733
330
2
100
AcDbEntity
  8
CENTER
100
AcDbLine
 10
361.0592283902041
 20
90.84236421870935
 30
0.0
 11
461.059228390204
 21
90.84236421870935
 31
0.0
  0
LINE
  5
734
330
2
100
AcDbEntity
  8
0
100
AcDbLine
 10
390.059228390204
 20
52.84236421870935
 30
0.0
 11
432.059228390204
 21
52.84236421870935
 31
0.0
  0
LINE
  5
735
330
2
100
AcDbEntity
  8
0
100
AcDbLine
 10
383.059228390204
 20
74.44236521870934
 30
0.0
 11
440.621728390204
 21
74.44236521870934
 31
0.0
  0
LINE
  5
736
330
2
100
AcDbEntity
  8
0
100
AcDbLine
 10
383.560235390204
 20
125.8423642187093
 30
0.0
 11
440.090509390204
 21
125.8423642187093
 31
0.0
  0
LINE
  5
737
330
2
100
AcDbEntity
  8
0
100
AcDbLine
 10
440.0941103902041
 20
55.09059421870934
 30
0.0
 11
382.024316390204
 21
54.07678421870935
 31
0.0
  0
LINE
  5
738
330
2
100
AcDbEntity
  8
0
100
AcDbLine
 10
440.0941103902041
 20
145.1766612187093
 30
0.0
 11
382.024316390204
 21
146.1900432187093
 31
0.0
  0
LINE
  5
739
330
2
100
AcDbEntity
  8
CENTER
100
AcDbLine
 10
337.059228390204
 20
113.1423672187093
 30
0.0
 11
485.0592283902041
 21
113.1423672187093
 31
0.0
  0
LINE
  5
73A
330
2
100
AcDbEntity
  8
0
100
AcDbLine
 10
380.059228390204
 20
150.6042432187093
 30
0.0
 11
380.059228390204
 21
89.47968621870932
 31
0.0
  0
LINE
  5
73C
330
2
100
AcDbEntity
  8
0
100
AcDbLine
 10
371.059228390204
 20
49.14236421870935
 30
0.0
 11
371.059228390204
 21
105.6423642187093
 31
0.0
  0
LINE
  5
73D
330
2
100
AcDbEntity
  8
0
100
AcDbLine
 10
376.059228390204
 20
94.14236421870933
 30
0.0
 11
376.059228390204
 21
132.1423672187093
 31
0.0
  0
LINE
  5
73E
330
2
100
AcDbEntity
  8
0
100
AcDbLine
 10
262.0655845050867
 20
125.8423642187093
 30
0.0
 11
262.0655845050867
 21
74.44237421870934
 31
0.0
  0
LINE
  5
73F
330
2
100
AcDbEntity
  8
0
100
AcDbLine
 10
259.5655845050867
 20
114.5037642187093
 30
0.0
 11
259.5655845050867
 21
85.78122621870935
 31
0.0
  0
LINE
  5
740
330
2
100
AcDbEntity
  8
0
100
AcDbLine
 10
259.5679805050867
 20
85.45209821870935
 30
0.0
 11
257.1906765050868
 21
68.47186421870934
 31
0.0
  0
LINE
  5
741
330
2
100
AcDbEntity
  8
0
100
AcDbLine
 10
259.4882835050867
 20
56.03324421870934
 30
0.0
 11
262.0655845050867
 21
74.44237421870934
 31
0.0
  0
ARC
  5
742
330
2
100
AcDbEntity
  8
0
100
AcDbCircle
 10
253.2293725050867
 20
69.02646421870935
 30
0.0
 40
4.0
100
AcDbArc
 50
262.0302429999998
 51
352.0302989999998
  0
ARC
  5
743
330
2
100
AcDbEntity
  8
0
100
AcDbCircle
 10
378.524530390204
 20
51.14236421870934
 30
0.0
 40
2.0
100
AcDbArc
 50
270.0
 51
345.0000919999997
  0
ARC
  5
744
330
2
100
AcDbEntity
  8
0
100
AcDbCircle
 10
378.559228390204
 20
50.64236421870934
 30
0.0
 40
1.5
100
AcDbArc
 50
270.0
 51
0.0
  0
LINE
  5
745
330
2
100
AcDbEntity
  8
0
100
AcDbLine
 10
378.524621390204
 20
49.14236421870935
 30
0.0
 11
371.059228390204
 21
49.14236421870935
 31
0.0
  0
LINE
  5
746
330
2
100
AcDbEntity
  8
CENTER
100
AcDbLine
 10
366.0592283902039
 20
57.14236421870933
 30
0.0
 11
385.059228390204
 21
57.14236421870937
 31
0.0
  0
ARC
  5
747
330
2
100
AcDbEntity
  8
0
100
AcDbCircle
 10
383.059228390204
 20
71.44238421870935
 30
0.0
 40
3.0
100
AcDbArc
 50
90.0
 51
180.0
  0
ARC
  5
748
330
2
100
AcDbEntity
  8
0
100
AcDbCircle
 10
389.1302123902041
 20
55.84236421870935
 30
0.0
 40
5.0
100
AcDbArc
 50
225.0001069999998
 51
270.0
  0
LINE
  5
749
330
2
100
AcDbEntity
  8
0
100
AcDbLine
 10
380.059228390204
 20
71.44238421870935
 30
0.0
 11
380.059228390204
 21
50.64236421870934
 31
0.0
  0
LINE
  5
74A
330
2
100
AcDbEntity
  8
HIDS
  6
SEKKEI_H
100
AcDbLine
 10
371.059228390204
 20
53.89236421870934
 30
0.0
 11
380.059228390204
 21
53.89236421870934
 31
0.0
  0
LINE
  5
74B
330
2
100
AcDbEntity
  8
HIDS
  6
SEKKEI_H
100
AcDbLine
 10
371.059228390204
 20
60.39236421870935
 30
0.0
 11
380.059228390204
 21
60.39236421870935
 31
0.0
  0
ARC
  5
74C
330
2
100
AcDbEntity
  8
0
100
AcDbCircle
 10
383.6910343902041
 20
51.10543421870935
 30
0.0
 40
3.0
100
AcDbArc
 50
91.0004499999998
 51
165.0003050000002
  0
ARC
  5
74D
330
2
100
AcDbEntity
  8
0
100
AcDbCircle
 10
382.059228390204
 20
52.07709421870934
 30
0.0
 40
2.0
100
AcDbArc
 50
91.00063300000034
 51
180.0
  0
LINE
  5
74E
330
2
100
AcDbEntity
  8
0
100
AcDbLine
 10
380.456415390204
 20
50.62472421870935
 30
0.0
 11
380.7932073902041
 21
51.88187421870934
 31
0.0
  0
LINE
  5
74F
330
2
100
AcDbEntity
  8
0
100
AcDbLine
 10
385.594812390204
 20
52.30682421870934
 30
0.0
 11
383.793909390204
 21
54.10768421870933
 31
0.0
  0
ARC
  5
750
330
2
100
AcDbEntity
  8
0
100
AcDbCircle
 10
390.059228390204
 20
54.84236421870935
 30
0.0
 40
2.0
100
AcDbArc
 50
199.2169950000003
 51
270.0
  0
LINE
  5
752
330
2
100
AcDbEntity
  8
0
100
AcDbLine
 10
377.059228390204
 20
93.14236421870933
 30
0.0
 11
380.059228390204
 21
93.14236421870933
 31
0.0
  0
ARC
  5
754
330
2
100
AcDbEntity
  8
0
100
AcDbCircle
 10
377.059228390204
 20
94.14236021870934
 30
0.0
 40
1.0
100
AcDbArc
 50
180.0
 51
270.0
  0
LINE
  5
757
330
2
100
AcDbEntity
  8
0
100
AcDbLine
 10
257.1906765050868
 20
131.8128612187093
 30
0.0
 11
259.5898765050868
 21
114.6757922187093
 31
0.0
  0
ARC
  5
758
330
2
100
AcDbEntity
  8
0
100
AcDbCircle
 10
253.2293725050867
 20
131.2582652187093
 30
0.0
 40
4.0
100
AcDbArc
 50
7.969701000000192
 51
97.96975700000015
  0
LINE
  5
759
330
2
100
AcDbEntity
  8
0
100
AcDbLine
 10
259.4882835050867
 20
144.2515212187093
 30
0.0
 11
262.0655845050867
 21
125.8423642187093
 31
0.0
  0
ARC
  5
75A
330
2
100
AcDbEntity
  8
0
100
AcDbCircle
 10
382.059228390204
 20
148.1897542187093
 30
0.0
 40
2.0
100
AcDbArc
 50
180.0
 51
269.0006099999996
  0
LINE
  5
75B
330
2
100
AcDbEntity
  8
0
100
AcDbLine
 10
371.059228390204
 20
151.1423672187093
 30
0.0
 11
371.059228390204
 21
120.6423672187093
 31
0.0
  0
ARC
  5
75C
330
2
100
AcDbEntity
  8
0
100
AcDbCircle
 10
383.692315390204
 20
149.1614032187093
 30
0.0
 40
3.0
100
AcDbArc
 50
194.9326020000002
 51
269.0006099999996
  0
ARC
  5
75D
330
2
100
AcDbEntity
  8
0
100
AcDbCircle
 10
368.559228390204
 20
113.1423672187093
 30
0.0
 40
2.5
100
AcDbArc
 50
270.0
 51
0.0
  0
ARC
  5
75E
330
2
100
AcDbEntity
  8
0
100
AcDbCircle
 10
368.559228390204
 20
113.1423752187093
 30
0.0
 40
2.5
100
AcDbArc
 50
0.0
 51
90.0
  0
LINE
  5
75F
330
2
100
AcDbEntity
  8
0
100
AcDbLine
 10
374.059228390204
 20
105.6423642187093
 30
0.0
 11
347.059228390204
 21
105.6423642187093
 31
0.0
  0
LINE
  5
760
330
2
100
AcDbEntity
  8
0
100
AcDbLine
 10
374.059228390204
 20
120.6423672187093
 30
0.0
 11
347.059228390204
 21
120.6423672187093
 31
0.0
  0
LINE
  5
761
330
2
100
AcDbEntity
  8
CENTER
100
AcDbLine
 10
366.0592283902041
 20
143.1423672187093
 30
0.0
 11
385.059228390204
 21
143.1423672187093
 31
0.0
  0
LINE
  5
762
330
2
100
AcDbEntity
  8
0
100
AcDbLine
 10
368.559228390204
 20
115.6423672187093
 30
0.0
 11
347.059228390204
 21
115.6423672187093
 31
0.0
  0
LINE
  5
763
330
2
100
AcDbEntity
  8
0
100
AcDbLine
 10
368.559228390204
 20
110.6423672187093
 30
0.0
 11
347.059228390204
 21
110.6423672187093
 31
0.0
  0
LINE
  5
764
330
2
100
AcDbEntity
  8
0
100
AcDbLine
 10
347.059228390204
 20
105.6423642187093
 30
0.0
 11
347.059228390204
 21
120.6423672187093
 31
0.0
  0
LINE
  5
767
330
2
100
AcDbEntity
  8
0
100
AcDbLine
 10
374.059228390204
 20
121.6423672187093
 30
0.0
 11
374.059228390204
 21
104.6423642187093
 31
0.0
  0
LINE
  5
768
330
2
100
AcDbEntity
  8
0
100
AcDbLine
 10
374.059228390204
 20
104.6423642187093
 30
0.0
 11
376.059228390204
 21
104.6423642187093
 31
0.0
  0
LINE
  5
769
330
2
100
AcDbEntity
  8
0
100
AcDbLine
 10
374.059228390204
 20
121.6423672187093
 30
0.0
 11
376.059228390204
 21
121.6423672187093
 31
0.0
  0
LINE
  5
76D
330
2
100
AcDbEntity
  8
0
100
AcDbLine
 10
377.059228390204
 20
133.1423672187093
 30
0.0
 11
380.059228390204
 21
133.1423672187093
 31
0.0
  0
ARC
  5
76E
330
2
100
AcDbEntity
  8
0
100
AcDbCircle
 10
377.059228390204
 20
132.1423672187093
 30
0.0
 40
1.0
100
AcDbArc
 50
90.0
 51
180.0
  0
LINE
  5
771
330
2
100
AcDbEntity
  8
HIDS
  6
SEKKEI_H
100
AcDbLine
 10
371.059228390204
 20
139.8923672187093
 30
0.0
 11
380.059228390204
 21
139.8923672187093
 31
0.0
  0
LINE
  5
772
330
2
100
AcDbEntity
  8
HIDS
  6
SEKKEI_H
100
AcDbLine
 10
371.059228390204
 20
146.3923672187093
 30
0.0
 11
380.059228390204
 21
146.3923672187093
 31
0.0
  0
LINE
  5
774
330
2
100
AcDbEntity
  8
0
100
AcDbLine
 10
371.059228390204
 20
151.1423672187093
 30
0.0
 11
378.9082273902041
 21
151.1423672187093
 31
0.0
  0
ARC
  5
775
330
2
100
AcDbEntity
  8
0
100
AcDbCircle
 10
378.9082273902041
 20
149.6423672187093
 30
0.0
 40
1.5
100
AcDbArc
 50
15.00007000000016
 51
90.0
  0
LINE
  5
776
330
2
100
AcDbEntity
  8
0
100
AcDbLine
 10
380.357110390204
 20
150.0305812187093
 30
0.0
 11
380.796930390204
 21
148.3892242187093
 31
0.0
  0
LINE
  5
777
330
2
100
AcDbEntity
  8
0
100
AcDbLine
 10
451.059228390204
 20
67.84236421870935
 30
0.0
 11
451.059228390204
 21
105.6423642187093
 31
0.0
  0
ARC
  5
778
330
2
100
AcDbEntity
  8
0
100
AcDbCircle
 10
411.0592283902041
 20
90.84236421870935
 30
0.0
 40
38.0
100
AcDbArc
 50
324.6655309999995
 51
21.29424099999966
  0
LINE
  5
779
330
2
100
AcDbEntity
  8
0
100
AcDbLine
 10
446.059228390204
 20
94.14236421870933
 30
0.0
 11
446.059228390204
 21
132.1423672187093
 31
0.0
  0
LINE
  5
77A
330
2
100
AcDbEntity
  8
0
100
AcDbLine
 10
442.059228390204
 20
57.09029421870934
 30
0.0
 11
442.059228390204
 21
143.1769672187093
 31
0.0
  0
LINE
  5
77B
330
2
100
AcDbEntity
  8
CENTER
100
AcDbLine
 10
411.0592283902041
 20
40.84236421870933
 30
0.0
 11
411.0592283902041
 21
166.7298622187093
 31
0.0
  0
ARC
  5
77C
330
2
100
AcDbEntity
  8
0
100
AcDbCircle
 10
434.059228390204
 20
53.84235421870934
 30
0.0
 40
3.0
100
AcDbArc
 50
270.0
 51
0.0
  0
ARC
  5
77D
330
2
100
AcDbEntity
  8
0
100
AcDbCircle
 10
432.059228390204
 20
54.84236421870935
 30
0.0
 40
2.0
100
AcDbArc
 50
270.0
 51
0.0
  0
LINE
  5
77E
330
2
100
AcDbEntity
  8
0
100
AcDbLine
 10
434.059228390204
 20
54.84236421870935
 30
0.0
 11
434.059228390204
 21
54.98514421870933
 31
0.0
  0
ARC
  5
77F
330
2
100
AcDbEntity
  8
0
100
AcDbCircle
 10
440.0592283902041
 20
57.09028421870934
 30
0.0
 40
2.0
100
AcDbArc
 50
271.0003660000003
 51
0.0
  0
LINE
  5
780
330
2
100
AcDbEntity
  8
0
100
AcDbLine
 10
437.059228390204
 20
53.84236421870935
 30
0.0
 11
437.059228390204
 21
55.03761421870933
 31
0.0
  0
LINE
  5
781
330
2
100
AcDbEntity
  8
0
100
AcDbLine
 10
448.059228390204
 20
64.84236421870935
 30
0.0
 11
444.456231390204
 21
64.84236421870935
 31
0.0
  0
LINE
  5
782
330
2
100
AcDbEntity
  8
0
100
AcDbLine
 10
442.059228390204
 20
62.44539421870934
 30
0.0
 11
444.456231390204
 21
64.84236421870935
 31
0.0
  0
ARC
  5
783
330
2
100
AcDbEntity
  8
0
100
AcDbCircle
 10
448.059228390204
 20
67.84235521870934
 30
0.0
 40
3.0
100
AcDbArc
 50
270.0
 51
0.0
  0
ARC
  5
784
330
2
100
AcDbEntity
  8
0
100
AcDbCircle
 10
445.059228390204
 20
94.14236021870934
 30
0.0
 40
1.0
100
AcDbArc
 50
270.0
 51
0.0
  0
ARC
  5
785
330
2
100
AcDbEntity
  8
0
100
AcDbCircle
 10
444.0592283902041
 20
91.14237121870933
 30
0.0
 40
2.0
100
AcDbArc
 50
90.0
 51
180.0
  0
LINE
  5
786
330
2
100
AcDbEntity
  8
0
100
AcDbLine
 10
445.059228390204
 20
93.14236421870933
 30
0.0
 11
444.0592283902041
 21
93.14236421870933
 31
0.0
  0
LINE
  5
787
330
2
100
AcDbEntity
  8
0
100
AcDbLine
 10
453.559228390204
 20
115.6423672187093
 30
0.0
 11
475.0592283902041
 21
115.6423672187093
 31
0.0
  0
LINE
  5
788
330
2
100
AcDbEntity
  8
0
100
AcDbLine
 10
453.559228390204
 20
110.6423672187093
 30
0.0
 11
475.0592283902041
 21
110.6423672187093
 31
0.0
  0
LINE
  5
789
330
2
100
AcDbEntity
  8
0
100
AcDbLine
 10
448.059228390204
 20
105.6423642187093
 30
0.0
 11
475.0592283902041
 21
105.6423642187093
 31
0.0
  0
LINE
  5
78A
330
2
100
AcDbEntity
  8
0
100
AcDbLine
 10
448.059228390204
 20
120.6423672187093
 30
0.0
 11
475.0592283902041
 21
120.6423672187093
 31
0.0
  0
ARC
  5
78B
330
2
100
AcDbEntity
  8
0
100
AcDbCircle
 10
453.559228390204
 20
113.1423672187093
 30
0.0
 40
2.5
100
AcDbArc
 50
180.0
 51
270.0
  0
ARC
  5
78C
330
2
100
AcDbEntity
  8
0
100
AcDbCircle
 10
453.559228390204
 20
113.1423752187093
 30
0.0
 40
2.5
100
AcDbArc
 50
90.0
 51
180.0
  0
LINE
  5
78D
330
2
100
AcDbEntity
  8
0
100
AcDbLine
 10
448.059228390204
 20
121.6423672187093
 30
0.0
 11
448.059228390204
 21
104.6423642187093
 31
0.0
  0
LINE
  5
78E
330
2
100
AcDbEntity
  8
0
100
AcDbLine
 10
446.059228390204
 20
104.6423642187093
 30
0.0
 11
448.059228390204
 21
104.6423642187093
 31
0.0
  0
LINE
  5
78F
330
2
100
AcDbEntity
  8
0
100
AcDbLine
 10
446.059228390204
 20
121.6423672187093
 30
0.0
 11
448.059228390204
 21
121.6423672187093
 31
0.0
  0
ARC
  5
790
330
2
100
AcDbEntity
  8
0
100
AcDbCircle
 10
444.0592283902041
 20
135.1423672187093
 30
0.0
 40
2.0
100
AcDbArc
 50
180.0
 51
270.0
  0
ARC
  5
791
330
2
100
AcDbEntity
  8
0
100
AcDbCircle
 10
445.059228390204
 20
132.1423672187093
 30
0.0
 40
1.0
100
AcDbArc
 50
0.0
 51
90.0
  0
LINE
  5
792
330
2
100
AcDbEntity
  8
0
100
AcDbLine
 10
445.059228390204
 20
133.1423672187093
 30
0.0
 11
444.0592283902041
 21
133.1423672187093
 31
0.0
  0
ARC
  5
793
330
2
100
AcDbEntity
  8
0
100
AcDbCircle
 10
440.0592283902041
 20
143.1769512187093
 30
0.0
 40
2.0
100
AcDbArc
 50
0.0
 51
89.00035899999958
  0
LINE
  5
794
330
2
100
AcDbEntity
  8
0
100
AcDbLine
 10
475.0592283902041
 20
105.6423642187093
 30
0.0
 11
475.0592283902041
 21
120.6423672187093
 31
0.0
  0
LINE
  5
795
330
2
100
AcDbEntity
  8
0
100
AcDbLine
 10
260.2573725050867
 20
341.1222032187093
 30
0.0
 11
262.0655845050867
 21
272.0698652187093
 31
0.0
  0
LINE
  5
796
330
2
100
AcDbEntity
  8
HIDS
  6
SEKKEI_H
100
AcDbLine
 10
254.8155845050867
 20
281.0698652187093
 30
0.0
 11
254.8155845050867
 21
272.0698652187093
 31
0.0
  0
LINE
  5
797
330
2
100
AcDbEntity
  8
0
100
AcDbLine
 10
259.4882835050867
 20
272.0698652187093
 30
0.0
 11
259.4882835050867
 21
279.7595472187093
 31
0.0
  0
ARC
  5
798
330
2
100
AcDbEntity
  8
0
100
AcDbCircle
 10
260.8557455050868
 20
280.0698652187093
 30
0.0
 40
1.0
100
AcDbArc
 50
1.499998000000141
 51
90.0
  0
ARC
  5
79A
330
2
100
AcDbEntity
  8
0
100
AcDbCircle
 10
258.2580595050867
 20
341.0698652187093
 30
0.0
 40
2.0
100
AcDbArc
 50
1.500000000000274
 51
90.0
  0
LWPOLYLINE
  5
8C2
330
2
100
AcDbEntity
  8
HOJO
100
AcDbPolyline
 90
       13
 70
     0
 43
0.0
 10
371.059228390204
 20
136.3520152187093
 10
376.949823390204
 20
135.1392472187093
 10
382.199823390204
 20
131.8892472187093
 10
382.699823390204
 20
126.7642472187093
 10
384.449823390204
 20
124.8892472187093
 10
385.199823390204
 20
115.6392472187093
 10
385.949823390204
 20
110.3892472187093
 10
383.949823390204
 20
104.0142432187093
 10
384.574823390204
 20
97.51423921870935
 10
383.074823390204
 20
91.76423921870934
 10
378.949823390204
 20
88.63923921870934
 10
374.074823390204
 20
88.01423921870934
 10
371.059228390204
 20
86.78565121870935
  0
LINE
  5
8C9
330
2
100
AcDbEntity
  8
CENTER
100
AcDbLine
 10
181.7218805050868
 20
143.1423672187093
 30
0.0
 11
193.4092885050868
 21
143.1423672187093
 31
0.0
  0
LINE
  5
8CA
330
2
100
AcDbEntity
  8
CENTER
100
AcDbLine
 10
187.5655845050868
 20
137.2986632187093
 30
0.0
 11
187.5655845050868
 21
148.9860712187093
 31
0.0
  0
LINE
  5
8CB
330
2
100
AcDbEntity
  8
CENTER
100
AcDbLine
 10
181.7218805050868
 20
57.14236421870935
 30
0.0
 11
193.4092885050868
 21
57.14236421870935
 31
0.0
  0
LINE
  5
8CC
330
2
100
AcDbEntity
  8
CENTER
100
AcDbLine
 10
187.5655845050868
 20
51.29866021870935
 30
0.0
 11
187.5655845050868
 21
62.98606821870935
 31
0.0
  0
LINE
  5
8CD
330
2
100
AcDbEntity
  8
CENTER
100
AcDbLine
 10
245.7218805050867
 20
57.14236421870935
 30
0.0
 11
257.4092885050867
 21
57.14236421870935
 31
0.0
  0
LINE
  5
8CE
330
2
100
AcDbEntity
  8
CENTER
100
AcDbLine
 10
251.5655845050868
 20
51.29866021870935
 30
0.0
 11
251.5655845050868
 21
62.98606821870935
 31
0.0
  0
TEXT
  5
8E5
330
2
100
AcDbEntity
  8
TITLE
100
AcDbText
 10
311.6840902000432
 20
280.8600431189423
 30
0.0
 40
5.0
  1
HFMN-15T-10~60-T60T
 41
0.8
100
AcDbText
  0
TEXT
  5
8E6
330
2
100
AcDbEntity
  8
TITLE
100
AcDbText
 10
311.6840902000432
 20
296.8600431189423
 30
0.0
 40
5.0
  1
HFMN-15T-10~120-T40T
 41
0.8
100
AcDbText
  0
TEXT
  5
8E7
330
2
100
AcDbEntity
  8
TITLE
100
AcDbText
 10
311.6840902000432
 20
288.8600431189423
 30
0.0
 40
5.0
  1
HFMN-15T-10~120-T40WT
 41
0.8
100
AcDbText
  0
TEXT
  5
8E8
330
2
100
AcDbEntity
  8
TITLE
100
AcDbText
 10
311.6840902000432
 20
304.8600431189423
 30
0.0
 40
5.0
  1
HFMN-15T-10~240-T25WT
 41
0.8
100
AcDbText
  0
TEXT
  5
8E9
330
2
100
AcDbEntity
  8
TITLE
100
AcDbText
 10
311.6840902000432
 20
312.8600431189423
 30
0.0
 40
5.0
  1
HFMN-15T-10~240-T25T
 41
0.8
100
AcDbText
  0
TEXT
  5
8EA
330
2
100
AcDbEntity
  8
TITLE
100
AcDbText
 10
311.6840902000432
 20
320.8600431189423
 30
0.0
 40
5.0
  1
HFMN-15T-10~240-T15WT
 41
0.8
100
AcDbText
  0
TEXT
  5
8EB
330
2
100
AcDbEntity
  8
TITLE
100
AcDbText
 10
311.6840902000432
 20
328.8600431189423
 30
0.0
 40
5.0
  1
HFMN-15T-10~240-T15T
 41
0.8
100
AcDbText
  0
TEXT
  5
8EC
330
2
100
AcDbEntity
  8
TITLE
100
AcDbText
 10
404.0146215764979
 20
304.8600431189423
 30
0.0
 40
5.0
  1
HFMN-15T-10~240-S25WT
 41
0.8
100
AcDbText
  0
TEXT
  5
8ED
330
2
100
AcDbEntity
  8
TITLE
100
AcDbText
 10
404.0146215764979
 20
288.8600431189423
 30
0.0
 40
5.0
  1
HFMN-15T-10~120-S40WT
 41
0.8
100
AcDbText
  0
TEXT
  5
8EE
330
2
100
AcDbEntity
  8
TITLE
100
AcDbText
 10
404.0146215764979
 20
296.8600431189423
 30
0.0
 40
5.0
  1
HFMN-15T-10~120-S40T
 41
0.8
100
AcDbText
  0
TEXT
  5
8EF
330
2
100
AcDbEntity
  8
TITLE
100
AcDbText
 10
404.0146215764979
 20
320.8600431189423
 30
0.0
 40
5.0
  1
HFMN-15T-10~240-S15WT
 41
0.8
100
AcDbText
  0
TEXT
  5
8F0
330
2
100
AcDbEntity
  8
TITLE
100
AcDbText
 10
404.0146215764979
 20
312.8600431189423
 30
0.0
 40
5.0
  1
HFMN-15T-10~240-S25T
 41
0.8
100
AcDbText
  0
TEXT
  5
8F1
330
2
100
AcDbEntity
  8
TITLE
100
AcDbText
 10
404.0146215764979
 20
328.8600431189423
 30
0.0
 40
5.0
  1
HFMN-15T-10~240-S15T
 41
0.8
100
AcDbText
  0
LINE
  5
1C5F
330
2
100
AcDbEntity
  8
0
100
AcDbLine
 10
144.1656755050868
 20
289.4698592187093
 30
0.0
 11
144.1656755050868
 21
329.5698652187092
 31
0.0
  0
LINE
  5
1C60
330
2
100
AcDbEntity
  8
0
100
AcDbLine
 10
145.5654705050868
 20
335.0698652187092
 30
0.0
 11
145.5654705050867
 21
289.0698652187093
 31
0.0
  0
LINE
  5
1C61
330
2
100
AcDbEntity
  8
0
100
AcDbLine
 10
96.96556450508683
 20
334.6698562187093
 30
0.0
 11
96.96557150508681
 21
294.5698652187093
 31
0.0
  0
LINE
  5
1C62
330
2
100
AcDbEntity
  8
CENTER
100
AcDbLine
 10
120.5655775050868
 20
342.459091162817
 30
0.0
 11
120.5655775050868
 21
281.3198652187093
 31
0.0
  0
LINE
  5
1C63
330
2
100
AcDbEntity
  8
0
100
AcDbLine
 10
95.56557050508684
 20
335.0698652187093
 30
0.0
 11
95.56557050508684
 21
289.0698652187093
 31
0.0
  0
LINE
  5
1C64
330
2
100
AcDbEntity
  8
CENTER
100
AcDbLine
 10
381.0156214089955
 20
151.8423622187093
 30
0.0
 11
441.1028353714126
 21
151.8423622187093
 31
0.0
  0
LINE
  5
1C66
330
2
100
AcDbEntity
  8
0
100
AcDbLine
 10
386.0592283902041
 20
160.3423622187093
 30
0.0
 11
428.5592133902041
 21
160.3423622187093
 31
0.0
  0
LINE
  5
1C67
330
2
100
AcDbEntity
  8
0
100
AcDbLine
 10
387.0592283902041
 20
161.3423622187093
 30
0.0
 11
431.2213195741779
 21
161.3423622187093
 31
0.0
  0
LINE
  5
1C6D
330
2
100
AcDbEntity
  8
CENTER
100
AcDbLine
 10
87.62182150508682
 20
151.8423622187093
 30
0.0
 11
149.5178804688249
 21
151.8423622187093
 31
0.0
  0
LINE
  5
1C6E
330
2
100
AcDbEntity
  8
0
100
AcDbLine
 10
103.0655709336578
 20
160.3423622187093
 30
0.0
 11
145.5655845050869
 21
160.3423622187093
 31
0.0
  0
LINE
  5
1C6F
330
2
100
AcDbEntity
  8
0
100
AcDbLine
 10
95.56557050508684
 20
132.3423642187093
 30
0.0
 11
145.5655775050868
 21
132.3423642187093
 31
0.0
  0
LINE
  5
1C70
330
2
100
AcDbEntity
  8
0
100
AcDbLine
 10
93.56557050508683
 20
142.3423642187093
 30
0.0
 11
145.5655775050868
 21
142.3423642187093
 31
0.0
  0
LINE
  5
1C71
330
2
100
AcDbEntity
  8
0
100
AcDbLine
 10
97.06557050508685
 20
130.3423642187093
 30
0.0
 11
143.5655775050868
 21
130.3423642187093
 31
0.0
  0
LINE
  5
1C72
330
2
100
AcDbEntity
  8
0
100
AcDbLine
 10
100.4034863211123
 20
161.3423622187093
 30
0.0
 11
144.5655775050868
 21
161.3423622187093
 31
0.0
  0
LINE
  5
1C73
330
2
100
AcDbEntity
  8
0
100
AcDbLine
 10
95.56557050508684
 20
160.3423622187093
 30
0.0
 11
95.56557050508684
 21
132.3423642187093
 31
0.0
  0
LINE
  5
1C74
330
2
100
AcDbEntity
  8
CENTER
100
AcDbLine
 10
120.5655775050868
 20
125.6486632187093
 30
0.0
 11
120.5655775050868
 21
166.7298622187093
 31
0.0
  0
LINE
  5
1C75
330
2
100
AcDbEntity
  8
0
100
AcDbLine
 10
97.06557050508685
 20
130.3423642187093
 30
0.0
 11
97.06557050508685
 21
128.8423642187093
 31
0.0
  0
LINE
  5
1C76
330
2
100
AcDbEntity
  8
0
100
AcDbLine
 10
95.56557050508684
 20
132.3423642187093
 30
0.0
 11
97.56557050508684
 21
130.3423642187093
 31
0.0
  0
ARC
  5
1C77
330
2
100
AcDbEntity
  8
0
100
AcDbCircle
 10
94.56558550508679
 20
158.3423622187093
 30
0.0
 40
1.0
100
AcDbArc
 50
90.0
 51
180.0
  0
LINE
  5
1C78
330
2
100
AcDbEntity
  8
0
100
AcDbLine
 10
90.0655855050868
 20
155.8423622187093
 30
0.0
 11
90.0655855050868
 21
147.8423622187093
 31
0.0
  0
LINE
  5
1C79
330
2
100
AcDbEntity
  8
0
100
AcDbLine
 10
93.5655855050868
 20
158.3423622187093
 30
0.0
 11
93.56557050508683
 21
142.3423642187093
 31
0.0
  0
LINE
  5
1C7A
330
2
100
AcDbEntity
  8
0
100
AcDbLine
 10
90.06557050508684
 20
147.8423622187093
 30
0.0
 11
93.56557050508683
 21
146.3423622187093
 31
0.0
  0
LINE
  5
1C7B
330
2
100
AcDbEntity
  8
0
100
AcDbLine
 10
90.0655855050868
 20
155.8423622187093
 30
0.0
 11
93.5655855050868
 21
157.3423622187093
 31
0.0
  0
LINE
  5
1C7C
330
2
100
AcDbEntity
  8
0
100
AcDbLine
 10
103.5655709336577
 20
161.3423622187092
 30
0.0
 11
103.0655709336578
 21
160.8423622187092
 31
0.0
  0
LINE
  5
1C7D
330
2
100
AcDbEntity
  8
0
100
AcDbLine
 10
103.0655709336578
 20
158.8423622187092
 30
0.0
 11
103.0655709336578
 21
160.8423622187093
 31
0.0
  0
SPLINE
  5
1C7E
330
2
100
AcDbEntity
  8
0
100
AcDbSpline
210
0.0
220
0.0
230
1.0
 70
     8
 71
     3
 72
    11
 73
     7
 74
     0
 42
0.0000000001
 43
0.0000000001
 40
0.0
 40
0.0
 40
0.0
 40
0.0
 40
0.4601364636755307
 40
1.04988694485363
 40
1.713742833862792
 40
2.320347933405154
 40
2.320347933405154
 40
2.320347933405154
 40
2.320347933405179
 10
99.35307750554194
 20
159.9253622187092
 30
0.0
 10
99.37549516264983
 20
160.0803856583891
 30
0.0
 10
99.4266452178831
 20
160.4341004763067
 30
0.0
 10
99.86253037941674
 20
160.8588281479083
 30
0.0
 10
100.467581094424
 20
161.0780153278741
 30
0.0
 10
100.8927657185999
 20
161.0090240282635
 30
0.0
 10
101.0953173282509
 20
160.9948037560868
 30
0.0
  0
LINE
  5
1C7F
330
2
100
AcDbEntity
  8
0
100
AcDbLine
 10
99.35307750554194
 20
159.9253622187092
 30
0.0
 11
98.77807750463194
 21
159.9253622187092
 31
0.0
  0
LINE
  5
1C80
330
2
100
AcDbEntity
  8
0
100
AcDbLine
 10
101.0953173282509
 20
160.9948037560868
 30
0.0
 11
101.1155775050869
 21
161.2057805015484
 31
0.0
  0
LINE
  5
1C81
330
2
100
AcDbEntity
  8
0
100
AcDbLine
 10
102.5655775050868
 20
158.8423622187093
 30
0.0
 11
102.467641366199
 21
159.9617774085275
 31
0.0
  0
LINE
  5
1C82
330
2
100
AcDbEntity
  8
0
100
AcDbLine
 10
96.56557050508684
 20
161.3423622187093
 30
0.0
 11
97.72766868906149
 21
161.3423622187093
 31
0.0
  0
LINE
  5
1C83
330
2
100
AcDbEntity
  8
0
100
AcDbLine
 10
94.56557050508683
 20
159.3423622187093
 30
0.0
 11
95.56557050508684
 21
159.3423622187093
 31
0.0
  0
LINE
  5
1C84
330
2
100
AcDbEntity
  8
0
100
AcDbLine
 10
95.56557050508684
 20
160.3423622187093
 30
0.0
 11
96.56557050508684
 21
161.3423622187093
 31
0.0
  0
LINE
  5
1C85
330
2
100
AcDbEntity
  8
0
100
AcDbLine
 10
96.5655709336578
 20
161.3423622187092
 30
0.0
 11
95.56557050508684
 21
160.3423622187093
 31
0.0
  0
ARC
  5
1C86
330
2
100
AcDbEntity
  8
0
100
AcDbCircle
 10
96.95856675149389
 20
159.8484749429555
 30
0.0
 40
1.3
100
AcDbArc
 50
105.8808500082775
 51
174.9999999999999
  0
LINE
  5
1C87
330
2
100
AcDbEntity
  8
0
100
AcDbLine
 10
95.56557750508693
 20
158.8423622187093
 30
0.0
 11
95.66351364397474
 21
159.9617774085275
 31
0.0
  0
LINE
  5
1C88
330
2
100
AcDbEntity
  8
0
100
AcDbLine
 10
97.03583768192288
 20
160.9948037560868
 30
0.0
 11
97.01557750508687
 21
161.2057805015484
 31
0.0
  0
SPLINE
  5
1C89
330
2
100
AcDbEntity
  8
0
100
AcDbSpline
210
0.0
220
0.0
230
1.0
 70
     8
 71
     3
 72
    11
 73
     7
 74
     0
 42
0.0000000001
 43
0.0000000001
 40
0.0
 40
0.0
 40
0.0
 40
0.0
 40
0.4601364636755307
 40
1.04988694485363
 40
1.713742833862792
 40
2.320347933405154
 40
2.320347933405154
 40
2.320347933405154
 40
2.320347933405179
 10
98.77807750463194
 20
159.9253622187092
 30
0.0
 10
98.75565984752405
 20
160.0803856583891
 30
0.0
 10
98.70450979229076
 20
160.4341004763067
 30
0.0
 10
98.26862463075713
 20
160.8588281479083
 30
0.0
 10
97.66357391574979
 20
161.0780153278741
 30
0.0
 10
97.23838929157388
 20
161.0090240282635
 30
0.0
 10
97.03583768192288
 20
160.9948037560868
 30
0.0
  0
ARC
  5
1C8A
330
2
100
AcDbEntity
  8
0
100
AcDbCircle
 10
99.06557750508694
 20
152.4423622187092
 30
0.0
 40
9.0
100
AcDbArc
 50
74.11914999172243
 51
105.8808500082775
  0
LINE
  5
1C8B
330
2
100
AcDbEntity
  8
0
100
AcDbLine
 10
103.0655709336578
 20
158.8423622187092
 30
0.0
 11
95.5655709336578
 21
158.8423622187093
 31
0.0
  0
LINE
  5
1C8C
330
2
100
AcDbEntity
  8
0
100
AcDbLine
 10
103.0655709336578
 20
160.8423622187092
 30
0.0
 11
102.010554894707
 21
160.8423622187092
 31
0.0
  0
ARC
  5
1C8D
330
2
100
AcDbEntity
  8
0
100
AcDbCircle
 10
101.1725882586797
 20
159.8484749429555
 30
0.0
 40
1.3
100
AcDbArc
 50
5.000000000000026
 51
74.11914999172243
  0
LINE
  5
1C8E
330
2
100
AcDbEntity
  8
0
100
AcDbLine
 10
386.0592283902041
 20
160.3423622187093
 30
0.0
 11
386.0592283902041
 21
146.1196295507637
 31
0.0
  0
LINE
  5
1C8F
330
2
100
AcDbEntity
  8
0
100
AcDbLine
 10
145.5655775050868
 20
160.3423622187093
 30
0.0
 11
145.5655775050868
 21
132.3423642187093
 31
0.0
  0
LINE
  5
1C91
330
2
100
AcDbEntity
  8
0
100
AcDbLine
 10
143.0655775050868
 20
130.3423642187093
 30
0.0
 11
143.0655775050868
 21
128.8423642187093
 31
0.0
  0
LINE
  5
1C92
330
2
100
AcDbEntity
  8
0
100
AcDbLine
 10
143.5655775050868
 20
130.3423642187093
 30
0.0
 11
145.5655775050868
 21
132.3423642187093
 31
0.0
  0
LINE
  5
1C95
330
2
100
AcDbEntity
  8
0
100
AcDbLine
 10
144.5655845050869
 20
161.3423622187093
 30
0.0
 11
145.5655845050869
 21
160.3423622187093
 31
0.0
  0
LINE
  5
1C96
330
2
100
AcDbEntity
  8
0
100
AcDbLine
 10
387.0592283902041
 20
161.3423622187093
 30
0.0
 11
386.0592283902041
 21
160.3423622187093
 31
0.0
  0
LINE
  5
1C97
330
2
100
AcDbEntity
  8
0
100
AcDbLine
 10
97.56557050508684
 20
287.0698652187093
 30
0.0
 11
143.5654705050867
 21
287.0698652187093
 31
0.0
  0
LINE
  5
1C98
330
2
100
AcDbEntity
  8
0
100
AcDbLine
 10
143.1656755050868
 20
288.4698592187092
 30
0.0
 11
103.0655705050868
 21
288.4698592187092
 31
0.0
  0
LINE
  5
1C99
330
2
100
AcDbEntity
  8
0
100
AcDbLine
 10
103.0655705050868
 20
290.5698652187093
 30
0.0
 11
103.0655705050868
 21
287.0700642187093
 31
0.0
  0
LINE
  5
1C9A
330
2
100
AcDbEntity
  8
0
100
AcDbLine
 10
95.56557050508684
 20
289.0698652187093
 30
0.0
 11
97.56557050508684
 21
287.0698652187093
 31
0.0
  0
LINE
  5
1C9B
330
2
100
AcDbEntity
  8
0
100
AcDbLine
 10
95.56557050508684
 20
289.0698652187093
 30
0.0
 11
97.56557050508684
 21
287.0698652187093
 31
0.0
  0
CIRCLE
  5
1C9C
330
2
100
AcDbEntity
  8
0
100
AcDbCircle
 10
99.06560050508677
 20
290.5698652187093
 30
0.0
 40
3.500000000000028
  0
ARC
  5
1C9D
330
2
100
AcDbEntity
  8
0
100
AcDbCircle
 10
99.06560050508677
 20
290.5698652187093
 30
0.0
 40
4.0
100
AcDbArc
 50
0.0
 51
90.0
  0
ARC
  5
1C9E
330
2
100
AcDbEntity
  8
0
100
AcDbCircle
 10
99.06560050508677
 20
290.5698652187093
 30
0.0
 40
2.049999999999998
100
AcDbArc
 50
261.9380399160181
 51
270.0
  0
ARC
  5
1C9F
330
2
100
AcDbEntity
  8
0
100
AcDbCircle
 10
99.06560050508677
 20
290.5698652187093
 30
0.0
 40
2.049999999999998
100
AcDbArc
 50
270.0
 51
278.0619600839818
  0
ARC
  5
1CA0
330
2
100
AcDbEntity
  8
0
100
AcDbCircle
 10
99.06560050508677
 20
290.5698652187093
 30
0.0
 40
2.049999999999998
100
AcDbArc
 50
90.0
 51
98.06196008398188
  0
ARC
  5
1CA1
330
2
100
AcDbEntity
  8
0
100
AcDbCircle
 10
99.06560050508677
 20
290.5698652187093
 30
0.0
 40
2.049999999999998
100
AcDbArc
 50
0.0
 51
8.061960083981649
  0
ARC
  5
1CA2
330
2
100
AcDbEntity
  8
0
100
AcDbCircle
 10
99.06560050508677
 20
290.5698652187093
 30
0.0
 40
2.049999999999998
100
AcDbArc
 50
81.93803991601813
 51
90.0
  0
ARC
  5
1CA3
330
2
100
AcDbEntity
  8
0
100
AcDbCircle
 10
101.0953005050869
 20
288.5401652187093
 30
0.0
 40
1.742199999999999
100
AcDbArc
 50
89.99869033450025
 51
180.0013096654997
  0
ARC
  5
1CA4
330
2
100
AcDbEntity
  8
0
100
AcDbCircle
 10
99.06560050508677
 20
290.5698652187093
 30
0.0
 40
2.049999999999998
100
AcDbArc
 50
351.9380399160183
 51
0.0
  0
ARC
  5
1CA5
330
2
100
AcDbEntity
  8
0
100
AcDbCircle
 10
101.0953005050869
 20
292.5995652187092
 30
0.0
 40
1.742199999999999
100
AcDbArc
 50
179.9986903345002
 51
270.0013096654932
  0
ARC
  5
1CA6
330
2
100
AcDbEntity
  8
0
100
AcDbCircle
 10
99.06560050508677
 20
290.5698652187093
 30
0.0
 40
2.049999999999998
100
AcDbArc
 50
171.9380399160183
 51
180.0
  0
ARC
  5
1CA7
330
2
100
AcDbEntity
  8
0
100
AcDbCircle
 10
99.06560050508677
 20
290.5698652187093
 30
0.0
 40
2.049999999999998
100
AcDbArc
 50
180.0
 51
188.0619600839816
  0
LINE
  5
1CA8
330
2
100
AcDbEntity
  8
0
100
AcDbLine
 10
99.06560050508687
 20
294.5698652187093
 30
0.0
 11
95.56560050508688
 21
294.5698652187093
 31
0.0
  0
ARC
  5
1CA9
330
2
100
AcDbEntity
  8
0
100
AcDbCircle
 10
97.03590050508683
 20
288.5401652187093
 30
0.0
 40
1.742199999999999
100
AcDbArc
 50
359.9986903345002
 51
90.00130966549322
  0
ARC
  5
1CAA
330
2
100
AcDbEntity
  8
0
100
AcDbCircle
 10
97.03590050508683
 20
292.5995652187092
 30
0.0
 40
1.742199999999999
100
AcDbArc
 50
269.9986903345002
 51
0.0013096654997424
  0
LINE
  5
1CAB
330
2
100
AcDbEntity
  8
0
100
AcDbLine
 10
145.5654705050867
 20
289.0698652187093
 30
0.0
 11
143.5654705050867
 21
287.0698652187093
 31
0.0
  0
LINE
  5
1CAC
330
2
100
AcDbEntity
  8
0
100
AcDbLine
 10
145.5654705050867
 20
289.0698652187093
 30
0.0
 11
143.5654705050867
 21
287.0698652187093
 31
0.0
  0
LINE
  5
1CAD
330
2
100
AcDbEntity
  8
0
100
AcDbLine
 10
145.5656695050868
 20
289.0698652187093
 30
0.0
 11
143.5654705050867
 21
287.0698652187093
 31
0.0
  0
LINE
  5
1CAE
330
2
100
AcDbEntity
  8
0
100
AcDbLine
 10
143.1656755050868
 20
288.4698592187092
 30
0.0
 11
144.1656755050868
 21
289.4698592187093
 31
0.0
  0
LINE
  5
1CAF
330
2
100
AcDbEntity
  8
0
100
AcDbLine
 10
436.0592133902041
 20
160.3423622187093
 30
0.0
 11
436.0592133902041
 21
145.2470746248883
 31
0.0
  0
LINE
  5
1CB3
330
2
100
AcDbEntity
  8
0
100
AcDbLine
 10
428.5592133902041
 20
158.8423622187093
 30
0.0
 11
436.0592133902041
 21
158.8423622187094
 31
0.0
  0
ARC
  5
1CB4
330
2
100
AcDbEntity
  8
0
100
AcDbCircle
 10
430.4522176366112
 20
159.8484749429556
 30
0.0
 40
1.3
100
AcDbArc
 50
105.8808500082775
 51
174.9999999999999
  0
LINE
  5
1CB5
330
2
100
AcDbEntity
  8
0
100
AcDbLine
 10
428.5592133902041
 20
160.8423622187093
 30
0.0
 11
429.6142510005837
 21
160.8423622187093
 31
0.0
  0
LINE
  5
1CB6
330
2
100
AcDbEntity
  8
0
100
AcDbLine
 10
428.5592133902041
 20
158.8423622187093
 30
0.0
 11
428.5592133902041
 21
160.8423622187094
 31
0.0
  0
LINE
  5
1CB7
330
2
100
AcDbEntity
  8
0
100
AcDbLine
 10
428.0592133902041
 20
161.3423622187093
 30
0.0
 11
428.5592133902041
 21
160.8423622187093
 31
0.0
  0
LINE
  5
1CB8
330
2
100
AcDbEntity
  8
0
100
AcDbLine
 10
429.0592283902041
 20
158.8423622187094
 30
0.0
 11
429.157164529092
 21
159.9617774085277
 31
0.0
  0
LINE
  5
1CB9
330
2
100
AcDbEntity
  8
0
100
AcDbLine
 10
435.0592133902041
 20
161.3423622187093
 30
0.0
 11
436.0592133902041
 21
160.3423622187093
 31
0.0
  0
ARC
  5
1CBA
330
2
100
AcDbEntity
  8
0
100
AcDbCircle
 10
434.666239143797
 20
159.8484749429556
 30
0.0
 40
1.3
100
AcDbArc
 50
5.000000000000026
 51
74.11914999172243
  0
LINE
  5
1CBB
330
2
100
AcDbEntity
  8
0
100
AcDbLine
 10
436.0592283902041
 20
158.8423622187094
 30
0.0
 11
435.9612922513162
 21
159.9617774085277
 31
0.0
  0
SPLINE
  5
1CBC
330
2
100
AcDbEntity
  8
0
100
AcDbSpline
210
0.0
220
0.0
230
1.0
 70
     8
 71
     3
 72
    11
 73
     7
 74
     0
 42
0.0000000001
 43
0.0000000001
 40
0.0
 40
0.0
 40
0.0
 40
0.0
 40
0.4601364636755307
 40
1.04988694485363
 40
1.713742833862792
 40
2.320347933405154
 40
2.320347933405154
 40
2.320347933405154
 40
2.320347933405179
 10
432.2717283897491
 20
159.9253622187094
 30
0.0
 10
432.2493107326412
 20
160.0803856583892
 30
0.0
 10
432.198160677408
 20
160.4341004763067
 30
0.0
 10
431.7622755158744
 20
160.8588281479085
 30
0.0
 10
431.1572248008669
 20
161.0780153278743
 30
0.0
 10
430.7320401766911
 20
161.0090240282636
 30
0.0
 10
430.52948856704
 20
160.9948037560869
 30
0.0
  0
SPLINE
  5
1CBD
330
2
100
AcDbEntity
  8
0
100
AcDbSpline
210
0.0
220
0.0
230
1.0
 70
     8
 71
     3
 72
    11
 73
     7
 74
     0
 42
0.0000000001
 43
0.0000000001
 40
0.0
 40
0.0
 40
0.0
 40
0.0
 40
0.4601364636755307
 40
1.04988694485363
 40
1.713742833862792
 40
2.320347933405154
 40
2.320347933405154
 40
2.320347933405154
 40
2.320347933405179
 10
432.8467283906592
 20
159.9253622187094
 30
0.0
 10
432.869146047767
 20
160.0803856583892
 30
0.0
 10
432.9202961030004
 20
160.4341004763067
 30
0.0
 10
433.3561812645339
 20
160.8588281479085
 30
0.0
 10
433.9612319795413
 20
161.0780153278743
 30
0.0
 10
434.3864166037171
 20
161.0090240282636
 30
0.0
 10
434.5889682133682
 20
160.9948037560869
 30
0.0
  0
LINE
  5
1CBE
330
2
100
AcDbEntity
  8
0
100
AcDbLine
 10
432.8467283906592
 20
159.9253622187094
 30
0.0
 11
432.2717283897491
 21
159.9253622187094
 31
0.0
  0
LINE
  5
1CBF
330
2
100
AcDbEntity
  8
0
100
AcDbLine
 10
430.52948856704
 20
160.9948037560869
 30
0.0
 11
430.5092283902041
 21
161.2057805015485
 31
0.0
  0
LINE
  5
1CC0
330
2
100
AcDbEntity
  8
0
100
AcDbLine
 10
434.5889682133682
 20
160.9948037560869
 30
0.0
 11
434.6092283902041
 21
161.2057805015485
 31
0.0
  0
ARC
  5
1CC1
330
2
100
AcDbEntity
  8
0
100
AcDbCircle
 10
432.559228390204
 20
152.4423622187093
 30
0.0
 40
9.0
100
AcDbArc
 50
74.11914999172243
 51
105.8808500082775
  0
LINE
  5
1CC2
330
2
100
AcDbEntity
  8
0
100
AcDbLine
 10
433.8971372062303
 20
161.3423622187093
 30
0.0
 11
435.0592133902041
 21
161.3423622187093
 31
0.0
  0
LINE
  5
1CE4
330
2
100
AcDbEntity
  8
0
100
AcDbLine
 10
97.96557150508682
 20
335.6698562187093
 30
0.0
 11
138.0654705050868
 21
335.6698562187092
 31
0.0
  0
LINE
  5
1CE5
330
2
100
AcDbEntity
  8
0
100
AcDbLine
 10
97.56557050508684
 20
337.0698652187093
 30
0.0
 11
143.5654705050868
 21
337.0698652187092
 31
0.0
  0
ARC
  5
1CE7
330
2
100
AcDbEntity
  8
0
100
AcDbCircle
 10
94.56558550508679
 20
318.5698652187093
 30
0.0
 40
1.0
100
AcDbArc
 50
90.0
 51
180.0
  0
ARC
  5
1CE8
330
2
100
AcDbEntity
  8
0
100
AcDbCircle
 10
94.56557050508672
 20
305.5698652187093
 30
0.0
 40
1.0
100
AcDbArc
 50
180.0
 51
270.0
  0
LINE
  5
1CE9
330
2
100
AcDbEntity
  8
0
100
AcDbLine
 10
93.56557050508683
 20
305.5698652187093
 30
0.0
 11
93.56557050508683
 21
318.5698652187093
 31
0.0
  0
LINE
  5
1CEA
330
2
100
AcDbEntity
  8
0
100
AcDbLine
 10
90.06557050508684
 20
314.0698652187093
 30
0.0
 11
90.06557050508684
 21
310.0698652187093
 31
0.0
  0
LINE
  5
1CEB
330
2
100
AcDbEntity
  8
0
100
AcDbLine
 10
93.56557050508683
 20
306.5698652187093
 30
0.0
 11
90.06557050508684
 21
310.0698652187093
 31
0.0
  0
LINE
  5
1CEC
330
2
100
AcDbEntity
  8
0
100
AcDbLine
 10
90.06557050508684
 20
314.0698652187093
 30
0.0
 11
93.56557050508683
 21
317.5698652187093
 31
0.0
  0
LINE
  5
1CED
330
2
100
AcDbEntity
  8
0
100
AcDbLine
 10
94.56557050508683
 20
304.5698652187093
 30
0.0
 11
95.56557050508684
 21
304.5698652187093
 31
0.0
  0
LINE
  5
1CEE
330
2
100
AcDbEntity
  8
0
100
AcDbLine
 10
94.56557050508683
 20
319.5698652187093
 30
0.0
 11
95.56557050508684
 21
319.5698652187093
 31
0.0
  0
LINE
  5
1CEF
330
2
100
AcDbEntity
  8
0
100
AcDbLine
 10
95.56557050508684
 20
335.0698652187093
 30
0.0
 11
97.56557050508684
 21
337.0698652187093
 31
0.0
  0
LINE
  5
1CF0
330
2
100
AcDbEntity
  8
0
100
AcDbLine
 10
96.96556450508683
 20
334.6698562187093
 30
0.0
 11
97.96557150508682
 21
335.6698562187093
 31
0.0
  0
ARC
  5
1CF1
330
2
100
AcDbEntity
  8
0
100
AcDbCircle
 10
142.0656695050868
 20
333.5698652187093
 30
0.0
 40
4.0
100
AcDbArc
 50
180.0
 51
270.0
  0
CIRCLE
  5
1CF2
330
2
100
AcDbEntity
  8
0
100
AcDbCircle
 10
142.0656695050868
 20
333.5698652187093
 30
0.0
 40
3.500000000000028
  0
LINE
  5
1CF3
330
2
100
AcDbEntity
  8
0
100
AcDbLine
 10
138.0654705050868
 20
333.5698652187092
 30
0.0
 11
138.0654705050868
 21
337.0698652187092
 31
0.0
  0
LINE
  5
1CF4
330
2
100
AcDbEntity
  8
0
100
AcDbLine
 10
145.5654705050868
 20
335.0698652187092
 30
0.0
 11
143.5654705050868
 21
337.0698652187092
 31
0.0
  0
LINE
  5
1CF5
330
2
100
AcDbEntity
  8
0
100
AcDbLine
 10
143.5654705050868
 20
337.0698652187092
 30
0.0
 11
145.5654705050868
 21
335.0698652187092
 31
0.0
  0
ARC
  5
1CF6
330
2
100
AcDbEntity
  8
0
100
AcDbCircle
 10
142.0656695050868
 20
333.5698652187093
 30
0.0
 40
2.049999999999998
100
AcDbArc
 50
90.0
 51
98.06196008398188
  0
ARC
  5
1CF7
330
2
100
AcDbEntity
  8
0
100
AcDbCircle
 10
142.0656695050868
 20
333.5698652187093
 30
0.0
 40
2.049999999999998
100
AcDbArc
 50
81.93803991601813
 51
90.0
  0
LINE
  5
1CF8
330
2
100
AcDbEntity
  8
0
100
AcDbLine
 10
142.0654705050868
 20
329.5698652187092
 30
0.0
 11
145.5654705050868
 21
329.5698652187092
 31
0.0
  0
ARC
  5
1CF9
330
2
100
AcDbEntity
  8
0
100
AcDbCircle
 10
142.0656695050868
 20
333.5698652187093
 30
0.0
 40
2.049999999999998
100
AcDbArc
 50
261.9380399160181
 51
270.0
  0
ARC
  5
1CFA
330
2
100
AcDbEntity
  8
0
100
AcDbCircle
 10
142.0656695050868
 20
333.5698652187093
 30
0.0
 40
2.049999999999998
100
AcDbArc
 50
270.0
 51
278.0619600839818
  0
ARC
  5
1CFB
330
2
100
AcDbEntity
  8
0
100
AcDbCircle
 10
142.0656695050868
 20
333.5698652187093
 30
0.0
 40
2.049999999999998
100
AcDbArc
 50
0.0
 51
8.061960083981649
  0
ARC
  5
1CFC
330
2
100
AcDbEntity
  8
0
100
AcDbCircle
 10
144.0953695050869
 20
331.5401652187092
 30
0.0
 40
1.742199999999999
100
AcDbArc
 50
89.99869033450025
 51
180.0013096654997
  0
ARC
  5
1CFD
330
2
100
AcDbEntity
  8
0
100
AcDbCircle
 10
142.0656695050868
 20
333.5698652187093
 30
0.0
 40
2.049999999999998
100
AcDbArc
 50
351.9380399160183
 51
0.0
  0
ARC
  5
1CFE
330
2
100
AcDbEntity
  8
0
100
AcDbCircle
 10
144.0953695050869
 20
335.5995652187092
 30
0.0
 40
1.742199999999999
100
AcDbArc
 50
179.9986903345002
 51
270.0013096654932
  0
ARC
  5
1CFF
330
2
100
AcDbEntity
  8
0
100
AcDbCircle
 10
142.0656695050868
 20
333.5698652187093
 30
0.0
 40
2.049999999999998
100
AcDbArc
 50
171.9380399160183
 51
180.0
  0
ARC
  5
1D00
330
2
100
AcDbEntity
  8
0
100
AcDbCircle
 10
142.0656695050868
 20
333.5698652187093
 30
0.0
 40
2.049999999999998
100
AcDbArc
 50
180.0
 51
188.0619600839816
  0
ARC
  5
1D01
330
2
100
AcDbEntity
  8
0
100
AcDbCircle
 10
140.0359695050868
 20
331.5401652187092
 30
0.0
 40
1.742199999999999
100
AcDbArc
 50
359.9986903345002
 51
90.00130966549322
  0
ARC
  5
1D02
330
2
100
AcDbEntity
  8
0
100
AcDbCircle
 10
140.0359695050868
 20
335.5995652187092
 30
0.0
 40
1.742199999999999
100
AcDbArc
 50
269.9986903345002
 51
0.0013096654997424
  0
LINE
  5
1DDE
330
2
100
AcDbEntity
  8
0
100
AcDbLine
 10
95.06557750508676
 20
319.5698652187093
 30
0.0
 11
95.06557750508676
 21
352.0698652187093
 31
0.0
  0
ENDSEC
  0
SECTION
  2
OBJECTS
  0
DICTIONARY
  5
7
330
0
100
AcDbDictionary
  3
ACAD_GROUP
350
75
  3
ACAD_LAYOUT
350
61
  3
ACAD_MLINESTYLE
350
76
  3
ACAD_PLOTSETTINGS
350
77
  3
ACAD_PLOTSTYLENAME
350
6
  3
ACADDIM
350
480
  3
ACDBHEADERROUNDTRIPXREC
350
1E4E
  3
ACDBVARIABLEDICTIONARY
350
102
  3
DWGPROPS
350
3D2
  0
DICTIONARY
  5
1E6F
330
2
100
AcDbDictionary
280
     1
  3
ACAD_LAYOUTSELFREF
360
1E70
  0
DICTIONARY
  5
1E71
330
1E48
100
AcDbDictionary
280
     1
  3
ACAD_LAYOUTSELFREF
360
1E72
  0
DICTIONARY
  5
75
102
{ACAD_REACTORS
330
7
102
}
330
7
100
AcDbDictionary
  0
DICTIONARY
  5
61
102
{ACAD_REACTORS
330
7
102
}
330
7
100
AcDbDictionary
  0
DICTIONARY
  5
76
102
{ACAD_REACTORS
330
7
102
}
330
7
100
AcDbDictionary
  3
STANDARD
350
78
  0
DICTIONARY
  5
77
102
{ACAD_REACTORS
330
7
102
}
330
7
100
AcDbDictionary
  0
ACDBDICTIONARYWDFLT
  5
6
102
{ACAD_REACTORS
330
7
102
}
330
7
100
AcDbDictionary
281
     1
  3
Normal
350
5
100
AcDbDictionaryWithDefault
340
5
  0
XRECORD
  5
480
102
{ACAD_REACTORS
330
7
102
}
330
7
100
AcDbXrecord
 90
   990106
  3

 60
     0
 61
     0
 62
     1
 63
     3
 64
     1
 65
     0
 66
     0
 67
     3
 68
     1
 69
     0
 70
     0
 71
     0
 72
     0
 40
0.0
170
     2
340
0
  0
DICTIONARY
  5
1E4E
102
{ACAD_REACTORS
330
7
102
}
330
7
100
AcDbDictionary
  3
CEPSNTYPE
350
1E58
  3
DIMSTYLEDATA
350
1E5C
  3
FINGERPRINTGUID
350
1E59
  3
HYPERLINKBASE
350
1E51
  3
INSUNITS
350
1E57
  3
LAYOUTDICT
350
1E53
  3
LWETCUNION
350
1E56
  3
PLOTSETDICT
350
1E54
  3
PLOTSTYLNAMDICT
350
1E55
  3
PSVPSCALE
350
1E5B
  3
PUCSBASE
350
1E5F
  3
PUCSORGBACK
350
1E65
  3
PUCSORGBOTTOM
350
1E61
  3
PUCSORGFRONT
350
1E64
  3
PUCSORGLEFT
350
1E62
  3
PUCSORGRIGHT
350
1E63
  3
PUCSORGTOP
350
1E60
  3
PUCSORTHOREF
350
1E5D
  3
PUCSORTHOVIEW
350
1E5E
  3
STYLESHEET
350
1E52
  3
TSTACKALIGN
350
1E4F
  3
TSTACKSIZE
350
1E50
  3
UCSBASE
350
1E68
  3
UCSORGBACK
350
1E6E
  3
UCSORGBOTTOM
350
1E6A
  3
UCSORGFRONT
350
1E6D
  3
UCSORGLEFT
350
1E6B
  3
UCSORGRIGHT
350
1E6C
  3
UCSORGTOP
350
1E69
  3
UCSORTHOREF
350
1E66
  3
UCSORTHOVIEW
350
1E67
  3
VERSIONGUID
350
1E5A
  0
DICTIONARY
  5
102
102
{ACAD_REACTORS
330
7
102
}
330
7
100
AcDbDictionary
  3
DIMASSOC
350
103
  0
XRECORD
  5
3D2
102
{ACAD_REACTORS
330
7
102
}
330
7
100
AcDbXrecord
  1
DWGPROPS COOKIE
  2

  3

  4

  6

  7

  8

  9

300
=
301
=
302
=
303
=
304
=
305
=
306
=
307
=
308
=
309
=
 40
0.5353330671296296
 41
2452052.431989363
 42
2453406.550756377
  1

 90
        0
  0
XRECORD
  5
1E70
102
{ACAD_REACTORS
330
1E6F
102
}
330
1E6F
100
AcDbXrecord
340
2
  0
XRECORD
  5
1E72
102
{ACAD_REACTORS
330
1E71
102
}
330
1E71
100
AcDbXrecord
340
1E48
  0
MLINESTYLE
  5
78
102
{ACAD_REACTORS
330
76
102
}
330
76
100
AcDbMlineStyle
  2
STANDARD
 70
     0
  3

 62
     0
 51
90.0
 52
90.0
 71
     2
 49
0.5
 62
   256
  6
BYLAYER
 49
-0.5
 62
   256
  6
BYLAYER
  0
ACDBPLACEHOLDER
  5
5
102
{ACAD_REACTORS
330
6
102
}
330
6
100
AcDbPlaceHolder
280
     0
  0
XRECORD
  5
1E58
102
{ACAD_REACTORS
330
1E4E
102
}
330
1E4E
100
AcDbXrecord
 90
        0
  0
XRECORD
  5
1E5C
102
{ACAD_REACTORS
330
1E4E
102
}
330
1E4E
100
AcDbXrecord
1000
DSTYLE
1002
{
1070
   179
 70
     2
1070
   277
 70
     6
1002
}
  0
XRECORD
  5
1E59
102
{ACAD_REACTORS
330
1E4E
102
}
330
1E4E
100
AcDbXrecord
  1
{6385560B-F4B1-4644-A7C2-A3E32AC3D232}
  0
XRECORD
  5
1E51
102
{ACAD_REACTORS
330
1E4E
102
}
330
1E4E
100
AcDbXrecord
  1

  0
XRECORD
  5
1E57
102
{ACAD_REACTORS
330
1E4E
102
}
330
1E4E
100
AcDbXrecord
 90
        0
  0
XRECORD
  5
1E53
102
{ACAD_REACTORS
330
1E4E
102
}
330
1E4E
100
AcDbXrecord
340
61
  0
XRECORD
  5
1E56
102
{ACAD_REACTORS
330
1E4E
102
}
330
1E4E
100
AcDbXrecord
 90
    10781
  0
XRECORD
  5
1E54
102
{ACAD_REACTORS
330
1E4E
102
}
330
1E4E
100
AcDbXrecord
340
77
  0
XRECORD
  5
1E55
102
{ACAD_REACTORS
330
1E4E
102
}
330
1E4E
100
AcDbXrecord
340
6
  0
XRECORD
  5
1E5B
102
{ACAD_REACTORS
330
1E4E
102
}
330
1E4E
100
AcDbXrecord
 40
0.0
  0
XRECORD
  5
1E5F
102
{ACAD_REACTORS
330
1E4E
102
}
330
1E4E
100
AcDbXrecord
340
0
  0
XRECORD
  5
1E65
102
{ACAD_REACTORS
330
1E4E
102
}
330
1E4E
100
AcDbXrecord
 10
0.0
 20
0.0
 30
0.0
  0
XRECORD
  5
1E61
102
{ACAD_REACTORS
330
1E4E
102
}
330
1E4E
100
AcDbXrecord
 10
0.0
 20
0.0
 30
0.0
  0
XRECORD
  5
1E64
102
{ACAD_REACTORS
330
1E4E
102
}
330
1E4E
100
AcDbXrecord
 10
0.0
 20
0.0
 30
0.0
  0
XRECORD
  5
1E62
102
{ACAD_REACTORS
330
1E4E
102
}
330
1E4E
100
AcDbXrecord
 10
0.0
 20
0.0
 30
0.0
  0
XRECORD
  5
1E63
102
{ACAD_REACTORS
330
1E4E
102
}
330
1E4E
100
AcDbXrecord
 10
0.0
 20
0.0
 30
0.0
  0
XRECORD
  5
1E60
102
{ACAD_REACTORS
330
1E4E
102
}
330
1E4E
100
AcDbXrecord
 10
0.0
 20
0.0
 30
0.0
  0
XRECORD
  5
1E5D
102
{ACAD_REACTORS
330
1E4E
102
}
330
1E4E
100
AcDbXrecord
340
0
  0
XRECORD
  5
1E5E
102
{ACAD_REACTORS
330
1E4E
102
}
330
1E4E
100
AcDbXrecord
 70
     0
  0
XRECORD
  5
1E52
102
{ACAD_REACTORS
330
1E4E
102
}
330
1E4E
100
AcDbXrecord
  1
Sekkei.ctb
  0
XRECORD
  5
1E4F
102
{ACAD_REACTORS
330
1E4E
102
}
330
1E4E
100
AcDbXrecord
 90
        1
  0
XRECORD
  5
1E50
102
{ACAD_REACTORS
330
1E4E
102
}
330
1E4E
100
AcDbXrecord
 90
       70
  0
XRECORD
  5
1E68
102
{ACAD_REACTORS
330
1E4E
102
}
330
1E4E
100
AcDbXrecord
340
0
  0
XRECORD
  5
1E6E
102
{ACAD_REACTORS
330
1E4E
102
}
330
1E4E
100
AcDbXrecord
 10
0.0
 20
0.0
 30
0.0
  0
XRECORD
  5
1E6A
102
{ACAD_REACTORS
330
1E4E
102
}
330
1E4E
100
AcDbXrecord
 10
0.0
 20
0.0
 30
0.0
  0
XRECORD
  5
1E6D
102
{ACAD_REACTORS
330
1E4E
102
}
330
1E4E
100
AcDbXrecord
 10
0.0
 20
0.0
 30
0.0
  0
XRECORD
  5
1E6B
102
{ACAD_REACTORS
330
1E4E
102
}
330
1E4E
100
AcDbXrecord
 10
0.0
 20
0.0
 30
0.0
  0
XRECORD
  5
1E6C
102
{ACAD_REACTORS
330
1E4E
102
}
330
1E4E
100
AcDbXrecord
 10
0.0
 20
0.0
 30
0.0
  0
XRECORD
  5
1E69
102
{ACAD_REACTORS
330
1E4E
102
}
330
1E4E
100
AcDbXrecord
 10
0.0
 20
0.0
 30
0.0
  0
XRECORD
  5
1E66
102
{ACAD_REACTORS
330
1E4E
102
}
330
1E4E
100
AcDbXrecord
340
0
  0
XRECORD
  5
1E67
102
{ACAD_REACTORS
330
1E4E
102
}
330
1E4E
100
AcDbXrecord
 70
     0
  0
XRECORD
  5
1E5A
102
{ACAD_REACTORS
330
1E4E
102
}
330
1E4E
100
AcDbXrecord
  1
{0C7F065A-565E-4097-86C6-A455148BDD1C}
  0
DICTIONARYVAR
  5
103
102
{ACAD_REACTORS
330
102
102
}
330
102
100
DictionaryVariables
280
     0
  1
1
  0
ENDSEC
  0
EOF
