  0
SECTION
  2
HEADER
  9
$CLAYER
  8
1
  9
$LTSCALE
 40
3.0
  0
ENDSEC
  0
SECTION
  2
TABLES
  0
TABLE
  2
LTYPE
 70
     4
  0
LTYPE
  2
CONTINUOUS
  3
solid line
 70
    64
 72
    65
 73
     0
 40
0.0
  0
LTYPE
  2
DASHED
  3
__ __ __ __ __ __ __ __ __ __ __ __ __ __ __
 70
    64
 72
    65
 73
     2
 40
0.75
 49
0.5
 49
-0.25
  0
LTYPE
  2
CENTER
  3
____ _ ____ _ ____ _ ____ _ ____ _ ____ _ ____
 70
    64
 72
    65
 73
     4
 40
2.0
 49
1.25
 49
-0.25
 49
0.25
 49
-0.25
  0
LTYPE
  2
PHANTOM
  3
_____ _ _ _____ _ _ _____ _ _ _____ _ _ ____
 70
    64
 72
    65
 73
     6
 40
2.5
 49
1.25
 49
-0.25
 49
0.25
 49
-0.25
 49
0.25
 49
-0.25
  0
ENDTAB
  0
TABLE
  2
LAYER
 70
     1
  0
LAYER
  2
0
 70
    64
 62
     7
  6
CONTINUOUS
  0
ENDTAB
  0
TABLE
  2
STYLE
 70
     1
  0
STYLE
  2
STANDARD
 70
     0
 40
0.000000
 41
1.000000
 50
0.000000
 71
     0
 42
3.000000
  3
txt
  4
BIGFONT
  0
ENDTAB
  0
ENDSEC
  0
SECTION
  2
BLOCKS
  0
ENDSEC
  0
SECTION
  2
ENTITIES
  0
LINE
  8
0
  6
CONTINUOUS
 10
51.757500
 20
84.992500
 11
61.257500
 21
84.992500
  0
LINE
  8
0
  6
CONTINUOUS
 10
51.757500
 20
8.992500
 11
61.257500
 21
8.992500
  0
LINE
  8
0
  6
CONTINUOUS
 10
51.757500
 20
6.992500
 11
51.757500
 21
86.992500
  0
LINE
  8
0
  6
CONTINUOUS
 10
61.757500
 20
86.492500
 11
61.757500
 21
84.992500
  0
LINE
  8
0
  6
CONTINUOUS
 10
54.757500
 20
86.492500
 11
54.757500
 21
84.992500
  0
LINE
  8
0
  6
CONTINUOUS
 10
54.757500
 20
86.492500
 11
61.757500
 21
86.492500
  0
LINE
  8
0
  6
CONTINUOUS
 10
59.157509
 20
99.492500
 11
59.157509
 21
86.492500
  0
LINE
  8
0
  6
CONTINUOUS
 10
57.357498
 20
100.117500
 11
57.357498
 21
86.492500
  0
LINE
  8
0
  6
CONTINUOUS
 10
55.557499
 20
98.055000
 11
55.557499
 21
86.492500
  0
LINE
  8
0
  6
CONTINUOUS
 10
60.957500
 20
98.867500
 11
60.957500
 21
86.492500
  0
LINE
  8
0
  6
CONTINUOUS
 10
57.357498
 20
100.117500
 11
59.157509
 21
99.492500
  0
LINE
  8
0
  6
CONTINUOUS
 10
55.557499
 20
98.055000
 11
57.357498
 21
98.680000
  0
LINE
  8
0
  6
CONTINUOUS
 10
60.957500
 20
98.867500
 11
59.158508
 21
98.419792
  0
LINE
  8
0
  6
CONTINUOUS
 10
51.757500
 20
77.241501
 11
61.257500
 21
77.241501
  0
LINE
  8
0
  6
CONTINUOUS
 10
51.757500
 20
16.743500
 11
61.257500
 21
16.743500
  0
LINE
  8
0
  6
CONTINUOUS
 10
7.757500
 20
86.992500
 11
51.757500
 21
86.992500
  0
LINE
  8
0
  6
CONTINUOUS
 10
7.757500
 20
6.992500
 11
51.757500
 21
6.992500
  0
LINE
  8
0
  6
CONTINUOUS
 10
2.757500
 20
11.992500
 11
2.757500
 21
81.992500
  0
ARC
  8
0
  6
CONTINUOUS
 10
7.757520
 20
81.992523
 40
5.000000
 50
90.000000
 51
180.000000
  0
ARC
  8
0
  6
CONTINUOUS
 10
7.757500
 20
11.992500
 40
5.000000
 50
180.000000
 51
270.000000
  0
LINE
  8
0
  6
CONTINUOUS
 10
5.257500
 20
72.992500
 11
51.757500
 21
72.992500
  0
LINE
  8
0
  6
CONTINUOUS
 10
5.257500
 20
22.992500
 11
51.757500
 21
22.992500
  0
LINE
  8
0
  6
CONTINUOUS
 10
61.257500
 20
8.992500
 11
61.257500
 21
84.992500
  0
LINE
  8
0
  6
CENTER
 10
-6.700000
 20
46.992500
 11
151.557495
 21
46.992500
  0
LINE
  8
0
  6
CONTINUOUS
 10
61.257500
 20
84.992500
 11
134.177505
 21
84.992500
  0
LINE
  8
0
  6
CONTINUOUS
 10
131.757507
 20
8.992500
 11
61.257500
 21
8.992500
  0
LINE
  8
0
  6
CONTINUOUS
 10
144.257507
 20
5.292500
 11
208.257507
 21
5.292500
  0
LINE
  8
0
  6
CONTINUOUS
 10
144.257507
 20
107.292503
 11
208.257507
 21
107.292503
  0
LINE
  8
0
  6
CONTINUOUS
 10
133.757507
 20
81.992500
 11
133.757507
 21
30.592501
  0
LINE
  8
0
  6
CENTER
 10
176.257507
 20
119.680000
 11
176.257507
 21
-3.945000
  0
LINE
  8
0
  6
CENTER
 10
208.257507
 20
19.430000
 11
208.257507
 21
7.930000
  0
LINE
  8
0
  6
CENTER
 10
202.413803
 20
13.292500
 11
214.663803
 21
13.292500
  0
CIRCLE
  8
0
  6
CONTINUOUS
 10
208.257507
 20
13.292500
 40
3.250000
  0
LINE
  8
0
  6
CENTER
 10
208.257507
 20
93.154999
 11
208.257507
 21
104.654999
  0
LINE
  8
0
  6
CENTER
 10
202.413803
 20
99.292503
 11
214.663803
 21
99.292503
  0
CIRCLE
  8
0
  6
CONTINUOUS
 10
208.257507
 20
99.292503
 40
3.250000
  0
LINE
  8
0
  6
CENTER
 10
144.257507
 20
93.154999
 11
144.257507
 21
104.654999
  0
LINE
  8
0
  6
CENTER
 10
150.101303
 20
99.292503
 11
137.851303
 21
99.292503
  0
CIRCLE
  8
0
  6
CONTINUOUS
 10
144.257507
 20
99.292503
 40
3.250000
  0
LINE
  8
0
  6
CENTER
 10
144.257507
 20
19.430000
 11
144.257507
 21
7.930000
  0
LINE
  8
0
  6
CENTER
 10
150.101303
 20
13.292500
 11
137.851303
 21
13.292500
  0
CIRCLE
  8
0
  6
CONTINUOUS
 10
144.257507
 20
13.292500
 40
3.250000
  0
LINE
  8
0
  6
CONTINUOUS
 10
216.257507
 20
70.653900
 11
216.257507
 21
41.931362
  0
LINE
  8
0
  6
CONTINUOUS
 10
136.257507
 20
70.653770
 11
136.257507
 21
41.930962
  0
ARC
  8
0
  6
CONTINUOUS
 10
176.257507
 20
56.292500
 40
42.500000
 50
19.749901
 51
160.250107
  0
ARC
  8
0
  6
CONTINUOUS
 10
176.257507
 20
56.292500
 40
42.500000
 50
199.749893
 51
340.250092
  0
LINE
  8
0
  6
CONTINUOUS
 10
218.757507
 20
81.992500
 11
218.757507
 21
30.592510
  0
LINE
  8
0
  6
CONTINUOUS
 10
216.180206
 20
100.401657
 11
218.757507
 21
81.992500
  0
LINE
  8
0
  6
CONTINUOUS
 10
216.180206
 20
12.183380
 11
218.757507
 21
30.592510
  0
LINE
  8
0
  6
CONTINUOUS
 10
136.334793
 20
12.183300
 11
133.757507
 21
30.592501
  0
LINE
  8
0
  6
CONTINUOUS
 10
136.334793
 20
100.401649
 11
133.757507
 21
81.992500
  0
LINE
  8
0
  6
CENTER
 10
145.520004
 20
69.292503
 11
206.443756
 21
69.292503
  0
LINE
  8
0
  6
CONTINUOUS
 10
185.757507
 20
71.792503
 11
185.757507
 21
66.792503
  0
LINE
  8
0
  6
CONTINUOUS
 10
180.757507
 20
66.792503
 11
180.757507
 21
71.792503
  0
LINE
  8
0
  6
CONTINUOUS
 10
180.757507
 20
71.792503
 11
185.757507
 21
71.792503
  0
LINE
  8
0
  6
CONTINUOUS
 10
180.757507
 20
66.792503
 11
185.757507
 21
66.792503
  0
ARC
  8
0
  6
CONTINUOUS
 10
176.257507
 20
69.292503
 40
7.500000
 50
19.471201
 51
340.528809
  0
LINE
  8
0
  6
CONTINUOUS
 10
156.257507
 20
103.292503
 11
196.257507
 21
103.292503
  0
LINE
  8
0
  6
CONTINUOUS
 10
156.257507
 20
9.292500
 11
196.257507
 21
9.292500
  0
LINE
  8
0
  6
CONTINUOUS
 10
213.882599
 20
87.962997
 11
216.281799
 21
70.825928
  0
LINE
  8
0
  6
CONTINUOUS
 10
216.259903
 20
41.602234
 11
213.882599
 21
24.622000
  0
LINE
  8
0
  6
CONTINUOUS
 10
136.307999
 20
41.224579
 11
138.632401
 21
24.622009
  0
LINE
  8
0
  6
CONTINUOUS
 10
138.632401
 20
87.962990
 11
136.174194
 21
70.404182
  0
ARC
  8
0
  6
CONTINUOUS
 10
196.257507
 20
99.292503
 40
4.000000
 50
0.000000
 51
90.000000
  0
ARC
  8
0
  6
CONTINUOUS
 10
156.257507
 20
99.292503
 40
4.000000
 50
90.000000
 51
180.000000
  0
ARC
  8
0
  6
CONTINUOUS
 10
196.257507
 20
13.292500
 40
4.000000
 50
-90.000000
 51
0.000000
  0
ARC
  8
0
  6
CONTINUOUS
 10
156.257507
 20
13.292500
 40
4.000000
 50
-180.000000
 51
-90.000000
  0
ARC
  8
0
  6
CONTINUOUS
 10
209.921295
 20
87.408401
 40
4.000000
 50
7.969701
 51
97.969757
  0
ARC
  8
0
  6
CONTINUOUS
 10
208.257507
 20
99.292503
 40
8.000000
 50
180.000000
 51
277.969513
  0
ARC
  8
0
  6
CONTINUOUS
 10
208.257507
 20
99.292503
 40
8.000000
 50
7.969647
 51
90.000000
  0
ARC
  8
0
  6
CONTINUOUS
 10
142.593704
 20
87.408401
 40
4.000000
 50
82.030243
 51
172.030304
  0
ARC
  8
0
  6
CONTINUOUS
 10
209.921295
 20
25.176600
 40
4.000000
 50
-97.969757
 51
-7.969701
  0
ARC
  8
0
  6
CONTINUOUS
 10
142.593704
 20
25.176600
 40
4.000000
 50
-172.030304
 51
-82.030243
  0
ARC
  8
0
  6
CONTINUOUS
 10
144.257507
 20
99.292503
 40
8.000000
 50
90.000000
 51
172.030502
  0
ARC
  8
0
  6
CONTINUOUS
 10
144.257507
 20
99.292503
 40
8.000000
 50
-97.969597
 51
0.000000
  0
ARC
  8
0
  6
CONTINUOUS
 10
144.257507
 20
13.292500
 40
8.000000
 50
0.000000
 51
97.969818
  0
ARC
  8
0
  6
CONTINUOUS
 10
144.257507
 20
13.292500
 40
8.000000
 50
187.969604
 51
270.000000
  0
ARC
  8
0
  6
CONTINUOUS
 10
208.257507
 20
13.292500
 40
8.000000
 50
270.000000
 51
352.030304
  0
ARC
  8
0
  6
CONTINUOUS
 10
208.257507
 20
13.292500
 40
8.000000
 50
82.030350
 51
180.000000
  0
LINE
  8
0
  6
CONTINUOUS
 10
133.757507
 20
10.992500
 11
133.757507
 21
16.992510
  0
ARC
  8
0
  6
CONTINUOUS
 10
131.757507
 20
10.992500
 40
2.000000
 50
-90.000000
 51
0.000000
  0
ARC
  8
0
  6
CONTINUOUS
 10
138.757507
 20
16.992519
 40
5.000000
 50
135.792801
 51
180.000000
  0
LINE
  8
0
  6
CONTINUOUS
 10
61.257500
 20
77.241470
 11
133.007507
 21
77.241470
  0
LINE
  8
0
  6
CONTINUOUS
 10
61.257500
 20
16.743540
 11
133.257507
 21
16.743540
  0
CIRCLE
  8
0
  6
CONTINUOUS
 10
176.257507
 20
69.292503
 40
20.000000
  0
LINE
  8
0
  6
CONTINUOUS
 10
169.882507
 20
36.845730
 11
169.882507
 21
31.292500
  0
LINE
  8
0
  6
CONTINUOUS
 10
173.070007
 20
38.862816
 11
173.070007
 21
40.855003
  0
LINE
  8
0
  6
CONTINUOUS
 10
179.445007
 20
38.862816
 11
179.445007
 21
40.855003
  0
LINE
  8
0
  6
CONTINUOUS
 10
175.634903
 20
39.684593
 11
175.634903
 21
32.338402
  0
LINE
  8
0
  6
CONTINUOUS
 10
176.830307
 20
39.684593
 11
176.830307
 21
32.338402
  0
LINE
  8
0
  6
CONTINUOUS
 10
183.105606
 20
39.684593
 11
183.105606
 21
32.288601
  0
LINE
  8
0
  6
CONTINUOUS
 10
184.201294
 20
35.762470
 11
184.201294
 21
32.288601
  0
LINE
  8
0
  6
CONTINUOUS
 10
168.369995
 20
39.584984
 11
165.298096
 21
39.584984
  0
LINE
  8
0
  6
CONTINUOUS
 10
165.298096
 20
39.584984
 11
164.578293
 21
38.692474
  0
LINE
  8
0
  6
CONTINUOUS
 10
164.664902
 20
40.855003
 11
163.507507
 21
39.373001
  0
LINE
  8
0
  6
CONTINUOUS
 10
164.578293
 20
33.183418
 11
165.309601
 21
32.413109
  0
LINE
  8
0
  6
CONTINUOUS
 10
163.507507
 20
32.533360
 11
164.737305
 21
31.292500
  0
LINE
  8
0
  6
CONTINUOUS
 10
163.507507
 20
39.373001
 11
163.507507
 21
32.533360
  0
LINE
  8
0
  6
CONTINUOUS
 10
164.578293
 20
38.692474
 11
164.578293
 21
33.183418
  0
LINE
  8
0
  6
CONTINUOUS
 10
168.961105
 20
39.013535
 11
168.357895
 21
39.584984
  0
LINE
  8
0
  6
CONTINUOUS
 10
168.951508
 20
40.855003
 11
169.882507
 21
39.821861
  0
LINE
  8
0
  6
CONTINUOUS
 10
168.961105
 20
38.862816
 11
169.882507
 21
38.862816
  0
LINE
  8
0
  6
CONTINUOUS
 10
164.664902
 20
40.855003
 11
168.951508
 21
40.855003
  0
LINE
  8
0
  6
CONTINUOUS
 10
168.961105
 20
35.799831
 11
167.292694
 21
35.799831
  0
LINE
  8
0
  6
CONTINUOUS
 10
168.961105
 20
34.803730
 11
168.961105
 21
35.600609
  0
LINE
  8
0
  6
CONTINUOUS
 10
166.968903
 20
32.413109
 11
165.309601
 21
32.413109
  0
ARC
  8
0
  6
CONTINUOUS
 10
166.968903
 20
34.405289
 40
1.992187
 50
-89.999786
 51
0.000109
  0
LINE
  8
0
  6
CONTINUOUS
 10
168.961105
 20
32.054760
 11
168.961105
 21
31.292500
  0
LINE
  8
0
  6
CONTINUOUS
 10
169.882507
 20
39.821861
 11
169.882507
 21
38.862816
  0
LINE
  8
0
  6
CONTINUOUS
 10
168.961105
 20
35.799831
 11
168.961105
 21
34.405289
  0
LINE
  8
0
  6
CONTINUOUS
 10
167.292694
 20
36.845730
 11
167.292694
 21
35.799831
  0
LINE
  8
0
  6
CONTINUOUS
 10
168.961105
 20
31.292500
 11
169.882507
 21
31.292500
  0
LINE
  8
0
  6
CONTINUOUS
 10
168.961105
 20
32.054760
 11
168.052597
 21
31.292500
  0
LINE
  8
0
  6
CONTINUOUS
 10
176.830307
 20
32.338402
 11
177.228699
 21
32.338402
  0
LINE
  8
0
  6
CONTINUOUS
 10
175.161804
 20
32.338402
 11
175.161804
 21
31.292500
  0
LINE
  8
0
  6
CONTINUOUS
 10
177.228699
 20
32.338402
 11
177.228699
 21
31.292500
  0
LINE
  8
0
  6
CONTINUOUS
 10
178.779999
 20
38.862816
 11
179.445007
 21
38.862816
  0
LINE
  8
0
  6
CONTINUOUS
 10
173.070007
 20
38.862816
 11
173.777603
 21
38.862816
  0
LINE
  8
0
  6
CONTINUOUS
 10
173.070007
 20
40.855003
 11
179.445007
 21
40.855003
  0
LINE
  8
0
  6
CONTINUOUS
 10
175.161804
 20
31.292500
 11
177.228699
 21
31.292500
  0
LINE
  8
0
  6
CONTINUOUS
 10
175.161804
 20
32.338402
 11
175.634903
 21
32.338402
  0
ARC
  8
0
  6
CONTINUOUS
 10
186.455002
 20
38.302513
 40
2.552490
 50
-73.981873
 51
90.003510
  0
ARC
  8
0
  6
CONTINUOUS
 10
186.455002
 20
38.302513
 40
1.557193
 50
-82.585274
 51
62.411850
  0
LINE
  8
0
  6
CONTINUOUS
 10
182.632507
 20
40.855003
 11
186.455002
 21
40.855003
  0
LINE
  8
0
  6
CONTINUOUS
 10
182.632507
 20
40.855003
 11
182.632507
 21
39.684593
  0
LINE
  8
0
  6
CONTINUOUS
 10
184.201294
 20
39.684593
 11
184.201294
 21
36.758339
  0
LINE
  8
0
  6
CONTINUOUS
 10
187.159302
 20
35.849121
 11
188.739197
 21
32.288601
  0
LINE
  8
0
  6
CONTINUOUS
 10
186.241806
 20
35.762470
 11
187.736801
 21
32.288601
  0
LINE
  8
0
  6
CONTINUOUS
 10
182.632507
 20
32.288601
 11
183.105606
 21
32.288601
  0
LINE
  8
0
  6
CONTINUOUS
 10
184.201294
 20
32.288601
 11
184.637100
 21
32.288601
  0
LINE
  8
0
  6
CONTINUOUS
 10
184.637100
 20
31.292500
 11
182.632507
 21
31.292500
  0
LINE
  8
0
  6
CONTINUOUS
 10
187.538300
 20
32.288601
 11
187.736801
 21
32.288601
  0
LINE
  8
0
  6
CONTINUOUS
 10
188.739197
 20
32.288601
 11
189.007507
 21
32.288601
  0
LINE
  8
0
  6
CONTINUOUS
 10
187.538300
 20
31.292500
 11
189.007507
 21
31.292500
  0
LINE
  8
0
  6
CONTINUOUS
 10
189.007507
 20
32.288601
 11
189.007507
 21
31.292500
  0
LINE
  8
0
  6
CONTINUOUS
 10
187.538300
 20
32.288601
 11
187.538300
 21
31.292500
  0
LINE
  8
0
  6
CONTINUOUS
 10
184.637100
 20
32.288601
 11
184.637100
 21
31.292500
  0
LINE
  8
0
  6
CONTINUOUS
 10
182.632507
 20
32.288601
 11
182.632507
 21
31.292500
  0
LINE
  8
0
  6
CONTINUOUS
 10
174.119995
 20
39.684593
 11
173.777603
 21
38.862816
  0
LINE
  8
0
  6
CONTINUOUS
 10
178.491302
 20
39.684593
 11
178.779999
 21
38.862816
  0
LINE
  8
0
  6
CONTINUOUS
 10
176.830307
 20
39.684593
 11
178.491302
 21
39.684593
  0
LINE
  8
0
  6
CONTINUOUS
 10
175.634903
 20
39.684593
 11
174.119995
 21
39.684593
  0
LINE
  8
0
  6
CONTINUOUS
 10
182.632507
 20
39.684593
 11
183.105606
 21
39.684593
  0
LINE
  8
0
  6
CONTINUOUS
 10
184.201294
 20
39.684593
 11
187.176193
 21
39.682648
  0
LINE
  8
0
  6
CONTINUOUS
 10
168.961105
 20
39.013535
 11
168.961105
 21
38.862816
  0
LINE
  8
0
  6
CONTINUOUS
 10
164.737305
 20
31.292500
 11
168.052597
 21
31.292500
  0
LINE
  8
0
  6
CONTINUOUS
 10
184.201294
 20
36.758339
 11
186.656006
 21
36.758339
  0
LINE
  8
0
  6
CONTINUOUS
 10
184.201294
 20
35.762470
 11
186.241806
 21
35.762470
  0
LINE
  8
0
  6
CONTINUOUS
 10
167.292694
 20
36.845730
 11
169.882507
 21
36.845730
  0
LINE
  8
0
  6
CENTER
 10
351.257507
 20
-2.695000
 11
351.257507
 21
111.805000
  0
LINE
  8
0
  6
CONTINUOUS
 10
382.257507
 20
13.240430
 11
382.257507
 21
99.327103
  0
LINE
  8
0
  6
CONTINUOUS
 10
386.257507
 20
50.292500
 11
386.257507
 21
88.292503
  0
LINE
  8
0
  6
CENTER
 10
278.523102
 20
69.292503
 11
424.023102
 21
69.292503
  0
LINE
  8
0
  6
CONTINUOUS
 10
385.257507
 20
89.292503
 11
384.257507
 21
89.292503
  0
LINE
  8
0
  6
CONTINUOUS
 10
385.257507
 20
49.292500
 11
384.257507
 21
49.292500
  0
LINE
  8
0
  6
CONTINUOUS
 10
380.292389
 20
101.326797
 11
322.222595
 21
102.340179
  0
LINE
  8
0
  6
CONTINUOUS
 10
380.292389
 20
11.240730
 11
322.222595
 21
10.226920
  0
ARC
  8
0
  6
CONTINUOUS
 10
380.257507
 20
99.327087
 40
2.000000
 50
0.000000
 51
89.000359
  0
ARC
  8
0
  6
CONTINUOUS
 10
380.257507
 20
13.240420
 40
2.000000
 50
-88.999634
 51
0.000000
  0
ARC
  8
0
  6
CONTINUOUS
 10
385.257507
 20
88.292503
 40
1.000000
 50
0.000000
 51
90.000000
  0
ARC
  8
0
  6
CONTINUOUS
 10
385.257507
 20
50.292496
 40
1.000000
 50
-90.000000
 51
0.000000
  0
LINE
  8
0
  6
CONTINUOUS
 10
320.257507
 20
27.592520
 11
320.257507
 21
6.792500
  0
LINE
  8
0
  6
CONTINUOUS
 10
311.257507
 20
107.292503
 11
319.106506
 21
107.292503
  0
LINE
  8
0
  6
CONTINUOUS
 10
318.722900
 20
5.292500
 11
311.257507
 21
5.292500
  0
LINE
  8
0
  6
CONTINUOUS
 10
323.758514
 20
81.992500
 11
380.288788
 21
81.992500
  0
LINE
  8
0
  6
CONTINUOUS
 10
323.257507
 20
30.592501
 11
380.820007
 21
30.592501
  0
ARC
  8
0
  6
CONTINUOUS
 10
318.757507
 20
6.792500
 40
1.500000
 50
-90.000000
 51
0.000000
  0
LINE
  8
0
  6
CONTINUOUS
 10
320.555389
 20
106.180717
 11
320.995209
 21
104.539360
  0
ARC
  8
0
  6
CONTINUOUS
 10
323.890594
 20
105.311539
 40
3.000000
 50
194.932602
 51
269.000610
  0
ARC
  8
0
  6
CONTINUOUS
 10
319.106506
 20
105.792503
 40
1.500000
 50
15.000070
 51
90.000000
  0
ARC
  8
0
  6
CONTINUOUS
 10
323.257507
 20
27.592520
 40
3.000000
 50
90.000000
 51
180.000000
  0
ARC
  8
0
  6
CONTINUOUS
 10
384.257507
 20
91.292503
 40
2.000000
 50
180.000000
 51
270.000000
  0
ARC
  8
0
  6
CONTINUOUS
 10
384.257507
 20
47.292507
 40
2.000000
 50
90.000000
 51
180.000000
  0
LINE
  8
0
  6
CONTINUOUS
 10
388.257507
 20
76.792503
 11
415.257507
 21
76.792503
  0
LINE
  8
0
  6
CONTINUOUS
 10
388.257507
 20
61.792500
 11
415.257507
 21
61.792500
  0
LINE
  8
0
  6
CONTINUOUS
 10
415.257507
 20
61.792500
 11
415.257507
 21
76.792503
  0
LINE
  8
0
  6
CONTINUOUS
 10
393.757507
 20
66.792503
 11
415.257507
 21
66.792503
  0
LINE
  8
0
  6
CONTINUOUS
 10
393.757507
 20
71.792503
 11
415.257507
 21
71.792503
  0
ARC
  8
0
  6
CONTINUOUS
 10
393.757507
 20
69.292511
 40
2.500000
 50
90.000000
 51
180.000000
  0
ARC
  8
0
  6
CONTINUOUS
 10
393.757507
 20
69.292503
 40
2.500000
 50
180.000000
 51
270.000000
  0
LINE
  8
0
  6
CENTER
 10
307.538788
 20
99.292503
 11
323.788788
 21
99.292503
  0
LINE
  8
0
  6
CENTER
 10
308.538788
 20
13.292500
 11
323.538788
 21
13.292500
  0
LINE
  8
0
  6
DASHED
 10
311.257507
 20
16.542500
 11
320.257507
 21
16.542500
  0
LINE
  8
0
  6
DASHED
 10
311.257507
 20
10.042500
 11
320.257507
 21
10.042500
  0
LINE
  8
0
  6
DASHED
 10
311.257507
 20
102.542503
 11
320.257507
 21
102.542503
  0
LINE
  8
0
  6
DASHED
 10
311.257507
 20
96.042503
 11
320.257507
 21
96.042503
  0
LINE
  8
0
  6
CONTINUOUS
 10
330.257507
 20
8.992500
 11
372.257507
 21
8.992500
  0
ARC
  8
0
  6
CONTINUOUS
 10
372.257507
 20
10.992500
 40
2.000000
 50
-90.000000
 51
0.000000
  0
ARC
  8
0
  6
CONTINUOUS
 10
330.257507
 20
10.992500
 40
2.000000
 50
199.216995
 51
270.000000
  0
LINE
  8
0
  6
CONTINUOUS
 10
374.257507
 20
10.992500
 11
374.257507
 21
11.135280
  0
ARC
  8
0
  6
CONTINUOUS
 10
351.257507
 20
46.992500
 40
38.000000
 50
-35.334469
 51
21.294241
  0
LINE
  8
0
  6
CONTINUOUS
 10
316.257507
 20
50.292500
 11
316.257507
 21
88.292503
  0
LINE
  8
0
  6
CONTINUOUS
 10
317.257507
 20
49.292500
 11
320.257507
 21
49.292500
  0
ARC
  8
0
  6
CONTINUOUS
 10
317.257507
 20
88.292503
 40
1.000000
 50
90.000000
 51
180.000000
  0
ARC
  8
0
  6
CONTINUOUS
 10
317.257507
 20
50.292496
 40
1.000000
 50
180.000000
 51
270.000000
  0
LINE
  8
0
  6
CONTINUOUS
 10
314.257507
 20
76.792503
 11
287.257507
 21
76.792503
  0
LINE
  8
0
  6
CONTINUOUS
 10
314.257507
 20
61.792500
 11
287.257507
 21
61.792500
  0
LINE
  8
0
  6
CONTINUOUS
 10
287.257507
 20
61.792500
 11
287.257507
 21
76.792503
  0
LINE
  8
0
  6
CONTINUOUS
 10
314.257507
 20
77.792503
 11
314.257507
 21
60.792500
  0
LINE
  8
0
  6
CONTINUOUS
 10
308.757507
 20
66.792503
 11
287.257507
 21
66.792503
  0
LINE
  8
0
  6
CONTINUOUS
 10
308.757507
 20
71.792503
 11
287.257507
 21
71.792503
  0
ARC
  8
0
  6
CONTINUOUS
 10
308.757507
 20
69.292511
 40
2.500000
 50
0.000000
 51
90.000000
  0
ARC
  8
0
  6
CONTINUOUS
 10
308.757507
 20
69.292503
 40
2.500000
 50
-90.000000
 51
0.000000
  0
LINE
  8
0
  6
CONTINUOUS
 10
311.257507
 20
5.292500
 11
311.257507
 21
61.792500
  0
LINE
  8
0
  6
CONTINUOUS
 10
311.257507
 20
107.292503
 11
311.257507
 21
76.792503
  0
LINE
  8
0
  6
CONTINUOUS
 10
317.257507
 20
89.292503
 11
320.257507
 21
89.292503
  0
LINE
  8
0
  6
CONTINUOUS
 10
311.257507
 20
92.502151
 11
317.148102
 21
91.289383
  0
LINE
  8
0
  6
CONTINUOUS
 10
317.148102
 20
91.289383
 11
322.398102
 21
88.039383
  0
LINE
  8
0
  6
CONTINUOUS
 10
322.398102
 20
88.039383
 11
322.898102
 21
82.914383
  0
LINE
  8
0
  6
CONTINUOUS
 10
322.898102
 20
82.914383
 11
324.648102
 21
81.039383
  0
LINE
  8
0
  6
CONTINUOUS
 10
324.648102
 20
81.039383
 11
325.023102
 21
77.414383
  0
LINE
  8
0
  6
CONTINUOUS
 10
325.023102
 20
77.414383
 11
325.398102
 21
71.789383
  0
LINE
  8
0
  6
CONTINUOUS
 10
325.398102
 20
71.789383
 11
326.148102
 21
66.539383
  0
LINE
  8
0
  6
CONTINUOUS
 10
326.148102
 20
66.539383
 11
324.148102
 21
60.164379
  0
LINE
  8
0
  6
CONTINUOUS
 10
324.148102
 20
60.164379
 11
324.773102
 21
53.664375
  0
LINE
  8
0
  6
CONTINUOUS
 10
324.773102
 20
53.664375
 11
323.273102
 21
47.914375
  0
LINE
  8
0
  6
CONTINUOUS
 10
323.273102
 20
47.914375
 11
319.148102
 21
44.789375
  0
LINE
  8
0
  6
CONTINUOUS
 10
319.148102
 20
44.789375
 11
314.273102
 21
44.164375
  0
LINE
  8
0
  6
CONTINUOUS
 10
314.273102
 20
44.164375
 11
311.257507
 21
42.935787
  0
LINE
  8
0
  6
CONTINUOUS
 10
388.257507
 20
77.792503
 11
388.257507
 21
60.792500
  0
LINE
  8
0
  6
CENTER
 10
304.871796
 20
46.992500
 11
392.994995
 21
46.992500
  0
LINE
  8
0
  6
CONTINUOUS
 10
320.257507
 20
106.754379
 11
320.257507
 21
45.629822
  0
LINE
  8
0
  6
CONTINUOUS
 10
386.257507
 20
77.792503
 11
388.257507
 21
77.792503
  0
LINE
  8
0
  6
CONTINUOUS
 10
386.257507
 20
60.792500
 11
388.257507
 21
60.792500
  0
LINE
  8
0
  6
CONTINUOUS
 10
314.257507
 20
77.792503
 11
316.257507
 21
77.792503
  0
LINE
  8
0
  6
CONTINUOUS
 10
314.257507
 20
60.792500
 11
316.257507
 21
60.792500
  0
ARC
  8
0
  6
CONTINUOUS
 10
322.257507
 20
104.339890
 40
2.000000
 50
180.000000
 51
269.000610
  0
ARC
  8
0
  6
CONTINUOUS
 10
322.257507
 20
8.227230
 40
2.000000
 50
91.000633
 51
180.000000
  0
LINE
  8
0
  6
CONTINUOUS
 10
320.654694
 20
6.774860
 11
320.991486
 21
8.032010
  0
ARC
  8
0
  6
CONTINUOUS
 10
318.722809
 20
7.292500
 40
2.000000
 50
270.000000
 51
345.000092
  0
ARC
  8
0
  6
CONTINUOUS
 10
323.889313
 20
7.255570
 40
3.000000
 50
91.000450
 51
165.000305
  0
LINE
  8
0
  6
CONTINUOUS
 10
391.257507
 20
23.992500
 11
391.257507
 21
61.792500
  0
LINE
  8
0
  6
CONTINUOUS
 10
374.257507
 20
6.992500
 11
329.328491
 21
6.992500
  0
LINE
  8
0
  6
CONTINUOUS
 10
382.257507
 20
18.595530
 11
384.654510
 21
20.992500
  0
LINE
  8
0
  6
CONTINUOUS
 10
388.257507
 20
20.992500
 11
384.654510
 21
20.992500
  0
LINE
  8
0
  6
CONTINUOUS
 10
377.257507
 20
9.992500
 11
377.257507
 21
11.187750
  0
LINE
  8
0
  6
CONTINUOUS
 10
325.793091
 20
8.456960
 11
323.992188
 21
10.257820
  0
ARC
  8
0
  6
CONTINUOUS
 10
329.328491
 20
11.992500
 40
5.000000
 50
225.000107
 51
270.000000
  0
ARC
  8
0
  6
CONTINUOUS
 10
374.257507
 20
9.992490
 40
3.000000
 50
-90.000000
 51
0.000000
  0
ARC
  8
0
  6
CONTINUOUS
 10
388.257507
 20
23.992491
 40
3.000000
 50
-90.000000
 51
0.000000
  0
LINE
  8
0
  6
CENTER
 10
176.257507
 20
306.720001
 11
176.257507
 21
170.220001
  0
LINE
  8
0
  6
CENTER
 10
-7.093125
 20
238.220001
 11
224.757507
 21
238.220001
  0
LINE
  8
0
  6
CONTINUOUS
 10
214.949982
 20
269.220001
 11
135.705811
 21
269.220001
  0
LINE
  8
0
  6
CONTINUOUS
 10
51.757500
 20
276.220001
 11
61.257500
 21
276.220001
  0
LINE
  8
0
  6
CONTINUOUS
 10
51.757500
 20
200.220001
 11
61.257500
 21
200.220001
  0
LINE
  8
0
  6
CONTINUOUS
 10
51.757500
 20
261.220001
 11
61.257500
 21
261.220001
  0
LINE
  8
0
  6
CONTINUOUS
 10
61.257500
 20
200.220001
 11
61.257500
 21
231.353973
  0
LINE
  8
0
  6
CONTINUOUS
 10
51.757500
 20
215.220001
 11
61.257500
 21
215.220001
  0
LINE
  8
0
  6
CONTINUOUS
 10
131.625885
 20
276.220001
 11
61.257500
 21
276.220001
  0
LINE
  8
0
  6
CONTINUOUS
 10
61.257500
 20
261.220001
 11
137.177185
 21
261.220001
  0
LINE
  8
0
  6
CONTINUOUS
 10
134.548355
 20
207.220001
 11
217.547668
 21
207.220001
  0
LINE
  8
0
  6
CONTINUOUS
 10
132.243896
 20
200.220001
 11
61.257500
 21
200.220001
  0
LINE
  8
0
  6
CONTINUOUS
 10
61.257500
 20
215.220001
 11
133.312347
 21
215.220001
  0
LINE
  8
0
  6
CONTINUOUS
 10
168.757507
 20
174.220001
 11
168.757507
 21
198.220001
  0
LINE
  8
0
  6
CONTINUOUS
 10
168.757507
 20
174.220001
 11
185.757507
 21
174.220001
  0
LINE
  8
0
  6
CONTINUOUS
 10
156.257507
 20
272.220001
 11
156.257507
 21
269.220001
  0
LINE
  8
0
  6
CONTINUOUS
 10
196.257507
 20
272.220001
 11
196.257507
 21
269.220001
  0
LINE
  8
0
  6
CONTINUOUS
 10
195.257507
 20
273.220001
 11
157.257507
 21
273.220001
  0
ARC
  8
0
  6
CONTINUOUS
 10
157.257507
 20
272.220001
 40
1.000000
 50
90.000000
 51
180.000000
  0
ARC
  8
0
  6
CONTINUOUS
 10
195.257507
 20
272.220001
 40
1.000000
 50
0.000000
 51
90.000000
  0
LINE
  8
0
  6
CONTINUOUS
 10
185.757507
 20
198.220001
 11
185.757507
 21
174.220001
  0
LINE
  8
0
  6
CONTINUOUS
 10
183.328506
 20
198.220001
 11
183.328506
 21
174.220001
  0
LINE
  8
0
  6
CONTINUOUS
 10
168.757507
 20
302.220001
 11
168.757507
 21
275.220001
  0
LINE
  8
0
  6
CONTINUOUS
 10
168.757507
 20
302.220001
 11
185.757507
 21
302.220001
  0
LINE
  8
0
  6
CONTINUOUS
 10
167.757507
 20
275.220001
 11
184.757507
 21
275.220001
  0
LINE
  8
0
  6
CONTINUOUS
 10
167.757507
 20
275.220001
 11
167.757507
 21
273.220001
  0
LINE
  8
0
  6
CONTINUOUS
 10
184.757507
 20
275.220001
 11
184.757507
 21
273.220001
  0
LINE
  8
0
  6
CONTINUOUS
 10
185.757507
 20
278.220001
 11
185.757507
 21
302.220001
  0
LINE
  8
0
  6
CONTINUOUS
 10
183.328506
 20
278.220001
 11
183.328506
 21
302.220001
  0
LINE
  8
0
  6
CONTINUOUS
 10
183.328506
 20
278.220001
 11
185.757507
 21
278.220001
  0
LINE
  8
0
  6
CONTINUOUS
 10
183.757507
 20
278.220001
 11
183.757507
 21
275.220001
  0
LINE
  8
0
  6
CONTINUOUS
 10
191.257507
 20
208.220001
 11
191.257507
 21
267.254913
  0
LINE
  8
0
  6
CONTINUOUS
 10
161.257507
 20
208.220001
 11
161.257507
 21
267.254913
  0
LINE
  8
0
  6
CONTINUOUS
 10
133.548080
 20
261.222748
 11
133.706497
 21
267.272339
  0
LINE
  8
0
  6
CONTINUOUS
 10
138.032104
 20
208.401245
 11
138.032104
 21
259.220276
  0
LINE
  8
0
  6
CONTINUOUS
 10
54.757500
 20
232.220001
 11
54.757500
 21
244.220001
  0
LINE
  8
0
  6
CONTINUOUS
 10
61.757500
 20
232.220001
 11
61.757500
 21
244.220001
  0
LINE
  8
0
  6
CONTINUOUS
 10
55.757500
 20
245.220001
 11
60.757500
 21
245.220001
  0
LINE
  8
0
  6
CONTINUOUS
 10
60.757500
 20
231.220001
 11
55.757500
 21
231.220001
  0
ARC
  8
0
  6
CONTINUOUS
 10
60.757500
 20
244.220001
 40
1.000000
 50
0.000000
 51
90.000000
  0
ARC
  8
0
  6
CONTINUOUS
 10
55.757500
 20
244.220001
 40
1.000000
 50
90.000000
 51
180.000000
  0
ARC
  8
0
  6
CONTINUOUS
 10
55.757500
 20
232.220001
 40
1.000000
 50
180.000000
 51
270.000000
  0
ARC
  8
0
  6
CONTINUOUS
 10
60.757500
 20
232.220001
 40
1.000000
 50
-90.000000
 51
0.000000
  0
LINE
  8
0
  6
CONTINUOUS
 10
59.257500
 20
234.720001
 11
59.257500
 21
241.720001
  0
LINE
  8
0
  6
CONTINUOUS
 10
57.257500
 20
234.720001
 11
57.257500
 21
241.720001
  0
ARC
  8
0
  6
CONTINUOUS
 10
58.257500
 20
241.720001
 40
1.000000
 50
90.000000
 51
180.000000
  0
ARC
  8
0
  6
CONTINUOUS
 10
58.257500
 20
241.720001
 40
1.000000
 50
0.000000
 51
90.000000
  0
ARC
  8
0
  6
CONTINUOUS
 10
58.257500
 20
234.720001
 40
1.000000
 50
180.000000
 51
270.000000
  0
ARC
  8
0
  6
CONTINUOUS
 10
58.257500
 20
234.720001
 40
1.000000
 50
-90.000000
 51
0.000000
  0
LINE
  8
0
  6
CONTINUOUS
 10
61.257500
 20
245.086029
 11
61.257500
 21
276.220001
  0
LINE
  8
0
  6
CONTINUOUS
 10
133.757507
 20
198.220001
 11
218.757507
 21
198.220001
  0
LINE
  8
0
  6
CONTINUOUS
 10
216.949295
 20
267.272339
 11
218.757507
 21
198.220001
  0
ARC
  8
0
  6
CONTINUOUS
 10
214.949982
 20
267.220001
 40
2.000000
 50
1.500000
 51
90.000000
  0
LINE
  8
0
  6
CONTINUOUS
 10
132.710068
 20
238.220001
 11
133.757507
 21
198.220001
  0
LINE
  8
0
  6
CONTINUOUS
 10
216.180206
 20
198.220001
 11
216.180206
 21
205.909683
  0
LINE
  8
0
  6
CONTINUOUS
 10
136.334793
 20
198.220001
 11
136.334793
 21
205.909683
  0
ARC
  8
0
  6
CONTINUOUS
 10
160.257507
 20
208.220001
 40
1.000000
 50
-90.000000
 51
0.000000
  0
ARC
  8
0
  6
CONTINUOUS
 10
192.257507
 20
208.220001
 40
1.000000
 50
180.000000
 51
270.000000
  0
LINE
  8
0
  6
CONTINUOUS
 10
161.257507
 20
208.539993
 11
191.257507
 21
208.539993
  0
ARC
  8
0
  6
CONTINUOUS
 10
217.547668
 20
206.220001
 40
1.000000
 50
1.499998
 51
90.000000
  0
LINE
  8
0
  6
CONTINUOUS
 10
133.625198
 20
274.272339
 11
133.706497
 21
271.167633
  0
ARC
  8
0
  6
CONTINUOUS
 10
134.548355
 20
206.220001
 40
1.000000
 50
90.000000
 51
181.500000
  0
ARC
  8
0
  6
CONTINUOUS
 10
132.243896
 20
198.720001
 40
1.500000
 50
1.499999
 51
90.000000
  0
ARC
  8
0
  6
CONTINUOUS
 10
131.625885
 20
274.220001
 40
2.000000
 50
1.500000
 51
90.000000
  0
ARC
  8
0
  6
CONTINUOUS
 10
135.705811
 20
271.220001
 40
2.000000
 50
181.500000
 51
270.000000
  0
ARC
  8
0
  6
CONTINUOUS
 10
135.705811
 20
267.220001
 40
2.000000
 50
90.000000
 51
178.500000
  0
LINE
  8
0
  6
CENTER
 10
208.257507
 20
194.329849
 11
208.257507
 21
211.470627
  0
LINE
  8
0
  6
DASHED
 10
211.507507
 20
207.220001
 11
211.507507
 21
198.220001
  0
LINE
  8
0
  6
DASHED
 10
205.007507
 20
207.220001
 11
205.007507
 21
198.220001
  0
LINE
  8
0
  6
CENTER
 10
144.257507
 20
194.329849
 11
144.257507
 21
211.470627
  0
LINE
  8
0
  6
DASHED
 10
141.007507
 20
207.220001
 11
141.007507
 21
198.220001
  0
LINE
  8
0
  6
DASHED
 10
147.507507
 20
207.220001
 11
147.507507
 21
198.220001
  0
LINE
  8
0
  6
CONTINUOUS
 10
51.757500
 20
198.220001
 11
51.757500
 21
278.220001
  0
LINE
  8
0
  6
CONTINUOUS
 10
7.757500
 20
278.220001
 11
51.757500
 21
278.220001
  0
LINE
  8
0
  6
CONTINUOUS
 10
7.757500
 20
198.220001
 11
51.757500
 21
198.220001
  0
LINE
  8
0
  6
CONTINUOUS
 10
2.757500
 20
203.220001
 11
2.757500
 21
273.220001
  0
ARC
  8
0
  6
CONTINUOUS
 10
7.757520
 20
273.220032
 40
5.000000
 50
90.000000
 51
180.000000
  0
ARC
  8
0
  6
CONTINUOUS
 10
7.757500
 20
203.220001
 40
5.000000
 50
180.000000
 51
270.000000
  0
LINE
  8
0
  6
CONTINUOUS
 10
5.257500
 20
212.220001
 11
51.757500
 21
212.220001
  0
LINE
  8
0
  6
CONTINUOUS
 10
5.257500
 20
262.220001
 11
51.757500
 21
262.220001
  0
ARC
  8
0
  6
CONTINUOUS
 10
51.757500
 20
206.444061
 40
1.500000
 50
0.000000
 51
90.000000
  0
ARC
  8
0
  6
CONTINUOUS
 10
51.757500
 20
206.444061
 40
3.000000
 50
0.000000
 51
90.000000
  0
ARC
  8
0
  6
CONTINUOUS
 10
51.757500
 20
206.444061
 40
4.500000
 50
0.000000
 51
90.000000
  0
LINE
  8
0
  6
CONTINUOUS
 10
53.257500
 20
206.444061
 11
53.257500
 21
202.201462
  0
LINE
  8
0
  6
CONTINUOUS
 10
54.757500
 20
206.444061
 11
54.757500
 21
201.407257
  0
LINE
  8
0
  6
CONTINUOUS
 10
56.257500
 20
206.444061
 11
56.257500
 21
203.221161
  0
LINE
  8
0
  6
CONTINUOUS
 10
53.259899
 20
202.205963
 11
54.757500
 21
201.407257
  0
LINE
  8
0
  6
CONTINUOUS
 10
54.757500
 20
202.441956
 11
56.257500
 21
203.221161
  0
ARC
  8
0
  6
CONTINUOUS
 10
51.757500
 20
69.617500
 40
1.500000
 50
0.000000
 51
90.000000
  0
ARC
  8
0
  6
CONTINUOUS
 10
51.757500
 20
69.617500
 40
3.000000
 50
0.000000
 51
90.000000
  0
ARC
  8
0
  6
CONTINUOUS
 10
51.757500
 20
69.617500
 40
4.500000
 50
0.000000
 51
90.000000
  0
LINE
  8
0
  6
CONTINUOUS
 10
53.257500
 20
69.617500
 11
53.257500
 21
65.374901
  0
LINE
  8
0
  6
CONTINUOUS
 10
54.757500
 20
69.617500
 11
54.757500
 21
64.580704
  0
LINE
  8
0
  6
CONTINUOUS
 10
56.257500
 20
69.617500
 11
56.257500
 21
66.394600
  0
LINE
  8
0
  6
CONTINUOUS
 10
53.259899
 20
65.379402
 11
54.757500
 21
64.580704
  0
LINE
  8
0
  6
CONTINUOUS
 10
54.757500
 20
65.615402
 11
56.257500
 21
66.394600
  0
TEXT
  8
0
 10
-7.000000
 20
-3.000000
 40
4.000000
 41
1.000000
  1
HFMN-15T-10~120-S40W
 50
0.000000
  0
ENDSEC
  0
EOF
