  0
SECTION
  2
HEADER
  9
$CLAYER
  8
1
  9
$LTSCALE
 40
3.0
  0
ENDSEC
  0
SECTION
  2
TABLES
  0
TABLE
  2
LTYPE
 70
     4
  0
LTYPE
  2
CONTINUOUS
  3
solid line
 70
    64
 72
    65
 73
     0
 40
0.0
  0
LTYPE
  2
DASHED
  3
__ __ __ __ __ __ __ __ __ __ __ __ __ __ __
 70
    64
 72
    65
 73
     2
 40
0.75
 49
0.5
 49
-0.25
  0
LTYPE
  2
CENTER
  3
____ _ ____ _ ____ _ ____ _ ____ _ ____ _ ____
 70
    64
 72
    65
 73
     4
 40
2.0
 49
1.25
 49
-0.25
 49
0.25
 49
-0.25
  0
LTYPE
  2
PHANTOM
  3
_____ _ _ _____ _ _ _____ _ _ _____ _ _ ____
 70
    64
 72
    65
 73
     6
 40
2.5
 49
1.25
 49
-0.25
 49
0.25
 49
-0.25
 49
0.25
 49
-0.25
  0
ENDTAB
  0
TABLE
  2
LAYER
 70
     1
  0
LAYER
  2
0
 70
    64
 62
     7
  6
CONTINUOUS
  0
ENDTAB
  0
TABLE
  2
STYLE
 70
     1
  0
STYLE
  2
STANDARD
 70
     0
 40
0.000000
 41
1.000000
 50
0.000000
 71
     0
 42
3.000000
  3
txt
  4
BIGFONT
  0
ENDTAB
  0
ENDSEC
  0
SECTION
  2
BLOCKS
  0
ENDSEC
  0
SECTION
  2
ENTITIES
  0
LINE
  8
0
  6
CONTINUOUS
 10
60.619999
 20
6.400000
 11
60.619999
 21
82.400002
  0
LINE
  8
0
  6
CENTER
 10
60.619999
 20
44.400002
 11
150.919998
 21
44.400002
  0
LINE
  8
0
  6
CONTINUOUS
 10
60.619999
 20
82.400002
 11
133.539993
 21
82.400002
  0
LINE
  8
0
  6
CONTINUOUS
 10
131.119995
 20
6.400000
 11
60.619999
 21
6.400000
  0
LINE
  8
0
  6
CONTINUOUS
 10
143.619995
 20
2.700000
 11
207.619995
 21
2.700000
  0
LINE
  8
0
  6
CONTINUOUS
 10
143.619995
 20
104.699997
 11
207.619995
 21
104.699997
  0
LINE
  8
0
  6
CONTINUOUS
 10
133.119995
 20
79.400002
 11
133.119995
 21
28.000000
  0
LINE
  8
0
  6
CENTER
 10
175.619995
 20
117.087502
 11
175.619995
 21
-6.537500
  0
LINE
  8
0
  6
CENTER
 10
207.619995
 20
16.837500
 11
207.619995
 21
5.337500
  0
LINE
  8
0
  6
CENTER
 10
201.776306
 20
10.700000
 11
214.026306
 21
10.700000
  0
CIRCLE
  8
0
  6
CONTINUOUS
 10
207.619995
 20
10.700000
 40
3.250000
  0
LINE
  8
0
  6
CENTER
 10
207.619995
 20
90.562500
 11
207.619995
 21
102.062500
  0
LINE
  8
0
  6
CENTER
 10
201.776306
 20
96.699997
 11
214.026306
 21
96.699997
  0
CIRCLE
  8
0
  6
CONTINUOUS
 10
207.619995
 20
96.699997
 40
3.250000
  0
LINE
  8
0
  6
CENTER
 10
143.619995
 20
90.562500
 11
143.619995
 21
102.062500
  0
LINE
  8
0
  6
CENTER
 10
149.463806
 20
96.699997
 11
137.213806
 21
96.699997
  0
CIRCLE
  8
0
  6
CONTINUOUS
 10
143.619995
 20
96.699997
 40
3.250000
  0
LINE
  8
0
  6
CENTER
 10
143.619995
 20
16.837500
 11
143.619995
 21
5.337500
  0
LINE
  8
0
  6
CENTER
 10
149.463806
 20
10.700000
 11
137.213806
 21
10.700000
  0
CIRCLE
  8
0
  6
CONTINUOUS
 10
143.619995
 20
10.700000
 40
3.250000
  0
LINE
  8
0
  6
CONTINUOUS
 10
215.619995
 20
68.061401
 11
215.619995
 21
39.338863
  0
LINE
  8
0
  6
CONTINUOUS
 10
135.619995
 20
68.061272
 11
135.619995
 21
39.338463
  0
ARC
  8
0
  6
CONTINUOUS
 10
175.619995
 20
53.700001
 40
42.500000
 50
19.749901
 51
160.250107
  0
ARC
  8
0
  6
CONTINUOUS
 10
175.619995
 20
53.700001
 40
42.500000
 50
199.749893
 51
340.250092
  0
LINE
  8
0
  6
CONTINUOUS
 10
218.119995
 20
79.400002
 11
218.119995
 21
28.000010
  0
LINE
  8
0
  6
CONTINUOUS
 10
215.542694
 20
97.809158
 11
218.119995
 21
79.400002
  0
LINE
  8
0
  6
CONTINUOUS
 10
215.542694
 20
9.590880
 11
218.119995
 21
28.000010
  0
LINE
  8
0
  6
CONTINUOUS
 10
135.697296
 20
9.590800
 11
133.119995
 21
28.000000
  0
LINE
  8
0
  6
CONTINUOUS
 10
135.697296
 20
97.809151
 11
133.119995
 21
79.400002
  0
LINE
  8
0
  6
CENTER
 10
144.882507
 20
66.699997
 11
200.270004
 21
66.699997
  0
LINE
  8
0
  6
CONTINUOUS
 10
185.119995
 20
69.199997
 11
185.119995
 21
64.199997
  0
LINE
  8
0
  6
CONTINUOUS
 10
180.119995
 20
64.199997
 11
180.119995
 21
69.199997
  0
LINE
  8
0
  6
CONTINUOUS
 10
180.119995
 20
69.199997
 11
185.119995
 21
69.199997
  0
LINE
  8
0
  6
CONTINUOUS
 10
180.119995
 20
64.199997
 11
185.119995
 21
64.199997
  0
ARC
  8
0
  6
CONTINUOUS
 10
175.619995
 20
66.699997
 40
7.500000
 50
19.471201
 51
340.528809
  0
LINE
  8
0
  6
CONTINUOUS
 10
155.619995
 20
100.699997
 11
195.619995
 21
100.699997
  0
LINE
  8
0
  6
CONTINUOUS
 10
155.619995
 20
6.700000
 11
195.619995
 21
6.700000
  0
LINE
  8
0
  6
CONTINUOUS
 10
213.245102
 20
85.370499
 11
215.644302
 21
68.233429
  0
LINE
  8
0
  6
CONTINUOUS
 10
215.622406
 20
39.009735
 11
213.245102
 21
22.029499
  0
LINE
  8
0
  6
CONTINUOUS
 10
135.670502
 20
38.632080
 11
137.994904
 21
22.029510
  0
LINE
  8
0
  6
CONTINUOUS
 10
137.994904
 20
85.370491
 11
135.536697
 21
67.811684
  0
ARC
  8
0
  6
CONTINUOUS
 10
195.619995
 20
96.699997
 40
4.000000
 50
0.000000
 51
90.000000
  0
ARC
  8
0
  6
CONTINUOUS
 10
155.619995
 20
96.699997
 40
4.000000
 50
90.000000
 51
180.000000
  0
ARC
  8
0
  6
CONTINUOUS
 10
195.619995
 20
10.700000
 40
4.000000
 50
-90.000000
 51
0.000000
  0
ARC
  8
0
  6
CONTINUOUS
 10
155.619995
 20
10.700000
 40
4.000000
 50
-180.000000
 51
-90.000000
  0
ARC
  8
0
  6
CONTINUOUS
 10
209.283798
 20
84.815903
 40
4.000000
 50
7.969701
 51
97.969757
  0
ARC
  8
0
  6
CONTINUOUS
 10
207.619995
 20
96.699997
 40
8.000000
 50
180.000000
 51
277.969513
  0
ARC
  8
0
  6
CONTINUOUS
 10
207.619995
 20
96.699997
 40
8.000000
 50
7.969647
 51
90.000000
  0
ARC
  8
0
  6
CONTINUOUS
 10
141.956207
 20
84.815903
 40
4.000000
 50
82.030243
 51
172.030304
  0
ARC
  8
0
  6
CONTINUOUS
 10
209.283798
 20
22.584101
 40
4.000000
 50
-97.969757
 51
-7.969701
  0
ARC
  8
0
  6
CONTINUOUS
 10
141.956207
 20
22.584101
 40
4.000000
 50
-172.030304
 51
-82.030243
  0
ARC
  8
0
  6
CONTINUOUS
 10
143.619995
 20
96.699997
 40
8.000000
 50
90.000000
 51
172.030502
  0
ARC
  8
0
  6
CONTINUOUS
 10
143.619995
 20
96.699997
 40
8.000000
 50
-97.969597
 51
0.000000
  0
ARC
  8
0
  6
CONTINUOUS
 10
143.619995
 20
10.700000
 40
8.000000
 50
0.000000
 51
97.969818
  0
ARC
  8
0
  6
CONTINUOUS
 10
143.619995
 20
10.700000
 40
8.000000
 50
187.969604
 51
270.000000
  0
ARC
  8
0
  6
CONTINUOUS
 10
207.619995
 20
10.700000
 40
8.000000
 50
270.000000
 51
352.030304
  0
ARC
  8
0
  6
CONTINUOUS
 10
207.619995
 20
10.700000
 40
8.000000
 50
82.030350
 51
180.000000
  0
LINE
  8
0
  6
CONTINUOUS
 10
133.119995
 20
8.400000
 11
133.119995
 21
14.400010
  0
ARC
  8
0
  6
CONTINUOUS
 10
131.119995
 20
8.400000
 40
2.000000
 50
-90.000000
 51
0.000000
  0
ARC
  8
0
  6
CONTINUOUS
 10
138.119995
 20
14.400020
 40
5.000000
 50
135.792801
 51
180.000000
  0
LINE
  8
0
  6
CONTINUOUS
 10
60.619999
 20
74.648972
 11
132.369995
 21
74.648972
  0
LINE
  8
0
  6
CONTINUOUS
 10
60.619999
 20
14.151040
 11
132.619995
 21
14.151040
  0
CIRCLE
  8
0
  6
CONTINUOUS
 10
175.619995
 20
66.699997
 40
20.000000
  0
LINE
  8
0
  6
CONTINUOUS
 10
169.244995
 20
34.253231
 11
169.244995
 21
28.700001
  0
LINE
  8
0
  6
CONTINUOUS
 10
172.432495
 20
36.270317
 11
172.432495
 21
38.262505
  0
LINE
  8
0
  6
CONTINUOUS
 10
178.807495
 20
36.270317
 11
178.807495
 21
38.262505
  0
LINE
  8
0
  6
CONTINUOUS
 10
174.997406
 20
37.092094
 11
174.997406
 21
29.745899
  0
LINE
  8
0
  6
CONTINUOUS
 10
176.192795
 20
37.092094
 11
176.192795
 21
29.745899
  0
LINE
  8
0
  6
CONTINUOUS
 10
182.468094
 20
37.092094
 11
182.468094
 21
29.696100
  0
LINE
  8
0
  6
CONTINUOUS
 10
183.563797
 20
33.169971
 11
183.563797
 21
29.696100
  0
LINE
  8
0
  6
CONTINUOUS
 10
167.732498
 20
36.992485
 11
164.660599
 21
36.992485
  0
LINE
  8
0
  6
CONTINUOUS
 10
164.660599
 20
36.992485
 11
163.940796
 21
36.099976
  0
LINE
  8
0
  6
CONTINUOUS
 10
164.027405
 20
38.262505
 11
162.869995
 21
36.780502
  0
LINE
  8
0
  6
CONTINUOUS
 10
163.940796
 20
30.590919
 11
164.672104
 21
29.820610
  0
LINE
  8
0
  6
CONTINUOUS
 10
162.869995
 20
29.940861
 11
164.099792
 21
28.700001
  0
LINE
  8
0
  6
CONTINUOUS
 10
162.869995
 20
36.780502
 11
162.869995
 21
29.940861
  0
LINE
  8
0
  6
CONTINUOUS
 10
163.940796
 20
36.099976
 11
163.940796
 21
30.590919
  0
LINE
  8
0
  6
CONTINUOUS
 10
168.323593
 20
36.421036
 11
167.720398
 21
36.992485
  0
LINE
  8
0
  6
CONTINUOUS
 10
168.313995
 20
38.262505
 11
169.244995
 21
37.229362
  0
LINE
  8
0
  6
CONTINUOUS
 10
168.323593
 20
36.270317
 11
169.244995
 21
36.270317
  0
LINE
  8
0
  6
CONTINUOUS
 10
164.027405
 20
38.262505
 11
168.313995
 21
38.262505
  0
LINE
  8
0
  6
CONTINUOUS
 10
168.323593
 20
33.207329
 11
166.655197
 21
33.207329
  0
LINE
  8
0
  6
CONTINUOUS
 10
168.323593
 20
32.211231
 11
168.323593
 21
33.008110
  0
LINE
  8
0
  6
CONTINUOUS
 10
166.331406
 20
29.820610
 11
164.672104
 21
29.820610
  0
ARC
  8
0
  6
CONTINUOUS
 10
166.331406
 20
31.812790
 40
1.992187
 50
-89.999786
 51
0.000109
  0
LINE
  8
0
  6
CONTINUOUS
 10
168.323593
 20
29.462259
 11
168.323593
 21
28.700001
  0
LINE
  8
0
  6
CONTINUOUS
 10
169.244995
 20
37.229362
 11
169.244995
 21
36.270317
  0
LINE
  8
0
  6
CONTINUOUS
 10
168.323593
 20
33.207329
 11
168.323593
 21
31.812790
  0
LINE
  8
0
  6
CONTINUOUS
 10
166.655197
 20
34.253231
 11
166.655197
 21
33.207329
  0
LINE
  8
0
  6
CONTINUOUS
 10
168.323593
 20
28.700001
 11
169.244995
 21
28.700001
  0
LINE
  8
0
  6
CONTINUOUS
 10
168.323593
 20
29.462259
 11
167.415100
 21
28.700001
  0
LINE
  8
0
  6
CONTINUOUS
 10
176.192795
 20
29.745899
 11
176.591202
 21
29.745899
  0
LINE
  8
0
  6
CONTINUOUS
 10
174.524307
 20
29.745899
 11
174.524307
 21
28.700001
  0
LINE
  8
0
  6
CONTINUOUS
 10
176.591202
 20
29.745899
 11
176.591202
 21
28.700001
  0
LINE
  8
0
  6
CONTINUOUS
 10
178.142502
 20
36.270317
 11
178.807495
 21
36.270317
  0
LINE
  8
0
  6
CONTINUOUS
 10
172.432495
 20
36.270317
 11
173.140106
 21
36.270317
  0
LINE
  8
0
  6
CONTINUOUS
 10
172.432495
 20
38.262505
 11
178.807495
 21
38.262505
  0
LINE
  8
0
  6
CONTINUOUS
 10
174.524307
 20
28.700001
 11
176.591202
 21
28.700001
  0
LINE
  8
0
  6
CONTINUOUS
 10
174.524307
 20
29.745899
 11
174.997406
 21
29.745899
  0
ARC
  8
0
  6
CONTINUOUS
 10
185.817505
 20
35.710014
 40
2.552490
 50
-73.981873
 51
90.003510
  0
ARC
  8
0
  6
CONTINUOUS
 10
185.817505
 20
35.710014
 40
1.557193
 50
-82.585274
 51
62.411850
  0
LINE
  8
0
  6
CONTINUOUS
 10
181.994995
 20
38.262505
 11
185.817505
 21
38.262505
  0
LINE
  8
0
  6
CONTINUOUS
 10
181.994995
 20
38.262505
 11
181.994995
 21
37.092094
  0
LINE
  8
0
  6
CONTINUOUS
 10
183.563797
 20
37.092094
 11
183.563797
 21
34.165840
  0
LINE
  8
0
  6
CONTINUOUS
 10
186.521805
 20
33.256618
 11
188.101700
 21
29.696100
  0
LINE
  8
0
  6
CONTINUOUS
 10
185.604294
 20
33.169971
 11
187.099304
 21
29.696100
  0
LINE
  8
0
  6
CONTINUOUS
 10
181.994995
 20
29.696100
 11
182.468094
 21
29.696100
  0
LINE
  8
0
  6
CONTINUOUS
 10
183.563797
 20
29.696100
 11
183.999603
 21
29.696100
  0
LINE
  8
0
  6
CONTINUOUS
 10
183.999603
 20
28.700001
 11
181.994995
 21
28.700001
  0
LINE
  8
0
  6
CONTINUOUS
 10
186.900803
 20
29.696100
 11
187.099304
 21
29.696100
  0
LINE
  8
0
  6
CONTINUOUS
 10
188.101700
 20
29.696100
 11
188.369995
 21
29.696100
  0
LINE
  8
0
  6
CONTINUOUS
 10
186.900803
 20
28.700001
 11
188.369995
 21
28.700001
  0
LINE
  8
0
  6
CONTINUOUS
 10
188.369995
 20
29.696100
 11
188.369995
 21
28.700001
  0
LINE
  8
0
  6
CONTINUOUS
 10
186.900803
 20
29.696100
 11
186.900803
 21
28.700001
  0
LINE
  8
0
  6
CONTINUOUS
 10
183.999603
 20
29.696100
 11
183.999603
 21
28.700001
  0
LINE
  8
0
  6
CONTINUOUS
 10
181.994995
 20
29.696100
 11
181.994995
 21
28.700001
  0
LINE
  8
0
  6
CONTINUOUS
 10
173.482498
 20
37.092094
 11
173.140106
 21
36.270317
  0
LINE
  8
0
  6
CONTINUOUS
 10
177.853806
 20
37.092094
 11
178.142502
 21
36.270317
  0
LINE
  8
0
  6
CONTINUOUS
 10
176.192795
 20
37.092094
 11
177.853806
 21
37.092094
  0
LINE
  8
0
  6
CONTINUOUS
 10
174.997406
 20
37.092094
 11
173.482498
 21
37.092094
  0
LINE
  8
0
  6
CONTINUOUS
 10
181.994995
 20
37.092094
 11
182.468094
 21
37.092094
  0
LINE
  8
0
  6
CONTINUOUS
 10
183.563797
 20
37.092094
 11
186.538696
 21
37.090145
  0
LINE
  8
0
  6
CONTINUOUS
 10
168.323593
 20
36.421036
 11
168.323593
 21
36.270317
  0
LINE
  8
0
  6
CONTINUOUS
 10
164.099792
 20
28.700001
 11
167.415100
 21
28.700001
  0
LINE
  8
0
  6
CONTINUOUS
 10
183.563797
 20
34.165840
 11
186.018494
 21
34.165840
  0
LINE
  8
0
  6
CONTINUOUS
 10
183.563797
 20
33.169971
 11
185.604294
 21
33.169971
  0
LINE
  8
0
  6
CONTINUOUS
 10
166.655197
 20
34.253231
 11
169.244995
 21
34.253231
  0
LINE
  8
0
  6
CENTER
 10
-6.880001
 20
44.400002
 11
60.619999
 21
44.400002
  0
LINE
  8
0
  6
CONTINUOUS
 10
51.119999
 20
82.400002
 11
60.619999
 21
82.400002
  0
LINE
  8
0
  6
CONTINUOUS
 10
51.119999
 20
6.400000
 11
60.619999
 21
6.400000
  0
LINE
  8
0
  6
CONTINUOUS
 10
51.119999
 20
84.400002
 11
51.119999
 21
4.400000
  0
LINE
  8
0
  6
CONTINUOUS
 10
51.119999
 20
74.649002
 11
60.619999
 21
74.649002
  0
LINE
  8
0
  6
CONTINUOUS
 10
51.119999
 20
14.151000
 11
60.619999
 21
14.151000
  0
LINE
  8
0
  6
CONTINUOUS
 10
2.119999
 20
9.400000
 11
2.119999
 21
79.400002
  0
LINE
  8
0
  6
CONTINUOUS
 10
7.119999
 20
84.400002
 11
51.119999
 21
84.400002
  0
LINE
  8
0
  6
CONTINUOUS
 10
7.119999
 20
4.400000
 11
51.119999
 21
4.400000
  0
ARC
  8
0
  6
CONTINUOUS
 10
7.120024
 20
79.400017
 40
5.000000
 50
90.000000
 51
180.000000
  0
ARC
  8
0
  6
CONTINUOUS
 10
7.119999
 20
9.400000
 40
5.000000
 50
180.000000
 51
270.000000
  0
LINE
  8
0
  6
CONTINUOUS
 10
4.869999
 20
70.400002
 11
51.119999
 21
70.400002
  0
LINE
  8
0
  6
CONTINUOUS
 10
4.869999
 20
20.400000
 11
51.119999
 21
20.400000
  0
LINE
  8
0
  6
CENTER
 10
341.354401
 20
-5.287500
 11
341.354401
 21
145.399994
  0
LINE
  8
0
  6
CONTINUOUS
 10
372.354401
 20
10.647930
 11
372.354401
 21
96.734596
  0
LINE
  8
0
  6
CONTINUOUS
 10
376.354401
 20
47.700001
 11
376.354401
 21
85.699997
  0
LINE
  8
0
  6
CENTER
 10
268.619995
 20
66.699997
 11
414.119995
 21
66.699997
  0
LINE
  8
0
  6
CONTINUOUS
 10
375.354401
 20
86.699997
 11
374.354401
 21
86.699997
  0
LINE
  8
0
  6
CONTINUOUS
 10
375.354401
 20
46.700001
 11
374.354401
 21
46.700001
  0
LINE
  8
0
  6
CONTINUOUS
 10
370.389313
 20
98.734299
 11
312.319489
 21
99.747681
  0
LINE
  8
0
  6
CONTINUOUS
 10
370.389313
 20
8.648230
 11
312.319489
 21
7.634420
  0
ARC
  8
0
  6
CONTINUOUS
 10
370.354401
 20
96.734589
 40
2.000000
 50
0.000000
 51
89.000359
  0
ARC
  8
0
  6
CONTINUOUS
 10
370.354401
 20
10.647920
 40
2.000000
 50
-88.999634
 51
0.000000
  0
ARC
  8
0
  6
CONTINUOUS
 10
375.354401
 20
85.699997
 40
1.000000
 50
0.000000
 51
90.000000
  0
ARC
  8
0
  6
CONTINUOUS
 10
375.354401
 20
47.699997
 40
1.000000
 50
-90.000000
 51
0.000000
  0
LINE
  8
0
  6
CONTINUOUS
 10
310.354401
 20
25.000019
 11
310.354401
 21
4.200000
  0
LINE
  8
0
  6
CONTINUOUS
 10
301.354401
 20
104.699997
 11
309.203400
 21
104.699997
  0
LINE
  8
0
  6
CONTINUOUS
 10
308.819794
 20
2.700000
 11
301.354401
 21
2.700000
  0
LINE
  8
0
  6
CONTINUOUS
 10
313.855408
 20
79.400002
 11
370.385712
 21
79.400002
  0
LINE
  8
0
  6
CONTINUOUS
 10
313.354401
 20
28.000000
 11
370.916901
 21
28.000000
  0
ARC
  8
0
  6
CONTINUOUS
 10
308.854401
 20
4.200000
 40
1.500000
 50
-90.000000
 51
0.000000
  0
LINE
  8
0
  6
CONTINUOUS
 10
310.652313
 20
103.588219
 11
311.092102
 21
101.946861
  0
ARC
  8
0
  6
CONTINUOUS
 10
313.987488
 20
102.719040
 40
3.000000
 50
194.932602
 51
269.000610
  0
ARC
  8
0
  6
CONTINUOUS
 10
309.203400
 20
103.199997
 40
1.500000
 50
15.000070
 51
90.000000
  0
ARC
  8
0
  6
CONTINUOUS
 10
313.354401
 20
25.000019
 40
3.000000
 50
90.000000
 51
180.000000
  0
ARC
  8
0
  6
CONTINUOUS
 10
374.354401
 20
88.699997
 40
2.000000
 50
180.000000
 51
270.000000
  0
ARC
  8
0
  6
CONTINUOUS
 10
374.354401
 20
44.700008
 40
2.000000
 50
90.000000
 51
180.000000
  0
LINE
  8
0
  6
CONTINUOUS
 10
378.354401
 20
74.199997
 11
405.354401
 21
74.199997
  0
LINE
  8
0
  6
CONTINUOUS
 10
378.354401
 20
59.200001
 11
405.354401
 21
59.200001
  0
LINE
  8
0
  6
CONTINUOUS
 10
405.354401
 20
59.200001
 11
405.354401
 21
74.199997
  0
LINE
  8
0
  6
CONTINUOUS
 10
383.854401
 20
64.199997
 11
405.354401
 21
64.199997
  0
LINE
  8
0
  6
CONTINUOUS
 10
383.854401
 20
69.199997
 11
405.354401
 21
69.199997
  0
ARC
  8
0
  6
CONTINUOUS
 10
383.854401
 20
66.700012
 40
2.500000
 50
90.000000
 51
180.000000
  0
ARC
  8
0
  6
CONTINUOUS
 10
383.854401
 20
66.699997
 40
2.500000
 50
180.000000
 51
270.000000
  0
LINE
  8
0
  6
CENTER
 10
297.635712
 20
96.699997
 11
313.885712
 21
96.699997
  0
LINE
  8
0
  6
CENTER
 10
298.635712
 20
10.700000
 11
313.635712
 21
10.700000
  0
LINE
  8
0
  6
DASHED
 10
301.354401
 20
13.950000
 11
310.354401
 21
13.950000
  0
LINE
  8
0
  6
DASHED
 10
301.354401
 20
7.450000
 11
310.354401
 21
7.450000
  0
LINE
  8
0
  6
DASHED
 10
301.354401
 20
99.949997
 11
310.354401
 21
99.949997
  0
LINE
  8
0
  6
DASHED
 10
301.354401
 20
93.449997
 11
310.354401
 21
93.449997
  0
LINE
  8
0
  6
CONTINUOUS
 10
320.354401
 20
6.400000
 11
362.354401
 21
6.400000
  0
ARC
  8
0
  6
CONTINUOUS
 10
362.354401
 20
8.400000
 40
2.000000
 50
-90.000000
 51
0.000000
  0
ARC
  8
0
  6
CONTINUOUS
 10
320.354401
 20
8.400000
 40
2.000000
 50
199.216995
 51
270.000000
  0
LINE
  8
0
  6
CONTINUOUS
 10
364.354401
 20
8.400000
 11
364.354401
 21
8.542780
  0
ARC
  8
0
  6
CONTINUOUS
 10
341.354401
 20
44.400002
 40
38.000000
 50
-35.334469
 51
21.294241
  0
LINE
  8
0
  6
CONTINUOUS
 10
306.354401
 20
47.700001
 11
306.354401
 21
85.699997
  0
LINE
  8
0
  6
CONTINUOUS
 10
307.354401
 20
46.700001
 11
310.354401
 21
46.700001
  0
ARC
  8
0
  6
CONTINUOUS
 10
307.354401
 20
85.699997
 40
1.000000
 50
90.000000
 51
180.000000
  0
ARC
  8
0
  6
CONTINUOUS
 10
307.354401
 20
47.699997
 40
1.000000
 50
180.000000
 51
270.000000
  0
LINE
  8
0
  6
CONTINUOUS
 10
304.354401
 20
74.199997
 11
277.354401
 21
74.199997
  0
LINE
  8
0
  6
CONTINUOUS
 10
304.354401
 20
59.200001
 11
277.354401
 21
59.200001
  0
LINE
  8
0
  6
CONTINUOUS
 10
277.354401
 20
59.200001
 11
277.354401
 21
74.199997
  0
LINE
  8
0
  6
CONTINUOUS
 10
304.354401
 20
75.199997
 11
304.354401
 21
58.200001
  0
LINE
  8
0
  6
CONTINUOUS
 10
298.854401
 20
64.199997
 11
277.354401
 21
64.199997
  0
LINE
  8
0
  6
CONTINUOUS
 10
298.854401
 20
69.199997
 11
277.354401
 21
69.199997
  0
ARC
  8
0
  6
CONTINUOUS
 10
298.854401
 20
66.700012
 40
2.500000
 50
0.000000
 51
90.000000
  0
ARC
  8
0
  6
CONTINUOUS
 10
298.854401
 20
66.699997
 40
2.500000
 50
-90.000000
 51
0.000000
  0
LINE
  8
0
  6
CONTINUOUS
 10
301.354401
 20
2.700000
 11
301.354401
 21
59.200001
  0
LINE
  8
0
  6
CONTINUOUS
 10
301.354401
 20
104.699997
 11
301.354401
 21
74.199997
  0
LINE
  8
0
  6
CONTINUOUS
 10
307.354401
 20
86.699997
 11
310.354401
 21
86.699997
  0
LINE
  8
0
  6
CONTINUOUS
 10
301.354401
 20
89.909653
 11
307.244995
 21
88.696877
  0
LINE
  8
0
  6
CONTINUOUS
 10
307.244995
 20
88.696877
 11
312.494995
 21
85.446877
  0
LINE
  8
0
  6
CONTINUOUS
 10
312.494995
 20
85.446877
 11
312.994995
 21
80.321877
  0
LINE
  8
0
  6
CONTINUOUS
 10
312.994995
 20
80.321877
 11
314.744995
 21
78.446877
  0
LINE
  8
0
  6
CONTINUOUS
 10
314.744995
 20
78.446877
 11
315.119995
 21
74.821877
  0
LINE
  8
0
  6
CONTINUOUS
 10
315.119995
 20
74.821877
 11
315.494995
 21
69.196877
  0
LINE
  8
0
  6
CONTINUOUS
 10
315.494995
 20
69.196877
 11
316.244995
 21
63.946880
  0
LINE
  8
0
  6
CONTINUOUS
 10
316.244995
 20
63.946880
 11
314.244995
 21
57.571880
  0
LINE
  8
0
  6
CONTINUOUS
 10
314.244995
 20
57.571880
 11
314.869995
 21
51.071877
  0
LINE
  8
0
  6
CONTINUOUS
 10
314.869995
 20
51.071877
 11
313.369995
 21
45.321877
  0
LINE
  8
0
  6
CONTINUOUS
 10
313.369995
 20
45.321877
 11
309.244995
 21
42.196877
  0
LINE
  8
0
  6
CONTINUOUS
 10
309.244995
 20
42.196877
 11
304.369995
 21
41.571877
  0
LINE
  8
0
  6
CONTINUOUS
 10
304.369995
 20
41.571877
 11
301.354401
 21
40.343288
  0
LINE
  8
0
  6
CONTINUOUS
 10
378.354401
 20
75.199997
 11
378.354401
 21
58.200001
  0
LINE
  8
0
  6
CENTER
 10
294.968689
 20
44.400002
 11
383.091888
 21
44.400002
  0
LINE
  8
0
  6
CONTINUOUS
 10
310.354401
 20
104.161880
 11
310.354401
 21
43.037319
  0
LINE
  8
0
  6
CONTINUOUS
 10
376.354401
 20
75.199997
 11
378.354401
 21
75.199997
  0
LINE
  8
0
  6
CONTINUOUS
 10
376.354401
 20
58.200001
 11
378.354401
 21
58.200001
  0
LINE
  8
0
  6
CONTINUOUS
 10
304.354401
 20
75.199997
 11
306.354401
 21
75.199997
  0
LINE
  8
0
  6
CONTINUOUS
 10
304.354401
 20
58.200001
 11
306.354401
 21
58.200001
  0
ARC
  8
0
  6
CONTINUOUS
 10
312.354401
 20
101.747391
 40
2.000000
 50
180.000000
 51
269.000610
  0
ARC
  8
0
  6
CONTINUOUS
 10
312.354401
 20
5.634730
 40
2.000000
 50
91.000633
 51
180.000000
  0
LINE
  8
0
  6
CONTINUOUS
 10
310.751587
 20
4.182360
 11
311.088409
 21
5.439510
  0
ARC
  8
0
  6
CONTINUOUS
 10
308.819702
 20
4.700000
 40
2.000000
 50
270.000000
 51
345.000092
  0
ARC
  8
0
  6
CONTINUOUS
 10
313.986206
 20
4.663070
 40
3.000000
 50
91.000450
 51
165.000305
  0
LINE
  8
0
  6
CONTINUOUS
 10
381.354401
 20
21.400000
 11
381.354401
 21
59.200001
  0
LINE
  8
0
  6
CONTINUOUS
 10
364.354401
 20
4.400000
 11
319.425415
 21
4.400000
  0
LINE
  8
0
  6
CONTINUOUS
 10
372.354401
 20
16.003031
 11
374.751404
 21
18.400000
  0
LINE
  8
0
  6
CONTINUOUS
 10
378.354401
 20
18.400000
 11
374.751404
 21
18.400000
  0
LINE
  8
0
  6
CONTINUOUS
 10
367.354401
 20
7.400000
 11
367.354401
 21
8.595250
  0
LINE
  8
0
  6
CONTINUOUS
 10
315.890015
 20
5.864460
 11
314.089111
 21
7.665320
  0
ARC
  8
0
  6
CONTINUOUS
 10
319.425415
 20
9.400000
 40
5.000000
 50
225.000107
 51
270.000000
  0
ARC
  8
0
  6
CONTINUOUS
 10
364.354401
 20
7.399990
 40
3.000000
 50
-90.000000
 51
0.000000
  0
ARC
  8
0
  6
CONTINUOUS
 10
378.354401
 20
21.399990
 40
3.000000
 50
-90.000000
 51
0.000000
  0
LINE
  8
0
  6
CONTINUOUS
 10
53.119999
 20
83.900002
 11
111.620003
 21
83.900002
  0
LINE
  8
0
  6
CONTINUOUS
 10
53.119999
 20
83.900002
 11
53.119999
 21
82.400002
  0
LINE
  8
0
  6
CONTINUOUS
 10
99.120003
 20
83.900002
 11
99.120003
 21
82.400002
  0
LINE
  8
0
  6
CONTINUOUS
 10
51.619999
 20
132.899994
 11
51.619999
 21
85.900002
  0
LINE
  8
0
  6
CONTINUOUS
 10
113.620003
 20
132.900024
 11
113.620003
 21
85.900002
  0
LINE
  8
0
  6
CONTINUOUS
 10
113.620003
 20
85.900002
 11
111.620003
 21
83.900002
  0
LINE
  8
0
  6
CONTINUOUS
 10
51.619999
 20
85.900002
 11
53.619999
 21
83.900002
  0
LINE
  8
0
  6
CONTINUOUS
 10
51.619999
 20
85.900002
 11
113.620003
 21
85.900002
  0
LINE
  8
0
  6
CONTINUOUS
 10
51.619999
 20
95.900017
 11
113.620003
 21
95.900017
  0
LINE
  8
0
  6
CENTER
 10
82.620003
 20
137.328995
 11
82.620003
 21
79.305992
  0
LINE
  8
0
  6
CONTINUOUS
 10
51.619999
 20
96.900017
 11
113.620003
 21
96.900017
  0
LINE
  8
0
  6
CONTINUOUS
 10
52.619999
 20
133.899994
 11
112.620003
 21
133.900024
  0
LINE
  8
0
  6
CONTINUOUS
 10
112.620003
 20
133.900024
 11
113.620003
 21
132.900024
  0
LINE
  8
0
  6
CONTINUOUS
 10
51.619999
 20
132.899994
 11
52.619999
 21
133.899994
  0
LINE
  8
0
  6
CONTINUOUS
 10
51.619999
 20
132.899994
 11
113.620003
 21
132.900024
  0
LINE
  8
0
  6
CENTER
 10
48.994999
 20
116.900017
 11
54.744999
 21
116.900017
  0
LINE
  8
0
  6
CONTINUOUS
 10
50.494999
 20
127.400017
 11
53.619999
 21
127.400017
  0
LINE
  8
0
  6
CONTINUOUS
 10
50.494999
 20
106.400017
 11
53.619999
 21
106.400017
  0
LINE
  8
0
  6
CONTINUOUS
 10
372.354401
 20
132.900009
 11
372.354401
 21
85.900009
  0
LINE
  8
0
  6
CONTINUOUS
 10
310.354401
 20
132.900009
 11
310.354401
 21
85.900009
  0
LINE
  8
0
  6
CONTINUOUS
 10
311.354401
 20
133.900009
 11
371.354401
 21
133.900009
  0
LINE
  8
0
  6
CONTINUOUS
 10
371.354401
 20
133.900009
 11
372.354401
 21
132.900009
  0
LINE
  8
0
  6
CONTINUOUS
 10
311.354401
 20
133.900009
 11
310.354401
 21
132.900009
  0
LINE
  8
0
  6
CONTINUOUS
 10
310.354401
 20
132.900009
 11
372.354401
 21
132.900009
  0
LINE
  8
0
  6
CENTER
 10
175.619995
 20
311.899994
 11
175.619995
 21
175.399994
  0
LINE
  8
0
  6
CENTER
 10
-7.730625
 20
243.399994
 11
224.119995
 21
243.399994
  0
LINE
  8
0
  6
CONTINUOUS
 10
214.312485
 20
274.399994
 11
135.068314
 21
274.399994
  0
LINE
  8
0
  6
CONTINUOUS
 10
51.119999
 20
281.399994
 11
60.619999
 21
281.399994
  0
LINE
  8
0
  6
CONTINUOUS
 10
51.119999
 20
205.399994
 11
60.619999
 21
205.399994
  0
LINE
  8
0
  6
CONTINUOUS
 10
51.119999
 20
266.399994
 11
51.619999
 21
266.399994
  0
LINE
  8
0
  6
CONTINUOUS
 10
60.619999
 20
205.399994
 11
60.619999
 21
212.399994
  0
LINE
  8
0
  6
CONTINUOUS
 10
51.119999
 20
220.399994
 11
51.619999
 21
220.399994
  0
LINE
  8
0
  6
CONTINUOUS
 10
130.988388
 20
281.399994
 11
60.619999
 21
281.399994
  0
LINE
  8
0
  6
CONTINUOUS
 10
113.620003
 20
266.399994
 11
136.539673
 21
266.399994
  0
LINE
  8
0
  6
CONTINUOUS
 10
133.910858
 20
212.399994
 11
216.910172
 21
212.399994
  0
LINE
  8
0
  6
CONTINUOUS
 10
131.606400
 20
205.399994
 11
60.619999
 21
205.399994
  0
LINE
  8
0
  6
CONTINUOUS
 10
113.620003
 20
220.399994
 11
132.674835
 21
220.399994
  0
LINE
  8
0
  6
CONTINUOUS
 10
168.119995
 20
179.399994
 11
168.119995
 21
203.399994
  0
LINE
  8
0
  6
CONTINUOUS
 10
168.119995
 20
179.399994
 11
185.119995
 21
179.399994
  0
LINE
  8
0
  6
CONTINUOUS
 10
155.619995
 20
277.399994
 11
155.619995
 21
274.399994
  0
LINE
  8
0
  6
CONTINUOUS
 10
195.619995
 20
277.399994
 11
195.619995
 21
274.399994
  0
LINE
  8
0
  6
CONTINUOUS
 10
194.619995
 20
278.399994
 11
156.619995
 21
278.399994
  0
ARC
  8
0
  6
CONTINUOUS
 10
156.619995
 20
277.399994
 40
1.000000
 50
90.000000
 51
180.000000
  0
ARC
  8
0
  6
CONTINUOUS
 10
194.620010
 20
277.399994
 40
1.000000
 50
0.000000
 51
90.000000
  0
LINE
  8
0
  6
CONTINUOUS
 10
185.119995
 20
203.399994
 11
185.119995
 21
179.399994
  0
LINE
  8
0
  6
CONTINUOUS
 10
182.690994
 20
203.399994
 11
182.690994
 21
179.399994
  0
LINE
  8
0
  6
CONTINUOUS
 10
168.119995
 20
307.399994
 11
168.119995
 21
280.399994
  0
LINE
  8
0
  6
CONTINUOUS
 10
168.119995
 20
307.399994
 11
185.119995
 21
307.399994
  0
LINE
  8
0
  6
CONTINUOUS
 10
167.119995
 20
280.399994
 11
184.119995
 21
280.399994
  0
LINE
  8
0
  6
CONTINUOUS
 10
167.119995
 20
280.399994
 11
167.119995
 21
278.399994
  0
LINE
  8
0
  6
CONTINUOUS
 10
184.119995
 20
280.399994
 11
184.119995
 21
278.399994
  0
LINE
  8
0
  6
CONTINUOUS
 10
185.119995
 20
283.399994
 11
185.119995
 21
307.399994
  0
LINE
  8
0
  6
CONTINUOUS
 10
182.690994
 20
283.399994
 11
182.690994
 21
307.399994
  0
LINE
  8
0
  6
CONTINUOUS
 10
182.690994
 20
283.399994
 11
185.119995
 21
283.399994
  0
LINE
  8
0
  6
CONTINUOUS
 10
183.119995
 20
283.399994
 11
183.119995
 21
280.399994
  0
LINE
  8
0
  6
CONTINUOUS
 10
190.619995
 20
213.399994
 11
190.619995
 21
272.434906
  0
LINE
  8
0
  6
CONTINUOUS
 10
160.619995
 20
213.399994
 11
160.619995
 21
272.434906
  0
LINE
  8
0
  6
CONTINUOUS
 10
132.910583
 20
266.402740
 11
133.069000
 21
272.452362
  0
LINE
  8
0
  6
CONTINUOUS
 10
137.394608
 20
213.581253
 11
137.394608
 21
264.400269
  0
LINE
  8
0
  6
CONTINUOUS
 10
60.619999
 20
274.399994
 11
60.619999
 21
281.399994
  0
LINE
  8
0
  6
CONTINUOUS
 10
133.119995
 20
203.399994
 11
218.119995
 21
203.399994
  0
LINE
  8
0
  6
CONTINUOUS
 10
216.311798
 20
272.452362
 11
218.119995
 21
203.399994
  0
ARC
  8
0
  6
CONTINUOUS
 10
214.312485
 20
272.399994
 40
2.000000
 50
1.500000
 51
90.000000
  0
LINE
  8
0
  6
CONTINUOUS
 10
132.072571
 20
243.399994
 11
133.119995
 21
203.399994
  0
LINE
  8
0
  6
CONTINUOUS
 10
215.542694
 20
203.399994
 11
215.542694
 21
211.089691
  0
LINE
  8
0
  6
CONTINUOUS
 10
135.697296
 20
203.399994
 11
135.697296
 21
211.089691
  0
ARC
  8
0
  6
CONTINUOUS
 10
159.619995
 20
213.399994
 40
1.000000
 50
-90.000000
 51
0.000000
  0
ARC
  8
0
  6
CONTINUOUS
 10
191.619995
 20
213.399994
 40
1.000000
 50
180.000000
 51
270.000000
  0
LINE
  8
0
  6
CONTINUOUS
 10
160.619995
 20
213.720001
 11
190.619995
 21
213.720001
  0
ARC
  8
0
  6
CONTINUOUS
 10
216.910172
 20
211.399994
 40
1.000000
 50
1.499998
 51
90.000000
  0
LINE
  8
0
  6
CONTINUOUS
 10
132.987701
 20
279.452362
 11
133.069000
 21
276.347656
  0
ARC
  8
0
  6
CONTINUOUS
 10
133.910858
 20
211.399994
 40
1.000000
 50
90.000000
 51
181.500000
  0
ARC
  8
0
  6
CONTINUOUS
 10
131.606400
 20
203.899994
 40
1.500000
 50
1.499999
 51
90.000000
  0
ARC
  8
0
  6
CONTINUOUS
 10
130.988388
 20
279.399994
 40
2.000000
 50
1.500000
 51
90.000000
  0
ARC
  8
0
  6
CONTINUOUS
 10
135.068314
 20
276.399994
 40
2.000000
 50
181.500000
 51
270.000000
  0
ARC
  8
0
  6
CONTINUOUS
 10
135.068314
 20
272.399994
 40
2.000000
 50
90.000000
 51
178.500000
  0
LINE
  8
0
  6
CENTER
 10
207.619995
 20
199.509842
 11
207.619995
 21
216.650620
  0
LINE
  8
0
  6
DASHED
 10
210.869995
 20
212.399994
 11
210.869995
 21
203.399994
  0
LINE
  8
0
  6
DASHED
 10
204.369995
 20
212.399994
 11
204.369995
 21
203.399994
  0
LINE
  8
0
  6
CENTER
 10
143.619995
 20
199.509842
 11
143.619995
 21
216.650620
  0
LINE
  8
0
  6
DASHED
 10
140.369995
 20
212.399994
 11
140.369995
 21
203.399994
  0
LINE
  8
0
  6
DASHED
 10
146.869995
 20
212.399994
 11
146.869995
 21
203.399994
  0
LINE
  8
0
  6
CONTINUOUS
 10
51.119999
 20
203.399994
 11
51.119999
 21
283.399994
  0
LINE
  8
0
  6
CONTINUOUS
 10
7.120000
 20
283.399994
 11
51.119999
 21
283.399994
  0
LINE
  8
0
  6
CONTINUOUS
 10
7.120000
 20
203.399994
 11
51.119999
 21
203.399994
  0
LINE
  8
0
  6
CONTINUOUS
 10
2.120000
 20
208.399994
 11
2.120000
 21
278.399994
  0
ARC
  8
0
  6
CONTINUOUS
 10
7.120020
 20
278.400024
 40
5.000000
 50
90.000000
 51
180.000000
  0
ARC
  8
0
  6
CONTINUOUS
 10
7.120000
 20
208.399994
 40
5.000000
 50
180.000000
 51
270.000000
  0
LINE
  8
0
  6
CONTINUOUS
 10
4.620000
 20
217.399994
 11
51.119999
 21
217.399994
  0
LINE
  8
0
  6
CONTINUOUS
 10
4.620000
 20
267.399994
 11
51.119999
 21
267.399994
  0
LINE
  8
0
  6
CONTINUOUS
 10
113.620003
 20
214.399994
 11
113.620003
 21
272.399994
  0
LINE
  8
0
  6
CONTINUOUS
 10
51.619999
 20
272.399994
 11
51.619999
 21
214.399994
  0
LINE
  8
0
  6
CONTINUOUS
 10
111.620003
 20
212.399994
 11
53.619999
 21
212.399994
  0
LINE
  8
0
  6
CONTINUOUS
 10
111.620003
 20
274.399994
 11
53.619999
 21
274.399994
  0
LINE
  8
0
  6
CONTINUOUS
 10
53.619999
 20
212.399994
 11
51.619999
 21
214.399994
  0
LINE
  8
0
  6
CONTINUOUS
 10
51.619999
 20
272.399994
 11
53.619999
 21
274.399994
  0
LINE
  8
0
  6
CONTINUOUS
 10
113.620003
 20
272.399994
 11
111.620003
 21
274.399994
  0
LINE
  8
0
  6
CONTINUOUS
 10
113.620003
 20
214.399994
 11
111.620003
 21
212.399994
  0
LINE
  8
0
  6
CONTINUOUS
 10
59.619999
 20
217.399994
 11
59.619999
 21
212.399994
  0
LINE
  8
0
  6
CONTINUOUS
 10
56.619999
 20
220.399994
 11
51.619999
 21
220.399994
  0
CIRCLE
  8
0
  6
CONTINUOUS
 10
55.619999
 20
216.399994
 40
2.250000
  0
ARC
  8
0
  6
CONTINUOUS
 10
56.619999
 20
217.399994
 40
3.000000
 50
0.000000
 51
90.000000
  0
LINE
  8
0
  6
CONTINUOUS
 10
52.619999
 20
221.399994
 11
52.619999
 21
265.399994
  0
LINE
  8
0
  6
CONTINUOUS
 10
56.619999
 20
221.399994
 11
52.619999
 21
221.399994
  0
ARC
  8
0
  6
CONTINUOUS
 10
56.619999
 20
217.399994
 40
4.000000
 50
0.000000
 51
90.000000
  0
LINE
  8
0
  6
CONTINUOUS
 10
60.619999
 20
213.399994
 11
60.619999
 21
217.399994
  0
LINE
  8
0
  6
CONTINUOUS
 10
52.619999
 20
221.399994
 11
51.619999
 21
220.399994
  0
LINE
  8
0
  6
CONTINUOUS
 10
104.620003
 20
213.399994
 11
60.619999
 21
213.399994
  0
LINE
  8
0
  6
CONTINUOUS
 10
60.619999
 20
213.399994
 11
59.619999
 21
212.399994
  0
LINE
  8
0
  6
CONTINUOUS
 10
108.620003
 20
220.399994
 11
113.620003
 21
220.399994
  0
LINE
  8
0
  6
CONTINUOUS
 10
105.620003
 20
217.399994
 11
105.620003
 21
212.399994
  0
CIRCLE
  8
0
  6
CONTINUOUS
 10
109.620003
 20
216.399994
 40
2.250000
  0
ARC
  8
0
  6
CONTINUOUS
 10
108.620003
 20
217.399994
 40
3.000000
 50
90.000000
 51
180.000000
  0
LINE
  8
0
  6
CONTINUOUS
 10
104.620003
 20
217.399994
 11
104.620003
 21
213.399994
  0
ARC
  8
0
  6
CONTINUOUS
 10
108.620003
 20
217.399994
 40
4.000000
 50
90.000000
 51
180.000000
  0
LINE
  8
0
  6
CONTINUOUS
 10
112.620003
 20
221.399994
 11
108.620003
 21
221.399994
  0
LINE
  8
0
  6
CONTINUOUS
 10
104.620003
 20
213.399994
 11
105.620003
 21
212.399994
  0
LINE
  8
0
  6
CONTINUOUS
 10
112.620003
 20
221.399994
 11
113.620003
 21
220.399994
  0
LINE
  8
0
  6
CONTINUOUS
 10
105.620003
 20
269.399994
 11
105.620003
 21
274.399994
  0
LINE
  8
0
  6
CONTINUOUS
 10
108.620003
 20
266.399994
 11
113.620003
 21
266.399994
  0
CIRCLE
  8
0
  6
CONTINUOUS
 10
109.620003
 20
270.399994
 40
2.250000
  0
ARC
  8
0
  6
CONTINUOUS
 10
108.620003
 20
269.399994
 40
3.000000
 50
180.000000
 51
270.000000
  0
LINE
  8
0
  6
CONTINUOUS
 10
108.620003
 20
265.399994
 11
112.620003
 21
265.399994
  0
ARC
  8
0
  6
CONTINUOUS
 10
108.620003
 20
269.399994
 40
4.000000
 50
180.000000
 51
270.000000
  0
LINE
  8
0
  6
CONTINUOUS
 10
104.620003
 20
273.399994
 11
104.620003
 21
269.399994
  0
LINE
  8
0
  6
CONTINUOUS
 10
112.620003
 20
265.399994
 11
113.620003
 21
266.399994
  0
LINE
  8
0
  6
CONTINUOUS
 10
104.620003
 20
273.399994
 11
105.620003
 21
274.399994
  0
LINE
  8
0
  6
CONTINUOUS
 10
56.619999
 20
266.399994
 11
51.619999
 21
266.399994
  0
LINE
  8
0
  6
CONTINUOUS
 10
59.619999
 20
269.399994
 11
59.619999
 21
274.399994
  0
CIRCLE
  8
0
  6
CONTINUOUS
 10
55.619999
 20
270.399994
 40
2.250000
  0
ARC
  8
0
  6
CONTINUOUS
 10
56.619999
 20
269.399994
 40
3.000000
 50
-90.000000
 51
0.000000
  0
LINE
  8
0
  6
CONTINUOUS
 10
60.619999
 20
269.399994
 11
60.619999
 21
273.399994
  0
ARC
  8
0
  6
CONTINUOUS
 10
56.619999
 20
269.399994
 40
4.000000
 50
-90.000000
 51
0.000000
  0
LINE
  8
0
  6
CONTINUOUS
 10
52.619999
 20
265.399994
 11
56.619999
 21
265.399994
  0
LINE
  8
0
  6
CONTINUOUS
 10
60.619999
 20
273.399994
 11
59.619999
 21
274.399994
  0
LINE
  8
0
  6
CONTINUOUS
 10
52.619999
 20
265.399994
 11
51.619999
 21
266.399994
  0
LINE
  8
0
  6
CONTINUOUS
 10
104.620003
 20
273.399994
 11
60.619999
 21
273.399994
  0
LINE
  8
0
  6
CONTINUOUS
 10
112.620003
 20
221.399994
 11
112.620003
 21
265.399994
  0
LINE
  8
0
  6
CENTER
 10
82.620003
 20
207.153748
 11
82.620003
 21
279.846558
  0
TEXT
  8
0
 10
-7.000000
 20
-6.000000
 40
4.000000
 41
1.000000
  1
HFMN-15T-10~120-T40C
 50
0.000000
  0
ENDSEC
  0
EOF
