  0
SECTION
  2
HEADER
  9
$CLAYER
  8
1
  9
$LTSCALE
 40
3.0
  0
ENDSEC
  0
SECTION
  2
TABLES
  0
TABLE
  2
LTYPE
 70
     4
  0
LTYPE
  2
CONTINUOUS
  3
solid line
 70
    64
 72
    65
 73
     0
 40
0.0
  0
LTYPE
  2
DASHED
  3
__ __ __ __ __ __ __ __ __ __ __ __ __ __ __
 70
    64
 72
    65
 73
     2
 40
0.75
 49
0.5
 49
-0.25
  0
LTYPE
  2
CENTER
  3
____ _ ____ _ ____ _ ____ _ ____ _ ____ _ ____
 70
    64
 72
    65
 73
     4
 40
2.0
 49
1.25
 49
-0.25
 49
0.25
 49
-0.25
  0
LTYPE
  2
PHANTOM
  3
_____ _ _ _____ _ _ _____ _ _ _____ _ _ ____
 70
    64
 72
    65
 73
     6
 40
2.5
 49
1.25
 49
-0.25
 49
0.25
 49
-0.25
 49
0.25
 49
-0.25
  0
ENDTAB
  0
TABLE
  2
LAYER
 70
     1
  0
LAYER
  2
0
 70
    64
 62
     7
  6
CONTINUOUS
  0
ENDTAB
  0
TABLE
  2
STYLE
 70
     1
  0
STYLE
  2
STANDARD
 70
     0
 40
0.000000
 41
1.000000
 50
0.000000
 71
     0
 42
3.000000
  3
txt
  4
BIGFONT
  0
ENDTAB
  0
ENDSEC
  0
SECTION
  2
BLOCKS
  0
ENDSEC
  0
SECTION
  2
ENTITIES
  0
LINE
  8
0
  6
CENTER
 10
53.062500
 20
-0.352500
 11
53.062500
 21
159.500000
  0
LINE
  8
0
  6
CONTINUOUS
 10
5.062500
 20
124.347504
 11
5.062500
 21
6.347500
  0
LINE
  8
0
  6
CONTINUOUS
 10
95.062500
 20
102.847488
 11
95.062500
 21
57.847488
  0
LINE
  8
0
  6
CONTINUOUS
 10
90.062500
 20
115.399384
 11
90.062500
 21
15.295580
  0
LINE
  8
0
  6
CENTER
 10
-4.250000
 20
80.347504
 11
135.000000
 21
80.347504
  0
LINE
  8
0
  6
CONTINUOUS
 10
92.062523
 20
103.847504
 11
94.062500
 21
103.847504
  0
LINE
  8
0
  6
CONTINUOUS
 10
92.062523
 20
56.847492
 11
94.062500
 21
56.847492
  0
LINE
  8
0
  6
CONTINUOUS
 10
15.062500
 20
32.847511
 11
15.062500
 21
7.847500
  0
LINE
  8
0
  6
CONTINUOUS
 10
13.527851
 20
124.347504
 11
5.062500
 21
124.347504
  0
LINE
  8
0
  6
CONTINUOUS
 10
13.527851
 20
6.347500
 11
5.062500
 21
6.347500
  0
LINE
  8
0
  6
CONTINUOUS
 10
87.114838
 20
118.398933
 11
17.027611
 21
119.622032
  0
LINE
  8
0
  6
CONTINUOUS
 10
87.114861
 20
12.296040
 11
17.027580
 21
11.072420
  0
LINE
  8
0
  6
CONTINUOUS
 10
88.295967
 20
94.847504
 11
18.062519
 21
94.847504
  0
LINE
  8
0
  6
CONTINUOUS
 10
88.295967
 20
35.847500
 11
18.062519
 21
35.847500
  0
ARC
  8
0
  6
CONTINUOUS
 10
87.062523
 20
115.399384
 40
3.000000
 50
0.000000
 51
89.000359
  0
ARC
  8
0
  6
CONTINUOUS
 10
87.062500
 20
15.295580
 40
3.000000
 50
-88.999687
 51
0.000000
  0
ARC
  8
0
  6
CONTINUOUS
 10
18.062519
 20
32.847519
 40
3.000000
 50
90.000000
 51
180.000000
  0
ARC
  8
0
  6
CONTINUOUS
 10
18.062500
 20
97.847504
 40
3.000000
 50
180.000000
 51
270.000000
  0
LINE
  8
0
  6
CENTER
 10
0.000000
 20
15.347500
 11
19.750000
 21
15.347500
  0
LINE
  8
0
  6
CENTER
 10
1.750000
 20
115.347504
 11
18.750000
 21
115.347504
  0
LINE
  8
0
  6
DASHED
 10
5.062500
 20
111.097504
 11
15.062500
 21
111.097504
  0
LINE
  8
0
  6
DASHED
 10
5.062500
 20
119.597504
 11
15.062500
 21
119.597504
  0
LINE
  8
0
  6
DASHED
 10
5.062500
 20
19.597500
 11
15.062500
 21
19.597500
  0
LINE
  8
0
  6
DASHED
 10
5.062500
 20
11.097500
 11
15.062500
 21
11.097500
  0
LINE
  8
0
  6
CONTINUOUS
 10
27.062519
 20
9.647500
 11
79.062492
 21
9.647500
  0
ARC
  8
0
  6
CONTINUOUS
 10
79.062500
 20
12.647500
 40
3.000000
 50
270.000000
 51
351.561890
  0
ARC
  8
0
  6
CONTINUOUS
 10
27.062500
 20
12.647500
 40
3.000000
 50
208.811905
 51
270.000000
  0
ARC
  8
0
  6
CONTINUOUS
 10
92.062500
 20
105.847504
 40
2.000000
 50
180.000000
 51
270.000000
  0
ARC
  8
0
  6
CONTINUOUS
 10
92.062523
 20
54.847504
 40
2.000000
 50
90.000000
 51
180.000000
  0
ARC
  8
0
  6
CONTINUOUS
 10
94.062500
 20
57.847492
 40
1.000000
 50
-90.000000
 51
0.000000
  0
ARC
  8
0
  6
CONTINUOUS
 10
94.062500
 20
102.847488
 40
1.000000
 50
0.000000
 51
90.000000
  0
ARC
  8
0
  6
CONTINUOUS
 10
53.062500
 20
54.647495
 40
45.000000
 50
-34.692108
 51
20.459709
  0
ARC
  8
0
  6
CONTINUOUS
 10
13.562500
 20
7.847500
 40
1.500000
 50
-90.000000
 51
0.000000
  0
LINE
  8
0
  6
CENTER
 10
-4.250000
 20
54.647495
 11
107.062500
 21
54.647495
  0
LINE
  8
0
  6
CONTINUOUS
 10
15.062500
 20
122.347488
 11
15.062500
 21
97.847488
  0
ARC
  8
0
  6
CONTINUOUS
 10
13.062511
 20
122.347488
 40
2.000000
 50
0.000000
 51
90.000000
  0
LINE
  8
0
  6
CONTINUOUS
 10
15.459710
 20
122.865143
 11
15.740310
 21
121.817902
  0
ARC
  8
0
  6
CONTINUOUS
 10
13.527859
 20
122.347488
 40
2.000000
 50
15.000470
 51
90.000000
  0
ARC
  8
0
  6
CONTINUOUS
 10
17.062481
 20
121.621742
 40
2.000000
 50
180.000000
 51
269.000610
  0
ARC
  8
0
  6
CONTINUOUS
 10
18.638069
 20
122.594398
 40
3.000000
 50
195.000504
 51
269.000488
  0
LINE
  8
0
  6
CONTINUOUS
 10
15.459700
 20
7.829860
 11
15.740150
 21
8.876530
  0
ARC
  8
0
  6
CONTINUOUS
 10
13.527851
 20
8.347500
 40
2.000000
 50
270.000000
 51
345.000000
  0
ARC
  8
0
  6
CONTINUOUS
 10
17.062519
 20
9.072740
 40
2.000000
 50
91.000641
 51
180.000000
  0
ARC
  8
0
  6
CONTINUOUS
 10
18.637939
 20
8.100080
 40
3.000000
 50
91.000458
 51
165.000198
  0
LINE
  8
0
  6
CONTINUOUS
 10
100.062500
 20
28.546989
 11
100.062500
 21
71.347504
  0
LINE
  8
0
  6
CONTINUOUS
 10
26.961981
 20
7.647500
 11
79.163010
 21
7.647500
  0
LINE
  8
0
  6
CONTINUOUS
 10
22.012251
 20
9.697740
 11
20.575621
 21
11.134350
  0
ARC
  8
0
  6
CONTINUOUS
 10
93.062500
 20
28.546980
 40
7.000000
 50
-44.999882
 51
0.000000
  0
ARC
  8
0
  6
CONTINUOUS
 10
79.163010
 20
14.647500
 40
7.000000
 50
270.000000
 51
315.000000
  0
ARC
  8
0
  6
CONTINUOUS
 10
26.961981
 20
14.647500
 40
7.000000
 50
225.000107
 51
270.000000
  0
LINE
  8
0
  6
CONTINUOUS
 10
84.112747
 20
9.697750
 11
86.703873
 21
12.288880
  0
LINE
  8
0
  6
CONTINUOUS
 10
98.012253
 20
23.597250
 11
90.062500
 21
15.647500
  0
LINE
  8
0
  6
CONTINUOUS
 10
127.062500
 20
71.347504
 11
127.062500
 21
89.347504
  0
LINE
  8
0
  6
CONTINUOUS
 10
97.062500
 20
89.347504
 11
127.062500
 21
89.347504
  0
LINE
  8
0
  6
CONTINUOUS
 10
97.062500
 20
71.347504
 11
127.062500
 21
71.347504
  0
LINE
  8
0
  6
CONTINUOUS
 10
97.062500
 20
90.347504
 11
97.062500
 21
70.347504
  0
LINE
  8
0
  6
CONTINUOUS
 10
95.062500
 20
90.347504
 11
97.062500
 21
90.347504
  0
LINE
  8
0
  6
CONTINUOUS
 10
95.062500
 20
70.347504
 11
97.062500
 21
70.347504
  0
ARC
  8
0
  6
CONTINUOUS
 10
103.062500
 20
80.347504
 40
3.000000
 50
90.000000
 51
270.000000
  0
LINE
  8
0
  6
CONTINUOUS
 10
103.062500
 20
83.347504
 11
127.062500
 21
83.347504
  0
LINE
  8
0
  6
CONTINUOUS
 10
103.062523
 20
77.347504
 11
127.062500
 21
77.347504
  0
LINE
  8
0
  6
CONTINUOUS
 10
383.239990
 20
9.647500
 11
383.239990
 21
99.647499
  0
LINE
  8
0
  6
CENTER
 10
450.436890
 20
54.647495
 11
281.234985
 21
54.647495
  0
LINE
  8
0
  6
CONTINUOUS
 10
209.740005
 20
35.847500
 11
209.740005
 21
94.847504
  0
LINE
  8
0
  6
CONTINUOUS
 10
383.239990
 20
99.647499
 11
303.897400
 21
99.647499
  0
LINE
  8
0
  6
CONTINUOUS
 10
312.739990
 20
9.647500
 11
383.239990
 21
9.647500
  0
LINE
  8
0
  6
CENTER
 10
288.781555
 20
80.347504
 11
226.178757
 21
80.347504
  0
LINE
  8
0
  6
CENTER
 10
260.239990
 20
132.897507
 11
260.239990
 21
-2.445850
  0
LINE
  8
0
  6
CONTINUOUS
 10
300.239990
 20
124.347504
 11
220.240005
 21
124.347504
  0
LINE
  8
0
  6
CONTINUOUS
 10
300.239990
 20
6.347500
 11
220.240005
 21
6.347500
  0
LINE
  8
0
  6
CENTER
 10
227.240005
 20
115.347504
 11
213.365005
 21
115.347504
  0
LINE
  8
0
  6
CENTER
 10
220.240005
 20
108.647499
 11
220.240005
 21
122.147499
  0
CIRCLE
  8
0
  6
CONTINUOUS
 10
220.240005
 20
115.347504
 40
4.250000
  0
LINE
  8
0
  6
CENTER
 10
227.240005
 20
15.347500
 11
213.365005
 21
15.347500
  0
LINE
  8
0
  6
CENTER
 10
220.240005
 20
22.047501
 11
220.240005
 21
8.547500
  0
CIRCLE
  8
0
  6
CONTINUOUS
 10
220.240005
 20
15.347500
 40
4.250000
  0
LINE
  8
0
  6
CENTER
 10
293.239990
 20
115.347504
 11
307.114990
 21
115.347504
  0
LINE
  8
0
  6
CENTER
 10
300.239990
 20
108.647499
 11
300.239990
 21
122.147499
  0
CIRCLE
  8
0
  6
CONTINUOUS
 10
300.239990
 20
115.347504
 40
4.250000
  0
LINE
  8
0
  6
CENTER
 10
293.239990
 20
15.347500
 11
307.114990
 21
15.347500
  0
LINE
  8
0
  6
CENTER
 10
300.239990
 20
22.047501
 11
300.239990
 21
8.547500
  0
CIRCLE
  8
0
  6
CONTINUOUS
 10
300.239990
 20
15.347500
 40
4.250000
  0
LINE
  8
0
  6
CONTINUOUS
 10
211.263306
 20
115.994133
 11
209.740005
 21
94.847504
  0
LINE
  8
0
  6
CONTINUOUS
 10
211.263306
 20
14.700940
 11
209.740005
 21
35.847500
  0
ARC
  8
0
  6
CONTINUOUS
 10
220.240005
 20
115.347504
 40
9.000000
 50
90.000000
 51
175.879898
  0
ARC
  8
0
  6
CONTINUOUS
 10
220.240005
 20
15.347500
 40
9.000000
 50
-175.879898
 51
-90.000000
  0
ARC
  8
0
  6
CONTINUOUS
 10
300.239990
 20
115.347504
 40
9.000000
 50
4.120102
 51
90.000000
  0
LINE
  8
0
  6
CONTINUOUS
 10
309.216705
 20
115.994133
 11
310.394196
 21
99.647499
  0
LINE
  8
0
  6
CONTINUOUS
 10
309.216705
 20
14.700940
 11
309.784790
 21
22.586821
  0
ARC
  8
0
  6
CONTINUOUS
 10
300.239990
 20
15.347500
 40
9.000000
 50
270.000000
 51
355.879913
  0
ARC
  8
0
  6
CONTINUOUS
 10
305.739990
 20
19.647530
 40
5.000000
 50
0.000000
 51
90.000000
  0
ARC
  8
0
  6
CONTINUOUS
 10
312.739990
 20
11.647500
 40
2.000000
 50
180.000000
 51
270.000000
  0
LINE
  8
0
  6
CONTINUOUS
 10
310.739990
 20
11.647500
 11
310.739990
 21
19.647530
  0
LINE
  8
0
  6
CONTINUOUS
 10
310.739990
 20
92.247391
 11
310.739990
 21
19.647530
  0
LINE
  8
0
  6
CONTINUOUS
 10
383.239990
 20
89.056801
 11
312.739990
 21
89.056801
  0
LINE
  8
0
  6
CONTINUOUS
 10
383.239990
 20
20.238190
 11
312.239990
 21
20.238190
  0
CIRCLE
  8
0
  6
CONTINUOUS
 10
260.239990
 20
80.347504
 40
23.500000
  0
LINE
  8
0
  6
CONTINUOUS
 10
251.830597
 20
37.347500
 11
248.365005
 21
37.347500
  0
LINE
  8
0
  6
CONTINUOUS
 10
253.743500
 20
43.152470
 11
253.743500
 21
37.347500
  0
LINE
  8
0
  6
CONTINUOUS
 10
257.075500
 20
45.260990
 11
257.075500
 21
47.343494
  0
LINE
  8
0
  6
CONTINUOUS
 10
263.739502
 20
45.260990
 11
263.739502
 21
47.343494
  0
LINE
  8
0
  6
CONTINUOUS
 10
259.756714
 20
46.120022
 11
259.756714
 21
38.440811
  0
LINE
  8
0
  6
CONTINUOUS
 10
261.006195
 20
46.120022
 11
261.006195
 21
38.440811
  0
LINE
  8
0
  6
CONTINUOUS
 10
267.566101
 20
46.120022
 11
267.566101
 21
38.388748
  0
LINE
  8
0
  6
CONTINUOUS
 10
268.711395
 20
42.020100
 11
268.711395
 21
38.388748
  0
LINE
  8
0
  6
CONTINUOUS
 10
252.162399
 20
46.015896
 11
248.951202
 21
46.015896
  0
LINE
  8
0
  6
CONTINUOUS
 10
249.448303
 20
38.518909
 11
248.963303
 21
38.518909
  0
LINE
  8
0
  6
CONTINUOUS
 10
248.951202
 20
46.015896
 11
248.198807
 21
45.082935
  0
LINE
  8
0
  6
CONTINUOUS
 10
248.289307
 20
47.343494
 11
247.079498
 21
45.794315
  0
LINE
  8
0
  6
CONTINUOUS
 10
248.198807
 20
39.324139
 11
248.963303
 21
38.518909
  0
LINE
  8
0
  6
CONTINUOUS
 10
247.079498
 20
38.644600
 11
248.365005
 21
37.347500
  0
LINE
  8
0
  6
CONTINUOUS
 10
247.079498
 20
45.794315
 11
247.079498
 21
38.644600
  0
LINE
  8
0
  6
CONTINUOUS
 10
248.198807
 20
45.082935
 11
248.198807
 21
39.324139
  0
LINE
  8
0
  6
CONTINUOUS
 10
252.780304
 20
45.418552
 11
252.149796
 21
46.015896
  0
LINE
  8
0
  6
CONTINUOUS
 10
252.770294
 20
47.343494
 11
253.743500
 21
46.263515
  0
LINE
  8
0
  6
CONTINUOUS
 10
252.780304
 20
45.260990
 11
253.743500
 21
45.260990
  0
LINE
  8
0
  6
CONTINUOUS
 10
248.289307
 20
47.343494
 11
252.770294
 21
47.343494
  0
LINE
  8
0
  6
CONTINUOUS
 10
251.036194
 20
43.152470
 11
253.743500
 21
43.152470
  0
LINE
  8
0
  6
CONTINUOUS
 10
252.780304
 20
42.059151
 11
251.036194
 21
42.059151
  0
LINE
  8
0
  6
CONTINUOUS
 10
250.281296
 20
38.518909
 11
249.448303
 21
38.518909
  0
LINE
  8
0
  6
CONTINUOUS
 10
252.780304
 20
41.017910
 11
252.780304
 21
41.850899
  0
LINE
  8
0
  6
CONTINUOUS
 10
250.697800
 20
38.518909
 11
250.281296
 21
38.518909
  0
LINE
  8
0
  6
CONTINUOUS
 10
252.780304
 20
40.601398
 11
252.780304
 21
41.017910
  0
LINE
  8
0
  6
CONTINUOUS
 10
252.780304
 20
40.546089
 11
252.780304
 21
40.601398
  0
ARC
  8
0
  6
CONTINUOUS
 10
250.697800
 20
40.601398
 40
2.082500
 50
-89.999786
 51
0.000109
  0
LINE
  8
0
  6
CONTINUOUS
 10
252.780304
 20
38.144321
 11
252.780304
 21
37.347500
  0
LINE
  8
0
  6
CONTINUOUS
 10
253.743500
 20
46.263515
 11
253.743500
 21
45.260990
  0
LINE
  8
0
  6
CONTINUOUS
 10
252.780304
 20
42.059151
 11
252.780304
 21
40.601398
  0
LINE
  8
0
  6
CONTINUOUS
 10
251.036194
 20
43.152470
 11
251.036194
 21
42.059151
  0
LINE
  8
0
  6
CONTINUOUS
 10
252.780304
 20
41.850899
 11
252.780304
 21
42.059151
  0
LINE
  8
0
  6
CONTINUOUS
 10
252.780304
 20
37.347500
 11
253.743500
 21
37.347500
  0
LINE
  8
0
  6
CONTINUOUS
 10
252.780304
 20
38.144321
 11
251.830597
 21
37.347500
  0
LINE
  8
0
  6
CONTINUOUS
 10
261.006195
 20
38.440811
 11
261.422699
 21
38.440811
  0
LINE
  8
0
  6
CONTINUOUS
 10
259.262085
 20
38.440811
 11
259.262085
 21
37.347500
  0
LINE
  8
0
  6
CONTINUOUS
 10
261.422699
 20
38.440811
 11
261.422699
 21
37.347500
  0
LINE
  8
0
  6
CONTINUOUS
 10
263.044403
 20
45.260990
 11
263.739502
 21
45.260990
  0
LINE
  8
0
  6
CONTINUOUS
 10
257.075500
 20
45.260990
 11
257.815186
 21
45.260990
  0
LINE
  8
0
  6
CONTINUOUS
 10
257.075500
 20
47.343494
 11
263.739502
 21
47.343494
  0
LINE
  8
0
  6
CONTINUOUS
 10
259.262085
 20
37.347500
 11
261.422699
 21
37.347500
  0
LINE
  8
0
  6
CONTINUOUS
 10
259.262085
 20
38.440811
 11
259.756714
 21
38.440811
  0
ARC
  8
0
  6
CONTINUOUS
 10
271.067291
 20
44.675289
 40
2.668203
 50
-73.981873
 51
90.003510
  0
ARC
  8
0
  6
CONTINUOUS
 10
271.067291
 20
44.675289
 40
1.627786
 50
-82.585274
 51
62.411850
  0
LINE
  8
0
  6
CONTINUOUS
 10
267.071503
 20
47.343494
 11
271.067291
 21
47.343494
  0
LINE
  8
0
  6
CONTINUOUS
 10
271.277313
 20
43.061119
 11
268.711395
 21
43.061119
  0
LINE
  8
0
  6
CONTINUOUS
 10
267.071503
 20
47.343494
 11
267.071503
 21
46.120022
  0
LINE
  8
0
  6
CONTINUOUS
 10
268.711395
 20
46.120022
 11
268.711395
 21
43.061119
  0
LINE
  8
0
  6
CONTINUOUS
 10
271.803497
 20
42.110680
 11
273.454987
 21
38.388748
  0
LINE
  8
0
  6
CONTINUOUS
 10
270.844299
 20
42.020100
 11
272.407196
 21
38.388748
  0
LINE
  8
0
  6
CONTINUOUS
 10
267.071503
 20
38.388748
 11
267.566101
 21
38.388748
  0
LINE
  8
0
  6
CONTINUOUS
 10
268.711395
 20
38.388748
 11
269.166992
 21
38.388748
  0
LINE
  8
0
  6
CONTINUOUS
 10
269.166992
 20
37.347500
 11
267.071503
 21
37.347500
  0
LINE
  8
0
  6
CONTINUOUS
 10
272.199585
 20
38.388748
 11
272.407196
 21
38.388748
  0
LINE
  8
0
  6
CONTINUOUS
 10
273.454987
 20
38.388748
 11
273.735504
 21
38.388748
  0
LINE
  8
0
  6
CONTINUOUS
 10
272.199585
 20
37.347500
 11
273.735504
 21
37.347500
  0
LINE
  8
0
  6
CONTINUOUS
 10
273.735504
 20
38.388748
 11
273.735504
 21
37.347500
  0
LINE
  8
0
  6
CONTINUOUS
 10
272.199585
 20
38.388748
 11
272.199585
 21
37.347500
  0
LINE
  8
0
  6
CONTINUOUS
 10
269.166992
 20
38.388748
 11
269.166992
 21
37.347500
  0
LINE
  8
0
  6
CONTINUOUS
 10
267.071503
 20
38.388748
 11
267.071503
 21
37.347500
  0
LINE
  8
0
  6
CONTINUOUS
 10
258.173096
 20
46.120022
 11
257.815186
 21
45.260990
  0
LINE
  8
0
  6
CONTINUOUS
 10
262.742493
 20
46.120022
 11
263.044403
 21
45.260990
  0
LINE
  8
0
  6
CONTINUOUS
 10
261.006195
 20
46.120022
 11
262.742493
 21
46.120022
  0
LINE
  8
0
  6
CONTINUOUS
 10
259.756714
 20
46.120022
 11
258.173096
 21
46.120022
  0
LINE
  8
0
  6
CONTINUOUS
 10
268.711395
 20
42.020100
 11
270.844299
 21
42.020100
  0
LINE
  8
0
  6
CONTINUOUS
 10
267.071503
 20
46.120022
 11
267.566101
 21
46.120022
  0
LINE
  8
0
  6
CONTINUOUS
 10
268.711395
 20
46.120022
 11
271.821106
 21
46.118000
  0
LINE
  8
0
  6
CONTINUOUS
 10
252.780304
 20
45.418552
 11
252.780304
 21
45.260990
  0
LINE
  8
0
  6
CONTINUOUS
 10
275.661102
 20
12.347500
 11
244.818893
 21
12.347500
  0
LINE
  8
0
  6
CONTINUOUS
 10
244.818893
 20
118.347504
 11
275.661102
 21
118.347504
  0
LINE
  8
0
  6
CONTINUOUS
 10
278.532593
 20
117.440788
 11
308.611389
 21
96.340691
  0
LINE
  8
0
  6
CONTINUOUS
 10
241.947495
 20
117.440781
 11
209.740005
 21
94.847504
  0
LINE
  8
0
  6
CONTINUOUS
 10
278.532593
 20
13.254200
 11
293.481506
 21
23.740770
  0
LINE
  8
0
  6
CONTINUOUS
 10
241.947403
 20
13.254220
 11
209.740005
 21
35.847500
  0
ARC
  8
0
  6
CONTINUOUS
 10
275.661194
 20
113.347504
 40
5.000000
 50
54.950710
 51
90.000000
  0
ARC
  8
0
  6
CONTINUOUS
 10
244.818893
 20
113.347504
 40
5.000000
 50
90.000000
 51
125.049500
  0
ARC
  8
0
  6
CONTINUOUS
 10
244.818893
 20
17.347500
 40
5.000000
 50
234.950500
 51
270.000000
  0
ARC
  8
0
  6
CONTINUOUS
 10
275.661102
 20
17.347500
 40
5.000000
 50
270.000000
 51
305.049591
  0
LINE
  8
0
  6
CONTINUOUS
 10
296.352905
 20
24.647499
 11
305.739990
 21
24.647499
  0
ARC
  8
0
  6
CONTINUOUS
 10
296.352905
 20
19.647511
 40
5.000000
 50
90.000000
 51
125.049698
  0
ARC
  8
0
  6
CONTINUOUS
 10
305.739990
 20
92.247391
 40
5.000000
 50
0.000000
 51
54.950691
  0
LINE
  8
0
  6
CONTINUOUS
 10
392.739990
 20
99.647499
 11
383.239990
 21
99.647499
  0
LINE
  8
0
  6
CONTINUOUS
 10
383.239990
 20
89.056801
 11
392.739990
 21
89.056801
  0
LINE
  8
0
  6
CONTINUOUS
 10
392.739990
 20
9.647500
 11
383.239990
 21
9.647500
  0
LINE
  8
0
  6
CONTINUOUS
 10
383.239990
 20
20.238190
 11
392.739990
 21
20.238190
  0
LINE
  8
0
  6
CONTINUOUS
 10
392.739990
 20
101.647499
 11
392.739990
 21
7.647500
  0
LINE
  8
0
  6
CONTINUOUS
 10
392.739990
 20
83.647499
 11
436.714996
 21
83.647499
  0
LINE
  8
0
  6
CONTINUOUS
 10
392.739990
 20
25.647499
 11
436.714996
 21
25.647499
  0
LINE
  8
0
  6
CONTINUOUS
 10
435.239990
 20
101.647499
 11
392.739990
 21
101.647499
  0
LINE
  8
0
  6
CONTINUOUS
 10
435.239990
 20
7.647500
 11
392.739990
 21
7.647500
  0
ARC
  8
0
  6
CONTINUOUS
 10
435.239990
 20
96.647530
 40
5.000000
 50
0.000000
 51
90.000000
  0
ARC
  8
0
  6
CONTINUOUS
 10
435.239990
 20
12.647500
 40
5.000000
 50
-90.000000
 51
0.000000
  0
LINE
  8
0
  6
CONTINUOUS
 10
440.239990
 20
96.647507
 11
440.239990
 21
12.647480
  0
LINE
  8
0
  6
CONTINUOUS
 10
254.740005
 20
83.347504
 11
254.740005
 21
77.347504
  0
LINE
  8
0
  6
CONTINUOUS
 10
248.740005
 20
83.347504
 11
248.740005
 21
77.347504
  0
LINE
  8
0
  6
CONTINUOUS
 10
248.740005
 20
83.347504
 11
254.740005
 21
83.347504
  0
LINE
  8
0
  6
CONTINUOUS
 10
248.740005
 20
77.347504
 11
254.740005
 21
77.347504
  0
ARC
  8
0
  6
CONTINUOUS
 10
260.239990
 20
80.347504
 40
9.000000
 50
-160.528793
 51
160.528793
  0
LINE
  8
0
  6
CENTER
 10
260.239990
 20
205.000000
 11
260.239990
 21
350.317810
  0
LINE
  8
0
  6
CENTER
 10
454.408752
 20
285.877502
 11
196.098755
 21
285.877502
  0
LINE
  8
0
  6
CONTINUOUS
 10
213.914124
 20
248.877502
 11
308.791687
 21
248.877502
  0
LINE
  8
0
  6
CONTINUOUS
 10
310.949402
 20
256.874756
 11
310.791016
 21
250.825150
  0
LINE
  8
0
  6
CONTINUOUS
 10
312.897797
 20
240.877502
 11
383.239990
 21
240.877502
  0
LINE
  8
0
  6
CONTINUOUS
 10
330.239990
 20
256.877502
 11
303.897461
 21
256.877502
  0
LINE
  8
0
  6
CONTINUOUS
 10
330.239990
 20
314.877502
 11
312.623138
 21
314.877502
  0
LINE
  8
0
  6
CONTINUOUS
 10
312.766876
 20
330.877502
 11
383.239990
 21
330.877502
  0
LINE
  8
0
  6
CONTINUOUS
 10
311.996918
 20
285.877502
 11
310.739990
 21
333.877502
  0
LINE
  8
0
  6
CONTINUOUS
 10
277.239990
 20
253.877502
 11
277.239990
 21
321.877502
  0
LINE
  8
0
  6
CONTINUOUS
 10
243.240005
 20
253.877502
 11
243.240005
 21
321.877502
  0
LINE
  8
0
  6
CONTINUOUS
 10
303.897461
 20
258.877502
 11
303.897461
 21
322.342499
  0
LINE
  8
0
  6
CONTINUOUS
 10
237.739990
 20
243.877502
 11
282.739990
 21
243.877502
  0
LINE
  8
0
  6
CONTINUOUS
 10
283.739990
 20
244.877502
 11
283.739990
 21
246.877502
  0
LINE
  8
0
  6
CONTINUOUS
 10
236.739990
 20
244.877502
 11
236.739990
 21
246.877502
  0
ARC
  8
0
  6
CONTINUOUS
 10
285.739990
 20
246.877502
 40
2.000000
 50
90.000000
 51
180.000000
  0
ARC
  8
0
  6
CONTINUOUS
 10
234.740005
 20
246.877502
 40
2.000000
 50
0.000000
 51
90.000000
  0
ARC
  8
0
  6
CONTINUOUS
 10
282.739990
 20
244.877502
 40
1.000000
 50
-90.000000
 51
0.000000
  0
ARC
  8
0
  6
CONTINUOUS
 10
237.739990
 20
244.877502
 40
1.000000
 50
180.000000
 51
270.000000
  0
LINE
  8
0
  6
CONTINUOUS
 10
248.740005
 20
211.877502
 11
269.239990
 21
211.877502
  0
LINE
  8
0
  6
CONTINUOUS
 10
269.239990
 20
241.877502
 11
269.239990
 21
211.877502
  0
LINE
  8
0
  6
CONTINUOUS
 10
251.240005
 20
241.877502
 11
251.240005
 21
238.877502
  0
LINE
  8
0
  6
CONTINUOUS
 10
270.239990
 20
241.877502
 11
250.240005
 21
241.877502
  0
LINE
  8
0
  6
CONTINUOUS
 10
270.239990
 20
243.877502
 11
270.239990
 21
241.877502
  0
LINE
  8
0
  6
CONTINUOUS
 10
250.240005
 20
243.877502
 11
250.240005
 21
241.877502
  0
LINE
  8
0
  6
CONTINUOUS
 10
248.740005
 20
211.877502
 11
248.740005
 21
238.877502
  0
LINE
  8
0
  6
CONTINUOUS
 10
248.740005
 20
238.877502
 11
251.755005
 21
238.877502
  0
LINE
  8
0
  6
CONTINUOUS
 10
251.755005
 20
211.877502
 11
251.755005
 21
238.877502
  0
LINE
  8
0
  6
CONTINUOUS
 10
310.739990
 20
333.877502
 11
209.740005
 21
333.877502
  0
LINE
  8
0
  6
CONTINUOUS
 10
211.914795
 20
250.825150
 11
209.740005
 21
333.877502
  0
LINE
  8
0
  6
CONTINUOUS
 10
308.948792
 20
323.877502
 11
211.950180
 21
323.877502
  0
ARC
  8
0
  6
CONTINUOUS
 10
211.950180
 20
325.877502
 40
2.000000
 50
181.500000
 51
270.000000
  0
ARC
  8
0
  6
CONTINUOUS
 10
213.914124
 20
250.877502
 40
2.000000
 50
181.500000
 51
270.000000
  0
ARC
  8
0
  6
CONTINUOUS
 10
241.240005
 20
321.877502
 40
2.000000
 50
0.000000
 51
90.000000
  0
ARC
  8
0
  6
CONTINUOUS
 10
279.239990
 20
321.877502
 40
2.000000
 50
90.000000
 51
180.000000
  0
LINE
  8
0
  6
CONTINUOUS
 10
277.381927
 20
322.617493
 11
243.098068
 21
322.617493
  0
ARC
  8
0
  6
CONTINUOUS
 10
308.948792
 20
325.877502
 40
2.000000
 50
-90.000000
 51
1.500000
  0
ARC
  8
0
  6
CONTINUOUS
 10
312.766876
 20
332.877502
 40
2.000000
 50
181.500000
 51
270.000000
  0
LINE
  8
0
  6
CONTINUOUS
 10
310.898499
 20
242.825150
 11
310.791016
 21
246.929855
  0
ARC
  8
0
  6
CONTINUOUS
 10
312.897797
 20
242.877502
 40
2.000000
 50
181.500000
 51
270.000000
  0
ARC
  8
0
  6
CONTINUOUS
 10
308.791687
 20
246.877502
 40
2.000000
 50
1.500000
 51
90.000000
  0
ARC
  8
0
  6
CONTINUOUS
 10
308.791687
 20
250.877502
 40
2.000000
 50
270.000000
 51
358.500000
  0
LINE
  8
0
  6
CENTER
 10
220.240005
 20
341.566101
 11
220.240005
 21
317.703430
  0
LINE
  8
0
  6
DASHED
 10
215.990005
 20
323.877502
 11
215.990005
 21
333.877502
  0
LINE
  8
0
  6
DASHED
 10
224.490005
 20
323.877502
 11
224.490005
 21
333.877502
  0
LINE
  8
0
  6
CENTER
 10
300.239990
 20
341.566101
 11
300.239990
 21
317.703430
  0
LINE
  8
0
  6
DASHED
 10
304.489990
 20
323.877502
 11
304.489990
 21
333.877502
  0
LINE
  8
0
  6
DASHED
 10
295.989990
 20
323.877502
 11
295.989990
 21
333.877502
  0
LINE
  8
0
  6
CONTINUOUS
 10
392.739990
 20
240.877502
 11
383.239990
 21
240.877502
  0
LINE
  8
0
  6
CONTINUOUS
 10
392.239990
 20
256.877502
 11
392.739990
 21
256.877502
  0
LINE
  8
0
  6
CONTINUOUS
 10
392.739990
 20
330.877502
 11
383.239990
 21
330.877502
  0
LINE
  8
0
  6
CONTINUOUS
 10
383.239990
 20
330.877502
 11
383.239990
 21
316.877502
  0
LINE
  8
0
  6
CONTINUOUS
 10
392.239990
 20
314.877502
 11
392.739990
 21
314.877502
  0
LINE
  8
0
  6
CONTINUOUS
 10
383.239990
 20
254.877502
 11
383.239990
 21
240.877502
  0
LINE
  8
0
  6
CONTINUOUS
 10
392.739990
 20
238.877502
 11
392.739990
 21
332.877502
  0
LINE
  8
0
  6
CONTINUOUS
 10
392.739990
 20
256.877502
 11
436.715027
 21
256.877502
  0
LINE
  8
0
  6
CONTINUOUS
 10
392.739990
 20
314.877502
 11
436.715027
 21
314.877502
  0
LINE
  8
0
  6
CONTINUOUS
 10
435.240021
 20
238.877502
 11
392.739990
 21
238.877502
  0
LINE
  8
0
  6
CONTINUOUS
 10
435.240021
 20
332.877502
 11
392.739990
 21
332.877502
  0
ARC
  8
0
  6
CONTINUOUS
 10
435.239990
 20
243.877502
 40
5.000000
 50
-90.000000
 51
0.000000
  0
ARC
  8
0
  6
CONTINUOUS
 10
435.240021
 20
327.877502
 40
5.000000
 50
0.000000
 51
90.000000
  0
LINE
  8
0
  6
CONTINUOUS
 10
440.239990
 20
243.877502
 11
440.240021
 21
327.877502
  0
LINE
  8
0
  6
CONTINUOUS
 10
390.739990
 20
101.147499
 11
332.239990
 21
101.147499
  0
LINE
  8
0
  6
CONTINUOUS
 10
390.739990
 20
101.147499
 11
390.739990
 21
99.647499
  0
LINE
  8
0
  6
CONTINUOUS
 10
344.739990
 20
101.147499
 11
344.739990
 21
99.647499
  0
LINE
  8
0
  6
CONTINUOUS
 10
392.239990
 20
150.147491
 11
392.239990
 21
103.147499
  0
LINE
  8
0
  6
CONTINUOUS
 10
330.239990
 20
150.147522
 11
330.239990
 21
103.147499
  0
LINE
  8
0
  6
CONTINUOUS
 10
330.239990
 20
103.147499
 11
332.239990
 21
101.147499
  0
LINE
  8
0
  6
CONTINUOUS
 10
392.239990
 20
103.147499
 11
390.239990
 21
101.147499
  0
LINE
  8
0
  6
CONTINUOUS
 10
392.239990
 20
103.147499
 11
330.239990
 21
103.147499
  0
LINE
  8
0
  6
CONTINUOUS
 10
392.239990
 20
113.147514
 11
330.239990
 21
113.147514
  0
LINE
  8
0
  6
CENTER
 10
361.239990
 20
154.576492
 11
361.239990
 21
96.553490
  0
LINE
  8
0
  6
CONTINUOUS
 10
392.239990
 20
114.147514
 11
330.239990
 21
114.147514
  0
LINE
  8
0
  6
CONTINUOUS
 10
391.239990
 20
151.147491
 11
331.239990
 21
151.147522
  0
LINE
  8
0
  6
CONTINUOUS
 10
331.239990
 20
151.147522
 11
330.239990
 21
150.147522
  0
LINE
  8
0
  6
CONTINUOUS
 10
392.239990
 20
150.147491
 11
391.239990
 21
151.147491
  0
LINE
  8
0
  6
CONTINUOUS
 10
392.239990
 20
150.147491
 11
330.239990
 21
150.147522
  0
LINE
  8
0
  6
CENTER
 10
394.864990
 20
134.147522
 11
389.114990
 21
134.147522
  0
LINE
  8
0
  6
CONTINUOUS
 10
393.364990
 20
144.647522
 11
390.239990
 21
144.647522
  0
LINE
  8
0
  6
CONTINUOUS
 10
393.364990
 20
123.647514
 11
390.239990
 21
123.647514
  0
LINE
  8
0
  6
CONTINUOUS
 10
84.062500
 20
150.147522
 11
84.062500
 21
118.452194
  0
LINE
  8
0
  6
CONTINUOUS
 10
22.062500
 20
150.147522
 11
22.062500
 21
119.534164
  0
LINE
  8
0
  6
CONTINUOUS
 10
23.062500
 20
151.147522
 11
83.062500
 21
151.147522
  0
LINE
  8
0
  6
CONTINUOUS
 10
83.062500
 20
151.147522
 11
84.062500
 21
150.147522
  0
LINE
  8
0
  6
CONTINUOUS
 10
23.062500
 20
151.147522
 11
22.062500
 21
150.147522
  0
LINE
  8
0
  6
CONTINUOUS
 10
22.062500
 20
150.147522
 11
84.062500
 21
150.147522
  0
LINE
  8
0
  6
CONTINUOUS
 10
392.239990
 20
256.877502
 11
392.239990
 21
314.877502
  0
LINE
  8
0
  6
CONTINUOUS
 10
330.239990
 20
314.877502
 11
330.239990
 21
256.877502
  0
LINE
  8
0
  6
CENTER
 10
361.239990
 20
249.631256
 11
361.239990
 21
322.324066
  0
LINE
  8
0
  6
CONTINUOUS
 10
390.239990
 20
254.877502
 11
332.239990
 21
254.877502
  0
LINE
  8
0
  6
CONTINUOUS
 10
390.239990
 20
316.877502
 11
332.239990
 21
316.877502
  0
LINE
  8
0
  6
CONTINUOUS
 10
332.239990
 20
254.877502
 11
330.239990
 21
256.877502
  0
LINE
  8
0
  6
CONTINUOUS
 10
330.239990
 20
314.877502
 11
332.239990
 21
316.877502
  0
LINE
  8
0
  6
CONTINUOUS
 10
392.239990
 20
314.877502
 11
390.239990
 21
316.877502
  0
LINE
  8
0
  6
CONTINUOUS
 10
392.239990
 20
256.877502
 11
390.239990
 21
254.877502
  0
LINE
  8
0
  6
CONTINUOUS
 10
338.239990
 20
259.877502
 11
338.239990
 21
254.877502
  0
LINE
  8
0
  6
CONTINUOUS
 10
335.239990
 20
262.877502
 11
330.239990
 21
262.877502
  0
CIRCLE
  8
0
  6
CONTINUOUS
 10
334.239990
 20
258.877502
 40
2.250000
  0
ARC
  8
0
  6
CONTINUOUS
 10
335.239990
 20
259.877502
 40
3.000000
 50
0.000000
 51
90.000000
  0
LINE
  8
0
  6
CONTINUOUS
 10
331.239990
 20
263.877502
 11
331.239990
 21
307.877502
  0
LINE
  8
0
  6
CONTINUOUS
 10
335.239990
 20
263.877502
 11
331.239990
 21
263.877502
  0
ARC
  8
0
  6
CONTINUOUS
 10
335.239990
 20
259.877502
 40
4.000000
 50
0.000000
 51
90.000000
  0
LINE
  8
0
  6
CONTINUOUS
 10
339.239990
 20
255.877502
 11
339.239990
 21
259.877502
  0
LINE
  8
0
  6
CONTINUOUS
 10
331.239990
 20
263.877502
 11
330.239990
 21
262.877502
  0
LINE
  8
0
  6
CONTINUOUS
 10
383.239990
 20
255.877502
 11
339.239990
 21
255.877502
  0
LINE
  8
0
  6
CONTINUOUS
 10
339.239990
 20
255.877502
 11
338.239990
 21
254.877502
  0
LINE
  8
0
  6
CONTINUOUS
 10
387.239990
 20
262.877502
 11
392.239990
 21
262.877502
  0
LINE
  8
0
  6
CONTINUOUS
 10
384.239990
 20
259.877502
 11
384.239990
 21
254.877502
  0
CIRCLE
  8
0
  6
CONTINUOUS
 10
388.239990
 20
258.877502
 40
2.250000
  0
ARC
  8
0
  6
CONTINUOUS
 10
387.239990
 20
259.877502
 40
3.000000
 50
90.000000
 51
180.000000
  0
LINE
  8
0
  6
CONTINUOUS
 10
383.239990
 20
259.877502
 11
383.239990
 21
255.877502
  0
ARC
  8
0
  6
CONTINUOUS
 10
387.239990
 20
259.877502
 40
4.000000
 50
90.000000
 51
180.000000
  0
LINE
  8
0
  6
CONTINUOUS
 10
391.239990
 20
263.877502
 11
387.239990
 21
263.877502
  0
LINE
  8
0
  6
CONTINUOUS
 10
383.239990
 20
255.877502
 11
384.239990
 21
254.877502
  0
LINE
  8
0
  6
CONTINUOUS
 10
391.239990
 20
263.877502
 11
392.239990
 21
262.877502
  0
LINE
  8
0
  6
CONTINUOUS
 10
384.239990
 20
311.877502
 11
384.239990
 21
316.877502
  0
LINE
  8
0
  6
CONTINUOUS
 10
387.239990
 20
308.877502
 11
392.239990
 21
308.877502
  0
CIRCLE
  8
0
  6
CONTINUOUS
 10
388.239990
 20
312.877502
 40
2.250000
  0
ARC
  8
0
  6
CONTINUOUS
 10
387.239990
 20
311.877502
 40
3.000000
 50
180.000000
 51
270.000000
  0
LINE
  8
0
  6
CONTINUOUS
 10
387.239990
 20
307.877502
 11
391.239990
 21
307.877502
  0
ARC
  8
0
  6
CONTINUOUS
 10
387.239990
 20
311.877502
 40
4.000000
 50
180.000000
 51
270.000000
  0
LINE
  8
0
  6
CONTINUOUS
 10
383.239990
 20
315.877502
 11
383.239990
 21
311.877502
  0
LINE
  8
0
  6
CONTINUOUS
 10
391.239990
 20
307.877502
 11
392.239990
 21
308.877502
  0
LINE
  8
0
  6
CONTINUOUS
 10
383.239990
 20
315.877502
 11
384.239990
 21
316.877502
  0
LINE
  8
0
  6
CONTINUOUS
 10
335.239990
 20
308.877502
 11
330.239990
 21
308.877502
  0
LINE
  8
0
  6
CONTINUOUS
 10
338.239990
 20
311.877502
 11
338.239990
 21
316.877502
  0
CIRCLE
  8
0
  6
CONTINUOUS
 10
334.239990
 20
312.877502
 40
2.250000
  0
ARC
  8
0
  6
CONTINUOUS
 10
335.239990
 20
311.877502
 40
3.000000
 50
-90.000000
 51
0.000000
  0
LINE
  8
0
  6
CONTINUOUS
 10
339.239990
 20
311.877502
 11
339.239990
 21
315.877502
  0
ARC
  8
0
  6
CONTINUOUS
 10
335.239990
 20
311.877502
 40
4.000000
 50
-90.000000
 51
0.000000
  0
LINE
  8
0
  6
CONTINUOUS
 10
331.239990
 20
307.877502
 11
335.239990
 21
307.877502
  0
LINE
  8
0
  6
CONTINUOUS
 10
339.239990
 20
315.877502
 11
338.239990
 21
316.877502
  0
LINE
  8
0
  6
CONTINUOUS
 10
331.239990
 20
307.877502
 11
330.239990
 21
308.877502
  0
LINE
  8
0
  6
CONTINUOUS
 10
383.239990
 20
315.877502
 11
339.239990
 21
315.877502
  0
LINE
  8
0
  6
CONTINUOUS
 10
391.239990
 20
263.877502
 11
391.239990
 21
307.877502
  0
TEXT
  8
0
 10
-47.000000
 20
-2.000000
 40
4.000000
 41
1.000000
  1
HFMN-18L-10~240-S60WC
 50
0.000000
  0
ENDSEC
  0
EOF
