  0
SECTION
  2
HEADER
  9
$ACADVER
  1
AC1014
  9
$ACADMAINTVER
 70
     9
  9
$DWGCODEPAGE
  3
ANSI_932
  9
$INSBASE
 10
0.0
 20
0.0
 30
0.0
  9
$EXTMIN
 10
39.08652613416711
 20
40.9285860850349
 30
0.0
  9
$EXTMAX
 10
753.8497119461371
 20
405.5348007276049
 30
0.0
  9
$LIMMIN
 10
-29.60814593514942
 20
-30.04827381335315
  9
$LIMMAX
 10
625.7653034018225
 20
435.9714686973676
  9
$ORTHOMODE
 70
     1
  9
$REGENMODE
 70
     1
  9
$FILLMODE
 70
     1
  9
$QTEXTMODE
 70
     0
  9
$MIRRTEXT
 70
     0
  9
$DRAGMODE
 70
     2
  9
$LTSCALE
 40
2.0
  9
$OSMODE
 70
    37
  9
$ATTMODE
 70
     1
  9
$TEXTSIZE
 40
2.0
  9
$TRACEWID
 40
1.0
  9
$TEXTSTYLE
  7
STANDARD
  9
$CLAYER
  8
0
  9
$CELTYPE
  6
BYLAYER
  9
$CECOLOR
 62
   256
  9
$CELTSCALE
 40
1.0
  9
$DELOBJ
 70
     1
  9
$DISPSILH
 70
     0
  9
$DIMSCALE
 40
2.0
  9
$DIMASZ
 40
1.8
  9
$DIMEXO
 40
0.625
  9
$DIMDLI
 40
3.75
  9
$DIMRND
 40
0.0
  9
$DIMDLE
 40
0.0
  9
$DIMEXE
 40
0.8
  9
$DIMTP
 40
0.0
  9
$DIMTM
 40
0.0
  9
$DIMTXT
 40
1.8
  9
$DIMCEN
 40
2.5
  9
$DIMTSZ
 40
0.0
  9
$DIMTOL
 70
     0
  9
$DIMLIM
 70
     0
  9
$DIMTIH
 70
     0
  9
$DIMTOH
 70
     0
  9
$DIMSE1
 70
     0
  9
$DIMSE2
 70
     0
  9
$DIMTAD
 70
     1
  9
$DIMZIN
 70
     8
  9
$DIMBLK
  1

  9
$DIMASO
 70
     1
  9
$DIMSHO
 70
     1
  9
$DIMPOST
  1

  9
$DIMAPOST
  1

  9
$DIMALT
 70
     0
  9
$DIMALTD
 70
     4
  9
$DIMALTF
 40
0.0394
  9
$DIMLFAC
 40
1.0
  9
$DIMTOFL
 70
     1
  9
$DIMTVP
 40
0.0
  9
$DIMTIX
 70
     0
  9
$DIMSOXD
 70
     0
  9
$DIMSAH
 70
     0
  9
$DIMBLK1
  1

  9
$DIMBLK2
  1

  9
$DIMSTYLE
  2
STANDARD
  9
$DIMCLRD
 70
     0
  9
$DIMCLRE
 70
     0
  9
$DIMCLRT
 70
     0
  9
$DIMTFAC
 40
1.0
  9
$DIMGAP
 40
0.75
  9
$DIMJUST
 70
     0
  9
$DIMSD1
 70
     0
  9
$DIMSD2
 70
     0
  9
$DIMTOLJ
 70
     1
  9
$DIMTZIN
 70
     0
  9
$DIMALTZ
 70
     0
  9
$DIMALTTZ
 70
     0
  9
$DIMFIT
 70
     3
  9
$DIMUPT
 70
     0
  9
$DIMUNIT
 70
     8
  9
$DIMDEC
 70
     2
  9
$DIMTDEC
 70
     2
  9
$DIMALTU
 70
     8
  9
$DIMALTTD
 70
     4
  9
$DIMTXSTY
  7
STANDARD
  9
$DIMAUNIT
 70
     0
  9
$LUNITS
 70
     2
  9
$LUPREC
 70
     3
  9
$SKETCHINC
 40
1.0
  9
$FILLETRAD
 40
10.0
  9
$AUNITS
 70
     0
  9
$AUPREC
 70
     2
  9
$MENU
  1
.
  9
$ELEVATION
 40
0.0
  9
$PELEVATION
 40
0.0
  9
$THICKNESS
 40
0.0
  9
$LIMCHECK
 70
     0
  9
$BLIPMODE
 70
     0
  9
$CHAMFERA
 40
0.0
  9
$CHAMFERB
 40
0.0
  9
$CHAMFERC
 40
20.0
  9
$CHAMFERD
 40
0.0
  9
$SKPOLY
 70
     0
  9
$TDCREATE
 40
2453754.487113715
  9
$TDUPDATE
 40
2453832.468576747
  9
$TDINDWG
 40
0.1410212384
  9
$TDUSRTIMER
 40
0.1410212384
  9
$USRTIMER
 70
     1
  9
$ANGBASE
 50
0.0
  9
$ANGDIR
 70
     0
  9
$PDMODE
 70
     0
  9
$PDSIZE
 40
-10.0
  9
$PLINEWID
 40
0.0
  9
$COORDS
 70
     0
  9
$SPLFRAME
 70
     0
  9
$SPLINETYPE
 70
     6
  9
$SPLINESEGS
 70
     8
  9
$ATTDIA
 70
     0
  9
$ATTREQ
 70
     1
  9
$HANDLING
 70
-16383
  9
$HANDSEED
  5
2530
  9
$SURFTAB1
 70
     6
  9
$SURFTAB2
 70
     6
  9
$SURFTYPE
 70
     6
  9
$SURFU
 70
     6
  9
$SURFV
 70
     6
  9
$UCSNAME
  2

  9
$UCSORG
 10
0.0
 20
0.0
 30
0.0
  9
$UCSXDIR
 10
1.0
 20
0.0
 30
0.0
  9
$UCSYDIR
 10
0.0
 20
1.0
 30
0.0
  9
$PUCSNAME
  2

  9
$PUCSORG
 10
0.0
 20
0.0
 30
0.0
  9
$PUCSXDIR
 10
1.0
 20
0.0
 30
0.0
  9
$PUCSYDIR
 10
0.0
 20
1.0
 30
0.0
  9
$USERI1
 70
     0
  9
$USERI2
 70
     0
  9
$USERI3
 70
     0
  9
$USERI4
 70
     0
  9
$USERI5
 70
     0
  9
$USERR1
 40
0.0
  9
$USERR2
 40
0.0
  9
$USERR3
 40
0.0
  9
$USERR4
 40
0.0
  9
$USERR5
 40
0.0
  9
$WORLDVIEW
 70
     1
  9
$SHADEDGE
 70
     3
  9
$SHADEDIF
 70
    70
  9
$TILEMODE
 70
     1
  9
$MAXACTVP
 70
    48
  9
$PINSBASE
 10
0.0
 20
0.0
 30
0.0
  9
$PLIMCHECK
 70
     0
  9
$PEXTMIN
 10
0.0
 20
0.0
 30
0.0
  9
$PEXTMAX
 10
0.0
 20
0.0
 30
0.0
  9
$PLIMMIN
 10
0.0
 20
0.0
  9
$PLIMMAX
 10
12.0
 20
9.0
  9
$UNITMODE
 70
     0
  9
$VISRETAIN
 70
     1
  9
$PLINEGEN
 70
     0
  9
$PSLTSCALE
 70
     1
  9
$TREEDEPTH
 70
  3020
  9
$PICKSTYLE
 70
     1
  9
$CMLSTYLE
  2
STANDARD
  9
$CMLJUST
 70
     0
  9
$CMLSCALE
 40
1.0
  9
$PROXYGRAPHICS
 70
     1
  9
$MEASUREMENT
 70
     0
  0
ENDSEC
  0
SECTION
  2
CLASSES
  0
CLASS
  1
DICTIONARYVAR
  2
AcDbDictionaryVar
  3
AutoCAD 2000
 90
        0
280
     0
281
     0
  0
CLASS
  1
ACDBDICTIONARYWDFLT
  2
AcDbDictionaryWithDefault
  3
AutoCAD 2000
 90
        0
280
     0
281
     0
  0
CLASS
  1
ACDBPLACEHOLDER
  2
AcDbPlaceHolder
  3
AutoCAD 2000
 90
        0
280
     0
281
     0
  0
CLASS
  1
LAYOUT
  2
AcDbLayout
  3
AutoCAD 2000
 90
        0
280
     0
281
     0
  0
CLASS
  1
LONG_TRANSACTION
  2
AcDbLongTransaction
  3
AutoCAD 2000
 90
        0
280
     0
281
     0
  0
CLASS
  1
LWPOLYLINE
  2
AcDbPolyline
  3
AutoCAD 2000
 90
        0
280
     0
281
     1
  0
CLASS
  1
HATCH
  2
AcDbHatch
  3
AutoCAD 2000
 90
        0
280
     0
281
     1
  0
CLASS
  1
XRECORD
  2
AcDbXrecord
  3
AutoCAD 2000
 90
        0
280
     0
281
     0
  0
ENDSEC
  0
SECTION
  2
TABLES
  0
TABLE
  2
VPORT
  5
6E
330
0
100
AcDbSymbolTable
 70
     2
  0
VPORT
  5
250A
330
6E
100
AcDbSymbolTableRecord
100
AcDbViewportTableRecord
  2
*ACTIVE
 70
     0
 10
0.0
 20
0.0
 11
1.0
 21
1.0
 12
390.5087592083615
 22
212.8279680565601
 13
0.0
 23
0.0
 14
10.0
 24
10.0
 15
12.0
 25
12.0
 16
0.0
 26
0.0
 36
1.0
 17
0.0
 27
0.0
 37
0.0
 40
466.0711648938844
 41
1.566970091027308
 42
50.0
 43
0.0
 44
0.0
 50
0.0
 51
0.0
 71
     0
 72
   100
 73
     1
 74
     3
 75
     0
 76
     0
 77
     0
 78
     0
  0
ENDTAB
  0
TABLE
  2
LTYPE
  5
69
330
0
100
AcDbSymbolTable
 70
     3
  0
LTYPE
  5
6A
330
69
100
AcDbSymbolTableRecord
100
AcDbLinetypeTableRecord
  2
BYBLOCK
 70
     0
  3

 72
    65
 73
     0
 40
0.0
  0
LTYPE
  5
6B
330
69
100
AcDbSymbolTableRecord
100
AcDbLinetypeTableRecord
  2
BYLAYER
 70
     0
  3

 72
    65
 73
     0
 40
0.0
  0
LTYPE
  5
8
330
69
100
AcDbSymbolTableRecord
100
AcDbLinetypeTableRecord
  2
CONTINUOUS
 70
     0
  3
Solid line
 72
    65
 73
     0
 40
0.0
  0
LTYPE
  5
27C
330
69
100
AcDbSymbolTableRecord
100
AcDbLinetypeTableRecord
  2
SEKKEI_A2_
 70
     0
  3
center(A2)  ____ _ ____ _ ____ _ ____ _ ____ _ 
 72
    65
 73
     4
 40
14.28749999999999
 49
9.525
 74
     0
 49
-1.587499999999999
 74
     0
 49
1.587499999999999
 74
     0
 49
-1.587499999999999
 74
     0
  0
LTYPE
  5
2B4
330
69
100
AcDbSymbolTableRecord
100
AcDbLinetypeTableRecord
  2
HIDDEN2
 70
     0
  3
Hidden (.5x) _ _ _ _ _ _ _ _ _ _ _ _ _ _ _ _ _
 72
    65
 73
     2
 40
4.762499999999999
 49
3.174999999999999
 74
     0
 49
-1.587499999999999
 74
     0
  0
ENDTAB
  0
TABLE
  2
LAYER
  5
66
330
0
100
AcDbSymbolTable
 70
     9
  0
LAYER
  5
5E
330
66
100
AcDbSymbolTableRecord
100
AcDbLayerTableRecord
  2
0
 70
     0
 62
     7
  6
CONTINUOUS
  0
LAYER
  5
3E
330
66
100
AcDbSymbolTableRecord
100
AcDbLayerTableRecord
  2
CENTER
 70
     0
 62
     3
  6
SEKKEI_A2_
  0
LAYER
  5
2B5
330
66
100
AcDbSymbolTableRecord
100
AcDbLayerTableRecord
  2
HIDS
 70
     0
 62
     1
  6
HIDDEN2
  0
LAYER
  5
2BA
330
66
100
AcDbSymbolTableRecord
100
AcDbLayerTableRecord
  2
HOJO
 70
     0
 62
     4
  6
CONTINUOUS
  0
LAYER
  5
3FA
330
66
100
AcDbSymbolTableRecord
100
AcDbLayerTableRecord
  2
TITLE
 70
     0
 62
     4
  6
CONTINUOUS
  0
ENDTAB
  0
TABLE
  2
STYLE
  5
67
330
0
100
AcDbSymbolTable
 70
     1
  0
STYLE
  5
16
330
67
100
AcDbSymbolTableRecord
100
AcDbTextStyleTableRecord
  2
STANDARD
 70
     0
 40
0.0
 41
1.0
 50
0.0
 71
     0
 42
2.0
  3
simplex.shx
  4
extfont.shx
  0
ENDTAB
  0
TABLE
  2
VIEW
  5
6C
330
0
100
AcDbSymbolTable
 70
     0
  0
ENDTAB
  0
TABLE
  2
UCS
  5
6D
330
0
100
AcDbSymbolTable
 70
     0
  0
ENDTAB
  0
TABLE
  2
APPID
  5
70
330
0
100
AcDbSymbolTable
 70
     1
  0
APPID
  5
71
330
70
100
AcDbSymbolTableRecord
100
AcDbRegAppTableRecord
  2
ACAD
 70
     0
  0
ENDTAB
  0
TABLE
  2
DIMSTYLE
  5
72
330
0
100
AcDbSymbolTable
 70
     2
  0
DIMSTYLE
105
73
330
72
100
AcDbSymbolTableRecord
100
AcDbDimStyleTableRecord
  2
STANDARD
 70
     0
  3

  4

  5

  6

  7

 40
2.0
 41
1.8
 42
0.625
 43
3.75
 44
0.8
 45
0.0
 46
0.0
 47
0.0
 48
0.0
140
1.8
141
2.5
142
0.0
143
0.0394
144
1.0
145
0.0
146
1.0
147
0.75
 71
     0
 72
     0
 73
     0
 74
     0
 75
     0
 76
     0
 77
     1
 78
     8
170
     0
171
     4
172
     1
173
     0
174
     0
175
     0
176
     0
177
     0
178
     0
270
     8
271
     2
272
     2
273
     8
274
     4
340
16
275
     0
280
     0
281
     0
282
     0
283
     1
284
     0
285
     0
286
     0
287
     3
288
     0
  0
ENDTAB
  0
TABLE
  2
BLOCK_RECORD
  5
1
330
0
100
AcDbSymbolTable
 70
    79
  0
BLOCK_RECORD
  5
2
102
{ACAD_XDICTIONARY
360
252C
102
}
330
1
100
AcDbSymbolTableRecord
100
AcDbBlockTableRecord
  2
*MODEL_SPACE
  0
BLOCK_RECORD
  5
2505
102
{ACAD_XDICTIONARY
360
252E
102
}
330
1
100
AcDbSymbolTableRecord
100
AcDbBlockTableRecord
  2
*PAPER_SPACE
  0
ENDTAB
  0
ENDSEC
  0
SECTION
  2
BLOCKS
  0
BLOCK
  5
5D
330
2
100
AcDbEntity
  8
0
100
AcDbBlockBegin
  2
*MODEL_SPACE
 70
     0
 10
0.0
 20
0.0
 30
0.0
  3
*MODEL_SPACE
  1

  0
ENDBLK
  5
5F
330
2
100
AcDbEntity
  8
0
100
AcDbBlockEnd
  0
BLOCK
  5
2507
330
2505
100
AcDbEntity
 67
     1
  8
0
100
AcDbBlockBegin
  2
*PAPER_SPACE
 70
     0
 10
0.0
 20
0.0
 30
0.0
  3
*PAPER_SPACE
  1

  0
ENDBLK
  5
2508
330
2505
100
AcDbEntity
 67
     1
  8
0
100
AcDbBlockEnd
  0
ENDSEC
  0
SECTION
  2
ENTITIES
  0
LINE
  5
61C
330
2
100
AcDbEntity
  8
CENTER
100
AcDbLine
 10
39.08652613416711
 20
321.5348007276048
 30
0.0
 11
288.3296095664471
 21
321.5348007276048
 31
0.0
  0
LINE
  5
61D
330
2
100
AcDbEntity
  8
0
100
AcDbLine
 10
366.1358851176311
 20
52.22858608503489
 30
0.0
 11
418.3369121176311
 21
52.22858608503489
 31
0.0
  0
LINE
  5
61E
330
2
100
AcDbEntity
  8
CENTER
100
AcDbLine
 10
334.2364041176312
 20
99.22858108503488
 30
0.0
 11
449.2364021176312
 21
99.22858108503488
 31
0.0
  0
LINE
  5
61F
330
2
100
AcDbEntity
  8
0
100
AcDbLine
 10
366.2364251176311
 20
54.22858508503487
 30
0.0
 11
418.2363941176312
 21
54.22858508503487
 31
0.0
  0
LINE
  5
620
330
2
100
AcDbEntity
  8
0
100
AcDbLine
 10
427.4698771176312
 20
80.42858608503488
 30
0.0
 11
357.2364251176312
 21
80.42858608503488
 31
0.0
  0
LINE
  5
621
330
2
100
AcDbEntity
  8
0
100
AcDbLine
 10
427.4698771176312
 20
139.4285900850348
 30
0.0
 11
357.2364251176312
 21
139.4285900850348
 31
0.0
  0
LINE
  5
622
330
2
100
AcDbEntity
  8
0
100
AcDbLine
 10
426.2887621176311
 20
56.87712608503488
 30
0.0
 11
356.2014841176312
 21
55.65350608503488
 31
0.0
  0
LINE
  5
623
330
2
100
AcDbEntity
  8
0
100
AcDbLine
 10
426.2887471176312
 20
162.9800190850348
 30
0.0
 11
356.2015151176311
 21
164.2031180850348
 31
0.0
  0
LINE
  5
624
330
2
100
AcDbEntity
  8
CENTER
100
AcDbLine
 10
334.2364041176312
 20
124.9285900850348
 30
0.0
 11
476.2364091176311
 21
124.9285900850349
 31
0.0
  0
LINE
  5
625
330
2
100
AcDbEntity
  8
0
100
AcDbLine
 10
344.2364041176312
 20
168.9285900850348
 30
0.0
 11
344.2364041176312
 21
50.92858608503488
 31
0.0
  0
LINE
  5
626
330
2
100
AcDbEntity
  8
CENTER
100
AcDbLine
 10
339.2364041176311
 20
59.92858608503488
 30
0.0
 11
359.2364041176312
 21
59.92858608503488
 31
0.0
  0
LINE
  5
627
330
2
100
AcDbEntity
  8
0
100
AcDbLine
 10
354.2364041176312
 20
77.42859708503488
 30
0.0
 11
354.2364041176312
 21
52.42858608503488
 31
0.0
  0
LINE
  5
628
330
2
100
AcDbEntity
  8
0
100
AcDbLine
 10
361.1861551176311
 20
54.27882708503489
 30
0.0
 11
359.7495241176311
 21
55.71543608503488
 31
0.0
  0
LINE
  5
629
330
2
100
AcDbEntity
  8
HIDS
100
AcDbLine
 10
344.2364041176312
 20
55.67858608503488
 30
0.0
 11
354.2364041176312
 21
55.67858608503488
 31
0.0
  0
LINE
  5
62A
330
2
100
AcDbEntity
  8
0
100
AcDbLine
 10
352.7017551176311
 20
50.92858608503488
 30
0.0
 11
344.2364041176312
 21
50.92858608503488
 31
0.0
  0
ARC
  5
62B
330
2
100
AcDbEntity
  8
0
100
AcDbCircle
 10
356.2364251176312
 20
53.65382708503489
 30
0.0
 40
2.0
100
AcDbArc
 50
91.00064099999967
 51
180.0
  0
ARC
  5
62C
330
2
100
AcDbEntity
  8
0
100
AcDbCircle
 10
357.8118431176311
 20
52.68116608503487
 30
0.0
 40
3.0
100
AcDbArc
 50
91.00045800000026
 51
165.0001979999997
  0
ARC
  5
62D
330
2
100
AcDbEntity
  8
0
100
AcDbCircle
 10
352.7017551176311
 20
52.92858608503488
 30
0.0
 40
2.0
100
AcDbArc
 50
270.0
 51
344.9999999999996
  0
ARC
  5
62E
330
2
100
AcDbEntity
  8
0
100
AcDbCircle
 10
352.7364041176312
 20
52.42858608503488
 30
0.0
 40
1.5
100
AcDbArc
 50
270.0
 51
0.0
  0
LINE
  5
62F
330
2
100
AcDbEntity
  8
0
100
AcDbLine
 10
354.6336031176311
 20
52.41094608503487
 30
0.0
 11
354.9140541176311
 21
53.45761608503488
 31
0.0
  0
LINE
  5
630
330
2
100
AcDbEntity
  8
HIDS
100
AcDbLine
 10
344.2364041176312
 20
64.17858608503488
 30
0.0
 11
354.2364041176312
 21
64.17858608503488
 31
0.0
  0
ARC
  5
631
330
2
100
AcDbEntity
  8
0
100
AcDbCircle
 10
366.2364061176312
 20
57.22858508503488
 30
0.0
 40
3.0
100
AcDbArc
 50
208.8119050000002
 51
270.0
  0
ARC
  5
632
330
2
100
AcDbEntity
  8
0
100
AcDbCircle
 10
366.1358851176311
 20
59.22858508503487
 30
0.0
 40
7.0
100
AcDbArc
 50
225.0001069999998
 51
270.0
  0
ARC
  5
633
330
2
100
AcDbEntity
  8
0
100
AcDbCircle
 10
357.2364251176312
 20
77.42860508503489
 30
0.0
 40
3.0
100
AcDbArc
 50
90.0
 51
180.0
  0
LINE
  5
634
330
2
100
AcDbEntity
  8
0
100
AcDbLine
 10
354.2364041176312
 20
166.9285740850348
 30
0.0
 11
354.2364041176312
 21
142.4285740850348
 31
0.0
  0
ARC
  5
635
330
2
100
AcDbEntity
  8
0
100
AcDbCircle
 10
357.2364041176312
 20
142.4285900850349
 30
0.0
 40
3.0
100
AcDbArc
 50
180.0
 51
270.0
  0
ARC
  5
636
330
2
100
AcDbEntity
  8
0
100
AcDbCircle
 10
357.8119751176311
 20
167.1754920850348
 30
0.0
 40
3.0
100
AcDbArc
 50
195.0005040000001
 51
269.0004879999996
  0
ARC
  5
637
330
2
100
AcDbEntity
  8
0
100
AcDbCircle
 10
356.2363851176312
 20
166.2028210850348
 30
0.0
 40
2.0
100
AcDbArc
 50
180.0
 51
269.0006099999996
  0
LINE
  5
638
330
2
100
AcDbEntity
  8
HIDS
100
AcDbLine
 10
344.2364041176312
 20
164.1785900850349
 30
0.0
 11
354.2364041176312
 21
164.1785900850349
 31
0.0
  0
LINE
  5
639
330
2
100
AcDbEntity
  8
HIDS
100
AcDbLine
 10
344.2364041176312
 20
155.6785900850349
 30
0.0
 11
354.2364041176312
 21
155.6785900850349
 31
0.0
  0
LINE
  5
63A
330
2
100
AcDbEntity
  8
CENTER
100
AcDbLine
 10
339.2364041176311
 20
159.9285900850349
 30
0.0
 11
359.2364041176312
 21
159.9285900850349
 31
0.0
  0
LINE
  5
63B
330
2
100
AcDbEntity
  8
0
100
AcDbLine
 10
352.7017551176311
 20
168.9285900850348
 30
0.0
 11
344.2364041176312
 21
168.9285900850348
 31
0.0
  0
ARC
  5
63C
330
2
100
AcDbEntity
  8
0
100
AcDbCircle
 10
352.7017631176311
 20
166.9285740850348
 30
0.0
 40
2.0
100
AcDbArc
 50
15.00047000000013
 51
90.0
  0
LINE
  5
63D
330
2
100
AcDbEntity
  8
0
100
AcDbLine
 10
354.6336151176311
 20
167.4462290850348
 30
0.0
 11
354.9142141176312
 21
166.3989880850348
 31
0.0
  0
ARC
  5
63E
330
2
100
AcDbEntity
  8
0
100
AcDbCircle
 10
352.2364151176311
 20
166.9285740850348
 30
0.0
 40
2.0
100
AcDbArc
 50
0.0
 51
90.0
  0
LINE
  5
63F
330
2
100
AcDbEntity
  8
0
100
AcDbLine
 10
439.2364021176311
 20
73.12807508503488
 30
0.0
 11
439.2364021176311
 21
115.9285900850349
 31
0.0
  0
ARC
  5
640
330
2
100
AcDbEntity
  8
0
100
AcDbCircle
 10
392.2364061176311
 20
99.22858108503488
 30
0.0
 40
45.0
100
AcDbArc
 50
325.3078919999996
 51
20.45970900000002
  0
ARC
  5
641
330
2
100
AcDbEntity
  8
0
100
AcDbCircle
 10
431.2364251176311
 20
99.42859008503489
 30
0.0
 40
2.0
100
AcDbArc
 50
90.0
 51
180.0
  0
LINE
  5
642
330
2
100
AcDbEntity
  8
0
100
AcDbLine
 10
429.2364021176312
 20
159.9804700850348
 30
0.0
 11
429.2364021176312
 21
59.87666608503488
 31
0.0
  0
LINE
  5
643
330
2
100
AcDbEntity
  8
CENTER
100
AcDbLine
 10
392.2364061176311
 20
42.22858608503488
 30
0.0
 11
392.2364061176311
 21
182.1160910850348
 31
0.0
  0
ARC
  5
644
330
2
100
AcDbEntity
  8
0
100
AcDbCircle
 10
418.3369121176311
 20
59.22858508503487
 30
0.0
 40
7.0
100
AcDbArc
 50
270.0
 51
315.0
  0
ARC
  5
645
330
2
100
AcDbEntity
  8
0
100
AcDbCircle
 10
418.2364021176312
 20
57.22858508503488
 30
0.0
 40
3.0
100
AcDbArc
 50
270.0
 51
351.5618900000002
  0
ARC
  5
646
330
2
100
AcDbEntity
  8
0
100
AcDbCircle
 10
432.2364021176311
 20
73.12806808503488
 30
0.0
 40
7.0
100
AcDbArc
 50
315.0001180000001
 51
0.0
  0
LINE
  5
647
330
2
100
AcDbEntity
  8
0
100
AcDbLine
 10
437.1861551176311
 20
68.17833608503488
 30
0.0
 11
429.2364021176312
 21
60.22858508503488
 31
0.0
  0
ARC
  5
648
330
2
100
AcDbEntity
  8
0
100
AcDbCircle
 10
426.2364021176312
 20
59.87666608503488
 30
0.0
 40
3.0
100
AcDbArc
 50
271.0003130000003
 51
0.0
  0
LINE
  5
649
330
2
100
AcDbEntity
  8
0
100
AcDbLine
 10
423.2866571176312
 20
54.27883608503488
 30
0.0
 11
425.8777751176311
 21
56.86996508503489
 31
0.0
  0
LINE
  5
64A
330
2
100
AcDbEntity
  8
0
100
AcDbLine
 10
442.2364251176311
 20
121.9285900850348
 30
0.0
 11
466.2364091176312
 21
121.9285900850348
 31
0.0
  0
LINE
  5
64B
330
2
100
AcDbEntity
  8
0
100
AcDbLine
 10
442.2364021176312
 20
127.9285900850348
 30
0.0
 11
466.2364091176312
 21
127.9285900850348
 31
0.0
  0
LINE
  5
64C
330
2
100
AcDbEntity
  8
0
100
AcDbLine
 10
436.2364021176311
 20
115.9285900850349
 30
0.0
 11
466.2364091176312
 21
115.9285900850349
 31
0.0
  0
LINE
  5
64D
330
2
100
AcDbEntity
  8
0
100
AcDbLine
 10
436.2364021176311
 20
133.9285900850349
 30
0.0
 11
466.2364091176312
 21
133.9285900850349
 31
0.0
  0
ARC
  5
64E
330
2
100
AcDbEntity
  8
0
100
AcDbCircle
 10
442.2364021176312
 20
124.9285900850348
 30
0.0
 40
3.0
100
AcDbArc
 50
90.0
 51
270.0
  0
LINE
  5
64F
330
2
100
AcDbEntity
  8
0
100
AcDbLine
 10
436.2364021176311
 20
134.9285900850349
 30
0.0
 11
436.2364021176311
 21
114.9285900850349
 31
0.0
  0
LINE
  5
650
330
2
100
AcDbEntity
  8
0
100
AcDbLine
 10
434.2364021176312
 20
147.4285740850348
 30
0.0
 11
434.2364021176312
 21
102.4285740850348
 31
0.0
  0
LINE
  5
651
330
2
100
AcDbEntity
  8
0
100
AcDbLine
 10
431.2364251176311
 20
101.4285820850348
 30
0.0
 11
433.2364021176312
 21
101.4285820850348
 31
0.0
  0
ARC
  5
652
330
2
100
AcDbEntity
  8
0
100
AcDbCircle
 10
433.2364021176312
 20
102.4285740850348
 30
0.0
 40
1.0
100
AcDbArc
 50
270.0
 51
0.0
  0
LINE
  5
653
330
2
100
AcDbEntity
  8
0
100
AcDbLine
 10
434.2364021176312
 20
114.9285900850349
 30
0.0
 11
436.2364021176311
 21
114.9285900850349
 31
0.0
  0
LINE
  5
654
330
2
100
AcDbEntity
  8
0
100
AcDbLine
 10
434.2364021176312
 20
134.9285900850349
 30
0.0
 11
436.2364021176311
 21
134.9285900850349
 31
0.0
  0
LINE
  5
655
330
2
100
AcDbEntity
  8
0
100
AcDbLine
 10
431.2364251176311
 20
148.4285900850349
 30
0.0
 11
433.2364021176312
 21
148.4285900850349
 31
0.0
  0
ARC
  5
656
330
2
100
AcDbEntity
  8
0
100
AcDbCircle
 10
431.2364021176311
 20
150.4285900850349
 30
0.0
 40
2.0
100
AcDbArc
 50
180.0
 51
270.0
  0
ARC
  5
657
330
2
100
AcDbEntity
  8
0
100
AcDbCircle
 10
433.2364021176312
 20
147.4285740850348
 30
0.0
 40
1.0
100
AcDbArc
 50
0.0
 51
90.0
  0
ARC
  5
658
330
2
100
AcDbEntity
  8
0
100
AcDbCircle
 10
426.2364251176312
 20
159.9804700850348
 30
0.0
 40
3.0
100
AcDbArc
 50
0.0
 51
89.00035900000039
  0
LINE
  5
659
330
2
100
AcDbEntity
  8
0
100
AcDbLine
 10
466.2364091176312
 20
115.9285900850349
 30
0.0
 11
466.2364091176312
 21
133.9285900850349
 31
0.0
  0
LINE
  5
65B
330
2
100
AcDbEntity
  8
0
100
AcDbLine
 10
686.8497119461369
 20
64.81927608503489
 30
0.0
 11
615.8497119461369
 21
64.81927608503489
 31
0.0
  0
LINE
  5
65C
330
2
100
AcDbEntity
  8
0
100
AcDbLine
 10
686.8497119461369
 20
133.6378870850349
 30
0.0
 11
616.3497119461369
 21
133.6378870850349
 31
0.0
  0
LINE
  5
65D
330
2
100
AcDbEntity
  8
0
100
AcDbLine
 10
616.3497119461369
 20
54.22858508503487
 30
0.0
 11
686.8497119461369
 21
54.22858508503487
 31
0.0
  0
LINE
  5
65E
330
2
100
AcDbEntity
  8
0
100
AcDbLine
 10
686.8497119461369
 20
144.2285850850348
 30
0.0
 11
607.507121946137
 21
144.2285850850348
 31
0.0
  0
LINE
  5
65F
330
2
100
AcDbEntity
  8
CENTER
100
AcDbLine
 10
753.8497119461371
 20
99.22858108503488
 30
0.0
 11
584.844706946137
 21
99.22858108503488
 31
0.0
  0
LINE
  5
660
330
2
100
AcDbEntity
  8
0
100
AcDbLine
 10
614.3497119461369
 20
136.8284770850348
 30
0.0
 11
614.3497119461369
 21
64.22861608503488
 31
0.0
  0
LINE
  5
661
330
2
100
AcDbEntity
  8
CENTER
100
AcDbLine
 10
563.849711946137
 20
178.9285900850348
 30
0.0
 11
563.8497119461369
 21
40.9285860850349
 31
0.0
  0
LINE
  5
662
330
2
100
AcDbEntity
  8
0
100
AcDbLine
 10
513.349726946137
 20
80.42858608503488
 30
0.0
 11
513.349726946137
 21
139.4285900850348
 31
0.0
  0
LINE
  5
663
330
2
100
AcDbEntity
  8
0
100
AcDbLine
 10
582.142314946137
 20
57.83528608503488
 30
0.0
 11
597.0912279461369
 21
68.32185608503488
 31
0.0
  0
LINE
  5
664
330
2
100
AcDbEntity
  8
0
100
AcDbLine
 10
603.8497119461369
 20
50.92858608503488
 30
0.0
 11
523.849726946137
 21
50.92858608503488
 31
0.0
  0
ARC
  5
665
330
2
100
AcDbEntity
  8
0
100
AcDbCircle
 10
548.428614946137
 20
61.92858608503488
 30
0.0
 40
5.0
100
AcDbArc
 50
234.9505000000003
 51
270.0
  0
LINE
  5
666
330
2
100
AcDbEntity
  8
0
100
AcDbLine
 10
545.557124946137
 20
57.83530508503488
 30
0.0
 11
513.349726946137
 21
80.42858608503488
 31
0.0
  0
LINE
  5
667
330
2
100
AcDbEntity
  8
0
100
AcDbLine
 10
514.873027946137
 20
59.28202508503488
 30
0.0
 11
513.349726946137
 21
80.42858608503488
 31
0.0
  0
CIRCLE
  5
668
330
2
100
AcDbEntity
  8
0
100
AcDbCircle
 10
523.849726946137
 20
59.92858608503488
 30
0.0
 40
4.25
  0
ARC
  5
66B
330
2
100
AcDbEntity
  8
0
100
AcDbCircle
 10
523.849726946137
 20
59.92858608503488
 30
0.0
 40
9.0
100
AcDbArc
 50
184.120102
 51
270.0
  0
LINE
  5
66C
330
2
100
AcDbEntity
  8
0
100
AcDbLine
 10
579.270823946137
 20
56.92858608503488
 30
0.0
 11
548.428614946137
 21
56.92858608503488
 31
0.0
  0
ARC
  5
66D
330
2
100
AcDbEntity
  8
0
100
AcDbCircle
 10
579.270823946137
 20
61.92858608503488
 30
0.0
 40
5.0
100
AcDbArc
 50
270.0
 51
305.049591
  0
LINE
  5
66E
330
2
100
AcDbEntity
  8
0
100
AcDbLine
 10
564.6159169461371
 20
90.70110808503489
 30
0.0
 11
566.352214946137
 21
90.70110808503489
 31
0.0
  0
LINE
  5
66F
330
2
100
AcDbEntity
  8
0
100
AcDbLine
 10
560.685221946137
 20
91.92458008503487
 30
0.0
 11
567.349223946137
 21
91.92458008503487
 31
0.0
  0
LINE
  5
670
330
2
100
AcDbEntity
  8
0
100
AcDbLine
 10
554.645915946137
 20
87.73355608503488
 30
0.0
 11
554.645915946137
 21
86.64023708503487
 31
0.0
  0
LINE
  5
671
330
2
100
AcDbEntity
  8
0
100
AcDbLine
 10
551.808528946137
 20
89.66402108503487
 30
0.0
 11
551.808528946137
 21
83.90522508503488
 31
0.0
  0
LINE
  5
672
330
2
100
AcDbEntity
  8
0
100
AcDbLine
 10
550.6892199461369
 20
90.3754010850349
 30
0.0
 11
550.6892199461369
 21
83.22568608503488
 31
0.0
  0
LINE
  5
673
330
2
100
AcDbEntity
  8
0
100
AcDbLine
 10
564.6159169461371
 20
90.70110808503489
 30
0.0
 11
564.6159169461371
 21
83.02189708503489
 31
0.0
  0
LINE
  5
674
330
2
100
AcDbEntity
  8
0
100
AcDbLine
 10
563.366435946137
 20
90.70110808503489
 30
0.0
 11
563.366435946137
 21
83.02189708503489
 31
0.0
  0
LINE
  5
675
330
2
100
AcDbEntity
  8
0
100
AcDbLine
 10
557.3532219461371
 20
87.73355608503488
 30
0.0
 11
557.3532219461371
 21
81.92858608503488
 31
0.0
  0
LINE
  5
676
330
2
100
AcDbEntity
  8
0
100
AcDbLine
 10
556.390025946137
 20
81.92858608503488
 30
0.0
 11
557.3532219461371
 21
81.92858608503488
 31
0.0
  0
ARC
  5
677
330
2
100
AcDbEntity
  8
0
100
AcDbCircle
 10
554.307521946137
 20
85.18248408503486
 30
0.0
 40
2.0825
100
AcDbArc
 50
270.0002139999998
 51
0.0001089999998967
  0
LINE
  5
678
330
2
100
AcDbEntity
  8
0
100
AcDbLine
 10
550.6892199461369
 20
83.22568608503488
 30
0.0
 11
551.974726946137
 21
81.92858608503488
 31
0.0
  0
LINE
  5
679
330
2
100
AcDbEntity
  8
0
100
AcDbLine
 10
556.390025946137
 20
82.72540708503488
 30
0.0
 11
555.440318946137
 21
81.92858608503488
 31
0.0
  0
LINE
  5
67A
330
2
100
AcDbEntity
  8
0
100
AcDbLine
 10
556.390025946137
 20
86.43198508503488
 30
0.0
 11
556.390025946137
 21
86.64023708503487
 31
0.0
  0
LINE
  5
67B
330
2
100
AcDbEntity
  8
0
100
AcDbLine
 10
556.390025946137
 20
86.64023708503487
 30
0.0
 11
556.390025946137
 21
85.18248408503486
 31
0.0
  0
LINE
  5
67C
330
2
100
AcDbEntity
  8
0
100
AcDbLine
 10
556.390025946137
 20
82.72540708503488
 30
0.0
 11
556.390025946137
 21
81.92858608503488
 31
0.0
  0
LINE
  5
67D
330
2
100
AcDbEntity
  8
0
100
AcDbLine
 10
556.390025946137
 20
85.12717508503488
 30
0.0
 11
556.390025946137
 21
85.18248408503486
 31
0.0
  0
LINE
  5
67E
330
2
100
AcDbEntity
  8
0
100
AcDbLine
 10
556.390025946137
 20
85.18248408503486
 30
0.0
 11
556.390025946137
 21
85.59899608503489
 31
0.0
  0
LINE
  5
67F
330
2
100
AcDbEntity
  8
0
100
AcDbLine
 10
554.307521946137
 20
83.09999508503489
 30
0.0
 11
553.891017946137
 21
83.09999508503489
 31
0.0
  0
LINE
  5
680
330
2
100
AcDbEntity
  8
0
100
AcDbLine
 10
556.390025946137
 20
85.59899608503489
 30
0.0
 11
556.390025946137
 21
86.43198508503488
 31
0.0
  0
LINE
  5
681
330
2
100
AcDbEntity
  8
0
100
AcDbLine
 10
553.891017946137
 20
83.09999508503489
 30
0.0
 11
553.058024946137
 21
83.09999508503489
 31
0.0
  0
LINE
  5
682
330
2
100
AcDbEntity
  8
0
100
AcDbLine
 10
556.390025946137
 20
86.64023708503487
 30
0.0
 11
554.645915946137
 21
86.64023708503487
 31
0.0
  0
LINE
  5
683
330
2
100
AcDbEntity
  8
0
100
AcDbLine
 10
551.808528946137
 20
83.90522508503488
 30
0.0
 11
552.573024946137
 21
83.09999508503489
 31
0.0
  0
LINE
  5
684
330
2
100
AcDbEntity
  8
0
100
AcDbLine
 10
553.058024946137
 20
83.09999508503489
 30
0.0
 11
552.573024946137
 21
83.09999508503489
 31
0.0
  0
LINE
  5
685
330
2
100
AcDbEntity
  8
0
100
AcDbLine
 10
555.440318946137
 20
81.92858608503488
 30
0.0
 11
551.974726946137
 21
81.92858608503488
 31
0.0
  0
LINE
  5
686
330
2
100
AcDbEntity
  8
0
100
AcDbLine
 10
562.871806946137
 20
83.02189708503489
 30
0.0
 11
563.366435946137
 21
83.02189708503489
 31
0.0
  0
LINE
  5
687
330
2
100
AcDbEntity
  8
0
100
AcDbLine
 10
562.871806946137
 20
81.92858608503488
 30
0.0
 11
565.0324209461371
 21
81.92858608503488
 31
0.0
  0
LINE
  5
688
330
2
100
AcDbEntity
  8
0
100
AcDbLine
 10
565.0324209461371
 20
83.02189708503489
 30
0.0
 11
565.0324209461371
 21
81.92858608503488
 31
0.0
  0
LINE
  5
689
330
2
100
AcDbEntity
  8
0
100
AcDbLine
 10
562.871806946137
 20
83.02189708503489
 30
0.0
 11
562.871806946137
 21
81.92858608503488
 31
0.0
  0
LINE
  5
68A
330
2
100
AcDbEntity
  8
0
100
AcDbLine
 10
564.6159169461371
 20
83.02189708503489
 30
0.0
 11
565.0324209461371
 21
83.02189708503489
 31
0.0
  0
LINE
  5
68B
330
2
100
AcDbEntity
  8
0
100
AcDbLine
 10
554.645915946137
 20
87.73355608503488
 30
0.0
 11
557.3532219461371
 21
87.73355608503488
 31
0.0
  0
LINE
  5
68C
330
2
100
AcDbEntity
  8
0
100
AcDbLine
 10
556.390025946137
 20
89.84207608503487
 30
0.0
 11
557.3532219461371
 21
89.84207608503487
 31
0.0
  0
LINE
  5
68D
330
2
100
AcDbEntity
  8
0
100
AcDbLine
 10
556.380015946137
 20
91.92458008503487
 30
0.0
 11
557.3532219461371
 21
90.8446010850349
 31
0.0
  0
LINE
  5
68E
330
2
100
AcDbEntity
  8
0
100
AcDbLine
 10
551.899028946137
 20
91.92458008503487
 30
0.0
 11
550.6892199461369
 21
90.3754010850349
 31
0.0
  0
LINE
  5
68F
330
2
100
AcDbEntity
  8
0
100
AcDbLine
 10
556.390025946137
 20
89.99963808503489
 30
0.0
 11
556.390025946137
 21
89.84207608503487
 31
0.0
  0
LINE
  5
690
330
2
100
AcDbEntity
  8
0
100
AcDbLine
 10
551.899028946137
 20
91.92458008503487
 30
0.0
 11
556.380015946137
 21
91.92458008503487
 31
0.0
  0
LINE
  5
691
330
2
100
AcDbEntity
  8
0
100
AcDbLine
 10
556.390025946137
 20
89.99963808503489
 30
0.0
 11
555.7595179461371
 21
90.59698208503489
 31
0.0
  0
LINE
  5
692
330
2
100
AcDbEntity
  8
0
100
AcDbLine
 10
552.560923946137
 20
90.59698208503489
 30
0.0
 11
551.808528946137
 21
89.66402108503487
 31
0.0
  0
LINE
  5
693
330
2
100
AcDbEntity
  8
0
100
AcDbLine
 10
555.772120946137
 20
90.59698208503489
 30
0.0
 11
552.560923946137
 21
90.59698208503489
 31
0.0
  0
LINE
  5
694
330
2
100
AcDbEntity
  8
0
100
AcDbLine
 10
560.685221946137
 20
89.84207608503487
 30
0.0
 11
561.4249079461369
 21
89.84207608503487
 31
0.0
  0
LINE
  5
695
330
2
100
AcDbEntity
  8
0
100
AcDbLine
 10
557.3532219461371
 20
90.8446010850349
 30
0.0
 11
557.3532219461371
 21
89.84207608503487
 31
0.0
  0
LINE
  5
696
330
2
100
AcDbEntity
  8
0
100
AcDbLine
 10
560.685221946137
 20
89.84207608503487
 30
0.0
 11
560.685221946137
 21
91.92458008503487
 31
0.0
  0
LINE
  5
697
330
2
100
AcDbEntity
  8
0
100
AcDbLine
 10
563.366435946137
 20
90.70110808503489
 30
0.0
 11
561.782817946137
 21
90.70110808503489
 31
0.0
  0
LINE
  5
698
330
2
100
AcDbEntity
  8
0
100
AcDbLine
 10
561.782817946137
 20
90.70110808503489
 30
0.0
 11
561.4249079461369
 21
89.84207608503487
 31
0.0
  0
ARC
  5
699
330
2
100
AcDbEntity
  8
0
100
AcDbCircle
 10
574.677012946137
 20
89.25637508503488
 30
0.0
 40
2.668203
100
AcDbArc
 50
286.0181269999995
 51
90.00350999999964
  0
LINE
  5
69A
330
2
100
AcDbEntity
  8
0
100
AcDbLine
 10
571.175822946137
 20
90.70110808503489
 30
0.0
 11
571.175822946137
 21
82.96983408503487
 31
0.0
  0
LINE
  5
69B
330
2
100
AcDbEntity
  8
0
100
AcDbLine
 10
575.8093069461369
 20
81.92858608503488
 30
0.0
 11
577.345225946137
 21
81.92858608503488
 31
0.0
  0
LINE
  5
69C
330
2
100
AcDbEntity
  8
0
100
AcDbLine
 10
575.413218946137
 20
86.69176608503489
 30
0.0
 11
577.064708946137
 21
82.96983408503487
 31
0.0
  0
LINE
  5
69D
330
2
100
AcDbEntity
  8
0
100
AcDbLine
 10
572.776713946137
 20
81.92858608503488
 30
0.0
 11
570.681224946137
 21
81.92858608503488
 31
0.0
  0
LINE
  5
69E
330
2
100
AcDbEntity
  8
0
100
AcDbLine
 10
570.681224946137
 20
82.96983408503487
 30
0.0
 11
571.175822946137
 21
82.96983408503487
 31
0.0
  0
LINE
  5
69F
330
2
100
AcDbEntity
  8
0
100
AcDbLine
 10
570.681224946137
 20
82.96983408503487
 30
0.0
 11
570.681224946137
 21
81.92858608503488
 31
0.0
  0
LINE
  5
6A0
330
2
100
AcDbEntity
  8
0
100
AcDbLine
 10
572.3211169461371
 20
86.6011860850349
 30
0.0
 11
574.4540209461369
 21
86.6011860850349
 31
0.0
  0
LINE
  5
6A1
330
2
100
AcDbEntity
  8
0
100
AcDbLine
 10
572.776713946137
 20
82.96983408503487
 30
0.0
 11
572.776713946137
 21
81.92858608503488
 31
0.0
  0
LINE
  5
6A2
330
2
100
AcDbEntity
  8
0
100
AcDbLine
 10
575.8093069461369
 20
82.96983408503487
 30
0.0
 11
575.8093069461369
 21
81.92858608503488
 31
0.0
  0
LINE
  5
6A3
330
2
100
AcDbEntity
  8
0
100
AcDbLine
 10
575.8093069461369
 20
82.96983408503487
 30
0.0
 11
576.016917946137
 21
82.96983408503487
 31
0.0
  0
LINE
  5
6A4
330
2
100
AcDbEntity
  8
0
100
AcDbLine
 10
572.3211169461371
 20
82.96983408503487
 30
0.0
 11
572.776713946137
 21
82.96983408503487
 31
0.0
  0
LINE
  5
6A5
330
2
100
AcDbEntity
  8
0
100
AcDbLine
 10
574.4540209461369
 20
86.6011860850349
 30
0.0
 11
576.016917946137
 21
82.96983408503487
 31
0.0
  0
LINE
  5
6A6
330
2
100
AcDbEntity
  8
0
100
AcDbLine
 10
572.3211169461371
 20
86.6011860850349
 30
0.0
 11
572.3211169461371
 21
82.96983408503487
 31
0.0
  0
LINE
  5
6A7
330
2
100
AcDbEntity
  8
0
100
AcDbLine
 10
577.345225946137
 20
82.96983408503487
 30
0.0
 11
577.345225946137
 21
81.92858608503488
 31
0.0
  0
LINE
  5
6A8
330
2
100
AcDbEntity
  8
0
100
AcDbLine
 10
577.064708946137
 20
82.96983408503487
 30
0.0
 11
577.345225946137
 21
82.96983408503487
 31
0.0
  0
ARC
  5
6A9
330
2
100
AcDbEntity
  8
0
100
AcDbCircle
 10
574.677012946137
 20
89.25637508503488
 30
0.0
 40
1.627785999999999
100
AcDbArc
 50
277.4147260000004
 51
62.41184999999949
  0
LINE
  5
6AA
330
2
100
AcDbEntity
  8
0
100
AcDbLine
 10
570.681224946137
 20
90.70110808503489
 30
0.0
 11
571.175822946137
 21
90.70110808503489
 31
0.0
  0
LINE
  5
6AB
330
2
100
AcDbEntity
  8
0
100
AcDbLine
 10
570.681224946137
 20
91.92458008503487
 30
0.0
 11
574.677012946137
 21
91.92458008503487
 31
0.0
  0
LINE
  5
6AC
330
2
100
AcDbEntity
  8
0
100
AcDbLine
 10
566.352214946137
 20
90.70110808503489
 30
0.0
 11
566.654124946137
 21
89.84207608503487
 31
0.0
  0
LINE
  5
6AD
330
2
100
AcDbEntity
  8
0
100
AcDbLine
 10
570.681224946137
 20
91.92458008503487
 30
0.0
 11
570.681224946137
 21
90.70110808503489
 31
0.0
  0
LINE
  5
6AE
330
2
100
AcDbEntity
  8
0
100
AcDbLine
 10
566.654124946137
 20
89.84207608503487
 30
0.0
 11
567.349223946137
 21
89.84207608503487
 31
0.0
  0
LINE
  5
6AF
330
2
100
AcDbEntity
  8
0
100
AcDbLine
 10
567.349223946137
 20
89.84207608503487
 30
0.0
 11
567.349223946137
 21
91.92458008503487
 31
0.0
  0
LINE
  5
6B0
330
2
100
AcDbEntity
  8
0
100
AcDbLine
 10
572.3211169461371
 20
90.70110808503489
 30
0.0
 11
575.430827946137
 21
90.69908608503487
 31
0.0
  0
LINE
  5
6B1
330
2
100
AcDbEntity
  8
0
100
AcDbLine
 10
572.3211169461371
 20
90.70110808503489
 30
0.0
 11
572.3211169461371
 21
87.64220508503488
 31
0.0
  0
LINE
  5
6B2
330
2
100
AcDbEntity
  8
0
100
AcDbLine
 10
574.8870349461369
 20
87.64220508503488
 30
0.0
 11
572.3211169461371
 21
87.64220508503488
 31
0.0
  0
LINE
  5
6B3
330
2
100
AcDbEntity
  8
0
100
AcDbLine
 10
599.9626269461369
 20
69.22858508503487
 30
0.0
 11
609.3497119461369
 21
69.22858508503487
 31
0.0
  0
ARC
  5
6B4
330
2
100
AcDbEntity
  8
0
100
AcDbCircle
 10
603.8497119461369
 20
59.92858608503488
 30
0.0
 40
9.0
100
AcDbArc
 50
270.0
 51
355.879913
  0
CIRCLE
  5
6B5
330
2
100
AcDbEntity
  8
0
100
AcDbCircle
 10
603.8497119461369
 20
59.92858608503488
 30
0.0
 40
4.25
  0
ARC
  5
6B8
330
2
100
AcDbEntity
  8
0
100
AcDbCircle
 10
599.9626269461369
 20
64.22859708503487
 30
0.0
 40
5.0
100
AcDbArc
 50
90.0
 51
125.0496979999994
  0
LINE
  5
6B9
330
2
100
AcDbEntity
  8
0
100
AcDbLine
 10
614.3497119461369
 20
56.22858508503488
 30
0.0
 11
614.3497119461369
 21
64.22861608503488
 31
0.0
  0
LINE
  5
6BA
330
2
100
AcDbEntity
  8
0
100
AcDbLine
 10
612.8264269461369
 20
59.28202508503488
 30
0.0
 11
613.3945119461371
 21
67.16790708503488
 31
0.0
  0
ARC
  5
6BB
330
2
100
AcDbEntity
  8
0
100
AcDbCircle
 10
616.3497119461369
 20
56.22858508503488
 30
0.0
 40
2.0
100
AcDbArc
 50
180.0
 51
270.0
  0
ARC
  5
6BC
330
2
100
AcDbEntity
  8
0
100
AcDbCircle
 10
609.3497119461369
 20
64.22861608503488
 30
0.0
 40
5.0
100
AcDbArc
 50
0.0
 51
90.0
  0
LINE
  5
6BD
330
2
100
AcDbEntity
  8
0
100
AcDbLine
 10
582.142314946137
 20
162.0218740850348
 30
0.0
 11
612.221110946137
 21
140.9217770850348
 31
0.0
  0
CIRCLE
  5
6BE
330
2
100
AcDbEntity
  8
0
100
AcDbCircle
 10
563.8497119461369
 20
124.9285900850348
 30
0.0
 40
23.5
  0
LINE
  5
6BF
330
2
100
AcDbEntity
  8
0
100
AcDbLine
 10
603.8497119461369
 20
168.9285900850348
 30
0.0
 11
523.849726946137
 21
168.9285900850348
 31
0.0
  0
LINE
  5
6C0
330
2
100
AcDbEntity
  8
CENTER
100
AcDbLine
 10
597.3497119461369
 20
124.9285900850348
 30
0.0
 11
530.3497119461369
 21
124.9285900850348
 31
0.0
  0
LINE
  5
6C1
330
2
100
AcDbEntity
  8
0
100
AcDbLine
 10
545.557216946137
 20
162.0218670850348
 30
0.0
 11
513.349726946137
 21
139.4285900850348
 31
0.0
  0
LINE
  5
6C2
330
2
100
AcDbEntity
  8
0
100
AcDbLine
 10
514.873027946137
 20
160.5752190850348
 30
0.0
 11
513.349726946137
 21
139.4285900850348
 31
0.0
  0
ARC
  5
6C3
330
2
100
AcDbEntity
  8
0
100
AcDbCircle
 10
563.8497119461369
 20
124.9285900850348
 30
0.0
 40
9.0
100
AcDbArc
 50
199.4712070000002
 51
160.5287929999997
  0
LINE
  5
6C4
330
2
100
AcDbEntity
  8
0
100
AcDbLine
 10
552.349726946137
 20
127.9285900850348
 30
0.0
 11
552.349726946137
 21
121.9285900850348
 31
0.0
  0
LINE
  5
6C5
330
2
100
AcDbEntity
  8
0
100
AcDbLine
 10
558.349726946137
 20
127.9285900850348
 30
0.0
 11
558.349726946137
 21
121.9285900850348
 31
0.0
  0
LINE
  5
6C6
330
2
100
AcDbEntity
  8
0
100
AcDbLine
 10
552.349726946137
 20
121.9285900850348
 30
0.0
 11
558.349726946137
 21
121.9285900850348
 31
0.0
  0
LINE
  5
6C7
330
2
100
AcDbEntity
  8
0
100
AcDbLine
 10
552.349726946137
 20
127.9285900850348
 30
0.0
 11
558.349726946137
 21
127.9285900850348
 31
0.0
  0
ARC
  5
6C8
330
2
100
AcDbEntity
  8
0
100
AcDbCircle
 10
548.428614946137
 20
157.9285900850349
 30
0.0
 40
5.0
100
AcDbArc
 50
90.0
 51
125.0494999999996
  0
CIRCLE
  5
6C9
330
2
100
AcDbEntity
  8
0
100
AcDbCircle
 10
523.849726946137
 20
159.9285900850349
 30
0.0
 40
4.25
  0
ARC
  5
6CB
330
2
100
AcDbEntity
  8
0
100
AcDbCircle
 10
523.849726946137
 20
159.9285900850349
 30
0.0
 40
9.0
100
AcDbArc
 50
90.0
 51
175.8798979999999
  0
LINE
  5
6CD
330
2
100
AcDbEntity
  8
0
100
AcDbLine
 10
548.428614946137
 20
162.9285900850349
 30
0.0
 11
579.270823946137
 21
162.9285900850349
 31
0.0
  0
ARC
  5
6CE
330
2
100
AcDbEntity
  8
0
100
AcDbCircle
 10
579.2709159461369
 20
157.9285900850349
 30
0.0
 40
5.0
100
AcDbArc
 50
54.9507100000002
 51
90.0
  0
LINE
  5
6CF
330
2
100
AcDbEntity
  8
0
100
AcDbLine
 10
612.8264269461369
 20
160.5752190850348
 30
0.0
 11
614.003917946137
 21
144.2285850850348
 31
0.0
  0
ARC
  5
6D0
330
2
100
AcDbEntity
  8
0
100
AcDbCircle
 10
609.3497119461369
 20
136.8284770850348
 30
0.0
 40
5.0
100
AcDbArc
 50
0.0
 51
54.95069100000001
  0
ARC
  5
6D1
330
2
100
AcDbEntity
  8
0
100
AcDbCircle
 10
603.8497119461369
 20
159.9285900850349
 30
0.0
 40
9.0
100
AcDbArc
 50
4.120102000000055
 51
90.0
  0
CIRCLE
  5
6D2
330
2
100
AcDbEntity
  8
0
100
AcDbCircle
 10
603.8497119461369
 20
159.9285900850349
 30
0.0
 40
4.25
  0
LINE
  5
6D3
330
2
100
AcDbEntity
  8
CENTER
100
AcDbLine
 10
597.0497089461369
 20
159.9285900850349
 30
0.0
 11
610.649714946137
 21
159.9285900850349
 31
0.0
  0
LINE
  5
6D4
330
2
100
AcDbEntity
  8
CENTER
100
AcDbLine
 10
603.8497119461369
 20
153.1285870850348
 30
0.0
 11
603.8497119461369
 21
166.7285930850349
 31
0.0
  0
LINE
  5
6D5
330
2
100
AcDbEntity
  8
0
100
AcDbLine
 10
743.849711946137
 20
141.2285930850348
 30
0.0
 11
743.849711946137
 21
57.22856608503488
 31
0.0
  0
LINE
  5
6D6
330
2
100
AcDbEntity
  8
0
100
AcDbLine
 10
696.3497119461369
 20
146.2285850850348
 30
0.0
 11
696.3497119461369
 21
52.22858608503489
 31
0.0
  0
LINE
  5
6D7
330
2
100
AcDbEntity
  8
0
100
AcDbLine
 10
686.8497119461369
 20
54.22858508503487
 30
0.0
 11
686.8497119461369
 21
144.2285850850348
 31
0.0
  0
ARC
  5
6D8
330
2
100
AcDbEntity
  8
0
100
AcDbCircle
 10
738.849711946137
 20
57.22858508503488
 30
0.0
 40
5.0
100
AcDbArc
 50
270.0
 51
0.0
  0
LINE
  5
6D9
330
2
100
AcDbEntity
  8
0
100
AcDbLine
 10
738.849711946137
 20
52.22858608503489
 30
0.0
 11
696.3497119461369
 21
52.22858608503489
 31
0.0
  0
LINE
  5
6DA
330
2
100
AcDbEntity
  8
0
100
AcDbLine
 10
696.3497119461369
 20
70.22858508503488
 30
0.0
 11
740.324717946137
 21
70.22858508503488
 31
0.0
  0
LINE
  5
6DB
330
2
100
AcDbEntity
  8
0
100
AcDbLine
 10
696.3497119461369
 20
54.22858508503487
 30
0.0
 11
686.8497119461369
 21
54.22858508503487
 31
0.0
  0
LINE
  5
6DC
330
2
100
AcDbEntity
  8
0
100
AcDbLine
 10
686.8497119461369
 20
64.81927608503489
 30
0.0
 11
696.3497119461369
 21
64.81927608503489
 31
0.0
  0
ARC
  5
6DD
330
2
100
AcDbEntity
  8
0
100
AcDbCircle
 10
738.849711946137
 20
141.2286160850348
 30
0.0
 40
5.0
100
AcDbArc
 50
0.0
 51
90.0
  0
LINE
  5
6E2
330
2
100
AcDbEntity
  8
0
100
AcDbLine
 10
738.849711946137
 20
146.2285850850348
 30
0.0
 11
696.3497119461369
 21
146.2285850850348
 31
0.0
  0
LINE
  5
6E3
330
2
100
AcDbEntity
  8
0
100
AcDbLine
 10
696.3497119461369
 20
128.2285850850348
 30
0.0
 11
740.324717946137
 21
128.2285850850348
 31
0.0
  0
LINE
  5
6E4
330
2
100
AcDbEntity
  8
0
100
AcDbLine
 10
686.8497119461369
 20
133.6378870850349
 30
0.0
 11
696.3497119461369
 21
133.6378870850349
 31
0.0
  0
LINE
  5
6E5
330
2
100
AcDbEntity
  8
0
100
AcDbLine
 10
696.3497119461369
 20
144.2285850850348
 30
0.0
 11
686.8497119461369
 21
144.2285850850348
 31
0.0
  0
LINE
  5
6EC
330
2
100
AcDbEntity
  8
0
100
AcDbLine
 10
176.5596556341672
 20
276.5348007276049
 30
0.0
 11
106.0865416341671
 21
276.5348007276049
 31
0.0
  0
LINE
  5
6ED
330
2
100
AcDbEntity
  8
0
100
AcDbLine
 10
106.0865416341671
 20
292.5348007276049
 30
0.0
 11
176.7033936341672
 21
292.5348007276049
 31
0.0
  0
LINE
  5
6EE
330
2
100
AcDbEntity
  8
0
100
AcDbLine
 10
106.0865416341671
 20
350.5348007276049
 30
0.0
 11
185.4290706341671
 21
350.5348007276049
 31
0.0
  0
LINE
  5
6EF
330
2
100
AcDbEntity
  8
0
100
AcDbLine
 10
176.428734634167
 20
366.5348007276049
 30
0.0
 11
106.0865416341671
 21
366.5348007276049
 31
0.0
  0
LINE
  5
6F0
330
2
100
AcDbEntity
  8
0
100
AcDbLine
 10
277.4117366341671
 20
356.5871537276048
 30
0.0
 11
279.5865266341671
 21
273.5348007276049
 31
0.0
  0
LINE
  5
6F1
330
2
100
AcDbEntity
  8
0
100
AcDbLine
 10
185.4290706341671
 20
348.5348007276049
 30
0.0
 11
185.4290706341671
 21
285.0698047276049
 31
0.0
  0
LINE
  5
6F2
330
2
100
AcDbEntity
  8
0
100
AcDbLine
 10
246.0865266341671
 20
353.5348007276049
 30
0.0
 11
246.0865266341671
 21
285.5348007276049
 31
0.0
  0
LINE
  5
6F3
330
2
100
AcDbEntity
  8
0
100
AcDbLine
 10
212.0865416341671
 20
353.5348007276049
 30
0.0
 11
212.0865416341671
 21
285.5348007276049
 31
0.0
  0
LINE
  5
6F4
330
2
100
AcDbEntity
  8
0
100
AcDbLine
 10
177.3296136341671
 20
321.5348007276049
 30
0.0
 11
178.5865416341671
 21
273.5348007276049
 31
0.0
  0
LINE
  5
6F5
330
2
100
AcDbEntity
  8
CENTER
100
AcDbLine
 10
229.0865416341671
 20
405.5348007276049
 30
0.0
 11
229.0865416341671
 21
263.5348007276049
 31
0.0
  0
LINE
  5
6F6
330
2
100
AcDbEntity
  8
0
100
AcDbLine
 10
251.5865416341672
 20
363.5348007276049
 30
0.0
 11
206.5865416341671
 21
363.5348007276049
 31
0.0
  0
LINE
  5
6F7
330
2
100
AcDbEntity
  8
0
100
AcDbLine
 10
275.4124076341671
 20
358.5348007276049
 30
0.0
 11
180.5348446341671
 21
358.5348007276049
 31
0.0
  0
LINE
  5
6F8
330
2
100
AcDbEntity
  8
0
100
AcDbLine
 10
237.5715266341671
 20
395.5348007276049
 30
0.0
 11
237.5715266341671
 21
368.5348007276049
 31
0.0
  0
LINE
  5
6F9
330
2
100
AcDbEntity
  8
0
100
AcDbLine
 10
240.5865266341671
 20
395.5348007276049
 30
0.0
 11
240.5865266341671
 21
368.5348007276049
 31
0.0
  0
LINE
  5
6FA
330
2
100
AcDbEntity
  8
0
100
AcDbLine
 10
220.0865416341671
 20
365.5348007276049
 30
0.0
 11
220.0865416341671
 21
395.5348007276049
 31
0.0
  0
LINE
  5
6FB
330
2
100
AcDbEntity
  8
0
100
AcDbLine
 10
240.5865266341671
 20
395.5348007276049
 30
0.0
 11
220.0865416341671
 21
395.5348007276049
 31
0.0
  0
ARC
  5
6FC
330
2
100
AcDbEntity
  8
0
100
AcDbCircle
 10
275.4124076341671
 20
356.5348007276049
 30
0.0
 40
2.0
100
AcDbArc
 50
1.500000000000234
 51
90.0
  0
ARC
  5
6FD
330
2
100
AcDbEntity
  8
0
100
AcDbCircle
 10
254.5865266341671
 20
360.5348007276049
 30
0.0
 40
2.0
100
AcDbArc
 50
180.0
 51
270.0
  0
ARC
  5
6FE
330
2
100
AcDbEntity
  8
0
100
AcDbCircle
 10
251.5865416341672
 20
362.5348007276049
 30
0.0
 40
1.0
100
AcDbArc
 50
0.0
 51
90.0
  0
LINE
  5
6FF
330
2
100
AcDbEntity
  8
0
100
AcDbLine
 10
252.5865416341671
 20
362.5348007276049
 30
0.0
 11
252.5865416341671
 21
360.5348007276049
 31
0.0
  0
LINE
  5
700
330
2
100
AcDbEntity
  8
0
100
AcDbLine
 10
219.0865416341671
 20
365.5348007276049
 30
0.0
 11
239.0865266341671
 21
365.5348007276049
 31
0.0
  0
LINE
  5
701
330
2
100
AcDbEntity
  8
0
100
AcDbLine
 10
238.0865266341671
 20
365.5348007276049
 30
0.0
 11
238.0865266341671
 21
368.5348007276049
 31
0.0
  0
LINE
  5
702
330
2
100
AcDbEntity
  8
0
100
AcDbLine
 10
240.5865266341671
 20
368.5348007276049
 30
0.0
 11
237.5715266341671
 21
368.5348007276049
 31
0.0
  0
LINE
  5
703
330
2
100
AcDbEntity
  8
0
100
AcDbLine
 10
239.0865266341671
 20
363.5348007276049
 30
0.0
 11
239.0865266341671
 21
365.5348007276049
 31
0.0
  0
LINE
  5
704
330
2
100
AcDbEntity
  8
0
100
AcDbLine
 10
219.0865416341671
 20
363.5348007276049
 30
0.0
 11
219.0865416341671
 21
365.5348007276049
 31
0.0
  0
ARC
  5
705
330
2
100
AcDbEntity
  8
0
100
AcDbCircle
 10
203.5865416341671
 20
360.5348007276049
 30
0.0
 40
2.0
100
AcDbArc
 50
270.0
 51
0.0
  0
ARC
  5
706
330
2
100
AcDbEntity
  8
0
100
AcDbCircle
 10
206.5865416341671
 20
362.5348007276049
 30
0.0
 40
1.0
100
AcDbArc
 50
90.0
 51
180.0
  0
LINE
  5
707
330
2
100
AcDbEntity
  8
0
100
AcDbLine
 10
205.5865416341671
 20
362.5348007276049
 30
0.0
 11
205.5865416341671
 21
360.5348007276049
 31
0.0
  0
ARC
  5
708
330
2
100
AcDbEntity
  8
0
100
AcDbCircle
 10
180.5348446341671
 20
360.5348007276049
 30
0.0
 40
2.0
100
AcDbArc
 50
181.5000000000002
 51
270.0
  0
ARC
  5
709
330
2
100
AcDbEntity
  8
0
100
AcDbCircle
 10
176.428734634167
 20
364.5348007276049
 30
0.0
 40
2.0
100
AcDbArc
 50
1.500000000000234
 51
90.0
  0
LINE
  5
70A
330
2
100
AcDbEntity
  8
0
100
AcDbLine
 10
178.4280326341671
 20
364.5871537276049
 30
0.0
 11
178.5355156341671
 21
360.4824477276049
 31
0.0
  0
LINE
  5
70B
330
2
100
AcDbEntity
  8
0
100
AcDbLine
 10
178.3771296341672
 20
350.5375477276049
 30
0.0
 11
178.5355156341671
 21
356.5871537276048
 31
0.0
  0
ARC
  5
70C
330
2
100
AcDbEntity
  8
0
100
AcDbCircle
 10
180.5348446341671
 20
356.534800727605
 30
0.0
 40
2.0
100
AcDbArc
 50
90.0
 51
178.4999999999997
  0
LINE
  5
70D
330
2
100
AcDbEntity
  8
0
100
AcDbLine
 10
180.3777396341672
 20
283.5348007276049
 30
0.0
 11
277.3763516341671
 21
283.5348007276049
 31
0.0
  0
LINE
  5
70E
330
2
100
AcDbEntity
  8
0
100
AcDbLine
 10
178.5865416341671
 20
273.5348007276049
 30
0.0
 11
279.5865266341671
 21
273.5348007276049
 31
0.0
  0
LINE
  5
70F
330
2
100
AcDbEntity
  8
CENTER
100
AcDbLine
 10
269.0865266341671
 20
268.5348007276049
 30
0.0
 11
269.0865266341671
 21
288.5348007276049
 31
0.0
  0
ARC
  5
710
330
2
100
AcDbEntity
  8
0
100
AcDbCircle
 10
248.0865266341671
 20
285.5348007276049
 30
0.0
 40
2.0
100
AcDbArc
 50
180.0
 51
270.0
  0
LINE
  5
711
330
2
100
AcDbEntity
  8
HIDS
100
AcDbLine
 10
273.3365266341671
 20
283.5348007276049
 30
0.0
 11
273.3365266341671
 21
273.5348007276049
 31
0.0
  0
ARC
  5
712
330
2
100
AcDbEntity
  8
0
100
AcDbCircle
 10
277.3763516341671
 20
281.5348007276049
 30
0.0
 40
2.0
100
AcDbArc
 50
1.500000000000234
 51
90.0
  0
LINE
  5
713
330
2
100
AcDbEntity
  8
HIDS
100
AcDbLine
 10
264.8365266341671
 20
283.5348007276049
 30
0.0
 11
264.8365266341671
 21
273.5348007276049
 31
0.0
  0
LINE
  5
714
330
2
100
AcDbEntity
  8
0
100
AcDbLine
 10
211.9446046341671
 20
284.7948107276049
 30
0.0
 11
246.2284636341671
 21
284.7948107276049
 31
0.0
  0
ARC
  5
715
330
2
100
AcDbEntity
  8
0
100
AcDbCircle
 10
210.0865416341671
 20
285.5348007276049
 30
0.0
 40
2.0
100
AcDbArc
 50
270.0
 51
0.0
  0
LINE
  5
716
330
2
100
AcDbEntity
  8
CENTER
100
AcDbLine
 10
189.0865416341672
 20
268.5348007276049
 30
0.0
 11
189.0865416341671
 21
288.534800727605
 31
0.0
  0
LINE
  5
717
330
2
100
AcDbEntity
  8
HIDS
100
AcDbLine
 10
193.3365416341671
 20
283.5348007276049
 30
0.0
 11
193.3365416341671
 21
273.5348007276049
 31
0.0
  0
LINE
  5
718
330
2
100
AcDbEntity
  8
HIDS
100
AcDbLine
 10
184.8365416341671
 20
283.5348007276049
 30
0.0
 11
184.8365416341671
 21
273.5348007276049
 31
0.0
  0
ARC
  5
719
330
2
100
AcDbEntity
  8
0
100
AcDbCircle
 10
180.3777396341671
 20
281.5348007276049
 30
0.0
 40
2.0
100
AcDbArc
 50
90.0
 51
181.5000000000002
  0
ARC
  5
71A
330
2
100
AcDbEntity
  8
0
100
AcDbCircle
 10
176.5596556341671
 20
274.5348007276049
 30
0.0
 40
2.0
100
AcDbArc
 50
1.500000000000234
 51
90.0
  0
LINE
  5
71B
330
2
100
AcDbEntity
  8
0
100
AcDbLine
 10
49.08654163416713
 20
363.5348007276049
 30
0.0
 11
49.08651063416733
 21
279.5348007276049
 31
0.0
  0
LINE
  5
71C
330
2
100
AcDbEntity
  8
0
100
AcDbLine
 10
96.58654163416713
 20
368.5348007276049
 30
0.0
 11
96.58654163416713
 21
329.0348007276048
 31
0.0
  0
ARC
  5
721
330
2
100
AcDbEntity
  8
0
100
AcDbCircle
 10
54.08654163416713
 20
363.534800727605
 30
0.0
 40
5.0
100
AcDbArc
 50
90.0
 51
180.0
  0
LINE
  5
722
330
2
100
AcDbEntity
  8
0
100
AcDbLine
 10
54.08651063416733
 20
368.5348007276049
 30
0.0
 11
96.58654163416713
 21
368.5348007276049
 31
0.0
  0
LINE
  5
723
330
2
100
AcDbEntity
  8
0
100
AcDbLine
 10
96.58654163416713
 20
350.5348007276049
 30
0.0
 11
52.6115046341672
 21
350.5348007276049
 31
0.0
  0
LINE
  5
724
330
2
100
AcDbEntity
  8
0
100
AcDbLine
 10
106.0865416341671
 20
346.5348007276048
 30
0.0
 11
106.0865416341671
 21
366.5348007276049
 31
0.0
  0
LINE
  5
725
330
2
100
AcDbEntity
  8
0
100
AcDbLine
 10
96.58654163416713
 20
366.5348007276049
 30
0.0
 11
106.0865416341671
 21
366.5348007276049
 31
0.0
  0
LINE
  5
726
330
2
100
AcDbEntity
  8
0
100
AcDbLine
 10
106.0865416341671
 20
350.5348007276049
 30
0.0
 11
96.58654163416713
 21
350.5348007276049
 31
0.0
  0
ARC
  5
72C
330
2
100
AcDbEntity
  8
0
100
AcDbCircle
 10
54.08651063416721
 20
279.534800727605
 30
0.0
 40
5.0
100
AcDbArc
 50
180.0
 51
270.0
  0
LINE
  5
72D
330
2
100
AcDbEntity
  8
0
100
AcDbLine
 10
54.08651063416733
 20
274.5348007276049
 30
0.0
 11
96.58654163416713
 21
274.5348007276049
 31
0.0
  0
LINE
  5
72E
330
2
100
AcDbEntity
  8
0
100
AcDbLine
 10
96.58654163416713
 20
292.5348007276049
 30
0.0
 11
52.6115046341672
 21
292.5348007276049
 31
0.0
  0
LINE
  5
72F
330
2
100
AcDbEntity
  8
0
100
AcDbLine
 10
106.0865416341671
 20
276.5348007276049
 30
0.0
 11
106.0865416341671
 21
296.5348007276048
 31
0.0
  0
LINE
  5
735
330
2
100
AcDbEntity
  8
0
100
AcDbLine
 10
101.0865416341671
 20
282.2649647276049
 30
0.0
 11
101.0865416341671
 21
277.7649647276049
 31
0.0
  0
LINE
  5
736
330
2
100
AcDbEntity
  8
0
100
AcDbLine
 10
99.58654163416714
 20
282.2649647276049
 30
0.0
 11
99.58654163416714
 21
277.7649647276049
 31
0.0
  0
LINE
  5
737
330
2
100
AcDbEntity
  8
0
100
AcDbLine
 10
98.08654163416713
 20
282.2649647276049
 30
0.0
 11
98.08654163416713
 21
277.2493697276049
 31
0.0
  0
ARC
  5
738
330
2
100
AcDbEntity
  8
0
100
AcDbCircle
 10
96.58654163416713
 20
282.2649647276049
 30
0.0
 40
3.0
100
AcDbArc
 50
0.0
 51
90.0
  0
ARC
  5
739
330
2
100
AcDbEntity
  8
0
100
AcDbCircle
 10
96.58654163416713
 20
282.2649647276049
 30
0.0
 40
4.5
100
AcDbArc
 50
0.0
 51
90.0
  0
LINE
  5
73A
330
2
100
AcDbEntity
  8
0
100
AcDbLine
 10
106.0865416341671
 20
292.5348007276049
 30
0.0
 11
96.58654163416713
 21
292.5348007276049
 31
0.0
  0
ARC
  5
73B
330
2
100
AcDbEntity
  8
0
100
AcDbCircle
 10
96.58654163416713
 20
282.2649647276049
 30
0.0
 40
1.5
100
AcDbArc
 50
0.0
 51
90.0
  0
LINE
  5
73C
330
2
100
AcDbEntity
  8
HOJO
100
AcDbLine
 10
98.08654163416713
 20
277.2649647276049
 30
0.0
 11
99.58654163416714
 21
277.7649647276049
 31
0.0
  0
LINE
  5
73D
330
2
100
AcDbEntity
  8
0
100
AcDbLine
 10
96.58654163416713
 20
276.5348007276049
 30
0.0
 11
106.0865416341671
 21
276.5348007276049
 31
0.0
  0
LINE
  5
73E
330
2
100
AcDbEntity
  8
HOJO
100
AcDbLine
 10
99.58654163416714
 20
278.2649647276049
 30
0.0
 11
101.0865416341671
 21
277.7649647276049
 31
0.0
  0
LINE
  5
74B
330
2
100
AcDbEntity
  8
CENTER
100
AcDbLine
 10
517.0497239461369
 20
159.9285900850349
 30
0.0
 11
530.649729946137
 21
159.9285900850349
 31
0.0
  0
LINE
  5
74C
330
2
100
AcDbEntity
  8
CENTER
100
AcDbLine
 10
523.849726946137
 20
153.1285870850348
 30
0.0
 11
523.849726946137
 21
166.7285930850349
 31
0.0
  0
LINE
  5
74D
330
2
100
AcDbEntity
  8
CENTER
100
AcDbLine
 10
517.0497239461369
 20
59.92858608503488
 30
0.0
 11
530.649729946137
 21
59.92858608503488
 31
0.0
  0
LINE
  5
74E
330
2
100
AcDbEntity
  8
CENTER
100
AcDbLine
 10
523.849726946137
 20
53.12858308503487
 30
0.0
 11
523.849726946137
 21
66.72858908503489
 31
0.0
  0
LINE
  5
74F
330
2
100
AcDbEntity
  8
CENTER
100
AcDbLine
 10
597.0497089461369
 20
59.92858608503488
 30
0.0
 11
610.649714946137
 21
59.92858608503488
 31
0.0
  0
LINE
  5
750
330
2
100
AcDbEntity
  8
CENTER
100
AcDbLine
 10
603.8497119461369
 20
53.12858308503487
 30
0.0
 11
603.8497119461369
 21
66.72858908503489
 31
0.0
  0
LINE
  5
7FB
330
2
100
AcDbEntity
  8
0
100
AcDbLine
 10
203.0865416341671
 20
164.9285900850348
 30
0.0
 11
255.0865416341671
 21
164.9285900850348
 31
0.0
  0
LINE
  5
7FC
330
2
100
AcDbEntity
  8
0
100
AcDbLine
 10
255.0865416341671
 20
54.9285900850349
 30
0.0
 11
203.0865416341671
 21
54.9285900850349
 31
0.0
  0
CIRCLE
  5
7FD
330
2
100
AcDbEntity
  8
0
100
AcDbCircle
 10
229.0865416341671
 20
124.9285900850348
 30
0.0
 40
23.5
  0
LINE
  5
7FE
330
2
100
AcDbEntity
  8
CENTER
100
AcDbLine
 10
195.5865416341671
 20
124.9285900850348
 30
0.0
 11
262.5865416341671
 21
124.9285900850348
 31
0.0
  0
LINE
  5
7FF
330
2
100
AcDbEntity
  8
0
100
AcDbLine
 10
189.0865416341671
 20
168.9285900850348
 30
0.0
 11
269.0865416341671
 21
168.9285900850348
 31
0.0
  0
LINE
  5
800
330
2
100
AcDbEntity
  8
0
100
AcDbLine
 10
189.0865416341671
 20
50.9285900850349
 30
0.0
 11
269.0865416341671
 21
50.9285900850349
 31
0.0
  0
ARC
  5
801
330
2
100
AcDbEntity
  8
0
100
AcDbCircle
 10
229.0865416341671
 20
109.9285900850348
 30
0.0
 40
50.5
100
AcDbArc
 50
18.10380000000027
 51
161.8961939999998
  0
ARC
  5
802
330
2
100
AcDbEntity
  8
0
100
AcDbCircle
 10
229.0865416341671
 20
109.9285900850348
 30
0.0
 40
50.5
100
AcDbArc
 50
198.1038060000001
 51
341.8962100000007
  0
LINE
  5
803
330
2
100
AcDbEntity
  8
CENTER
100
AcDbLine
 10
189.0865416341671
 20
153.1285870850348
 30
0.0
 11
189.0865416341671
 21
166.7285930850348
 31
0.0
  0
LINE
  5
804
330
2
100
AcDbEntity
  8
0
100
AcDbLine
 10
180.1097356341672
 20
160.5752190850348
 30
0.0
 11
178.5865416341671
 21
139.4285900850348
 31
0.0
  0
CIRCLE
  5
805
330
2
100
AcDbEntity
  8
0
100
AcDbCircle
 10
189.0865416341671
 20
159.9285900850348
 30
0.0
 40
4.25
  0
ARC
  5
806
330
2
100
AcDbEntity
  8
0
100
AcDbCircle
 10
189.0865416341671
 20
159.9285900850348
 30
0.0
 40
9.0
100
AcDbArc
 50
265.8793329999989
 51
0.0
  0
LINE
  5
809
330
2
100
AcDbEntity
  8
CENTER
100
AcDbLine
 10
39.08654313416673
 20
99.22858908503489
 30
0.0
 11
206.4160706341672
 21
99.22858908503489
 31
0.0
  0
LINE
  5
80A
330
2
100
AcDbEntity
  8
0
100
AcDbLine
 10
106.0865346341672
 20
144.2285930850348
 30
0.0
 11
178.9322456341672
 21
144.2285930850348
 31
0.0
  0
LINE
  5
80B
330
2
100
AcDbEntity
  8
0
100
AcDbLine
 10
176.5865416341671
 20
54.2285900850349
 30
0.0
 11
106.0865346341672
 21
54.2285900850349
 31
0.0
  0
LINE
  5
80C
330
2
100
AcDbEntity
  8
0
100
AcDbLine
 10
106.0865346341672
 20
133.6378870850349
 30
0.0
 11
176.5865416341671
 21
133.6378870850349
 31
0.0
  0
LINE
  5
80D
330
2
100
AcDbEntity
  8
0
100
AcDbLine
 10
106.0865346341672
 20
64.81928008503489
 30
0.0
 11
177.0865416341671
 21
64.81928008503489
 31
0.0
  0
LINE
  5
80E
330
2
100
AcDbEntity
  8
0
100
AcDbLine
 10
96.58653463416726
 20
146.2285930850348
 30
0.0
 11
96.58653463416726
 21
52.2285900850349
 31
0.0
  0
LINE
  5
80F
330
2
100
AcDbEntity
  8
0
100
AcDbLine
 10
49.08655563416721
 20
141.2286010850348
 30
0.0
 11
49.08653063416728
 21
57.22858008503489
 31
0.0
  0
LINE
  5
810
330
2
100
AcDbEntity
  8
0
100
AcDbLine
 10
106.0865346341672
 20
54.2285900850349
 30
0.0
 11
106.0865346341672
 21
144.2285930850348
 31
0.0
  0
LINE
  5
811
330
2
100
AcDbEntity
  8
0
100
AcDbLine
 10
96.58653463416726
 20
70.2285890850349
 30
0.0
 11
52.61153163416725
 21
70.2285890850349
 31
0.0
  0
LINE
  5
812
330
2
100
AcDbEntity
  8
0
100
AcDbLine
 10
54.08653063416728
 20
52.2285900850349
 30
0.0
 11
96.58653463416726
 21
52.2285900850349
 31
0.0
  0
ARC
  5
813
330
2
100
AcDbEntity
  8
0
100
AcDbCircle
 10
54.08652963416717
 20
57.2285900850349
 30
0.0
 40
5.0
100
AcDbArc
 50
180.0
 51
270.0
  0
LINE
  5
814
330
2
100
AcDbEntity
  8
0
100
AcDbLine
 10
96.58653463416726
 20
54.2285900850349
 30
0.0
 11
106.0865346341672
 21
54.2285900850349
 31
0.0
  0
LINE
  5
815
330
2
100
AcDbEntity
  8
0
100
AcDbLine
 10
106.0865346341672
 20
64.8192890850349
 30
0.0
 11
96.58653463416726
 21
64.8192890850349
 31
0.0
  0
LINE
  5
816
330
2
100
AcDbEntity
  8
0
100
AcDbLine
 10
96.58653463416726
 20
128.2285930850348
 30
0.0
 11
52.61153263416713
 21
128.2285930850348
 31
0.0
  0
LINE
  5
817
330
2
100
AcDbEntity
  8
0
100
AcDbLine
 10
54.08653063416728
 20
146.2285930850348
 30
0.0
 11
96.58653463416726
 21
146.2285930850348
 31
0.0
  0
ARC
  5
818
330
2
100
AcDbEntity
  8
0
100
AcDbCircle
 10
54.08655563416721
 20
141.2286240850349
 30
0.0
 40
5.0
100
AcDbArc
 50
90.0
 51
180.0
  0
LINE
  5
819
330
2
100
AcDbEntity
  8
0
100
AcDbLine
 10
98.08653463416726
 20
127.7579890850349
 30
0.0
 11
98.08653463416726
 21
122.7423870850348
 31
0.0
  0
LINE
  5
81A
330
2
100
AcDbEntity
  8
0
100
AcDbLine
 10
99.58653463416727
 20
127.7579890850349
 30
0.0
 11
99.58653463416727
 21
123.2579890850348
 31
0.0
  0
LINE
  5
81B
330
2
100
AcDbEntity
  8
0
100
AcDbLine
 10
101.0865346341672
 20
127.7579890850349
 30
0.0
 11
101.0865346341672
 21
123.2579890850348
 31
0.0
  0
LINE
  5
81C
330
2
100
AcDbEntity
  8
HOJO
100
AcDbLine
 10
98.08653463416726
 20
122.7579890850349
 30
0.0
 11
99.58653463416727
 21
123.2579890850348
 31
0.0
  0
LINE
  5
81D
330
2
100
AcDbEntity
  8
HOJO
100
AcDbLine
 10
99.58653463416727
 20
123.7579890850349
 30
0.0
 11
101.0865346341672
 21
123.2579890850348
 31
0.0
  0
LINE
  5
81E
330
2
100
AcDbEntity
  8
0
100
AcDbLine
 10
96.58653463416726
 20
144.2285930850348
 30
0.0
 11
106.0865346341672
 21
144.2285930850348
 31
0.0
  0
LINE
  5
81F
330
2
100
AcDbEntity
  8
0
100
AcDbLine
 10
106.0865346341672
 20
133.6378870850349
 30
0.0
 11
96.58653463416726
 21
133.6378870850349
 31
0.0
  0
ARC
  5
821
330
2
100
AcDbEntity
  8
0
100
AcDbCircle
 10
96.58653463416726
 20
127.7579890850349
 30
0.0
 40
3.0
100
AcDbArc
 50
0.0
 51
90.0
  0
ARC
  5
822
330
2
100
AcDbEntity
  8
0
100
AcDbCircle
 10
96.58653463416726
 20
127.7579890850349
 30
0.0
 40
1.5
100
AcDbArc
 50
0.0
 51
90.0
  0
ARC
  5
823
330
2
100
AcDbEntity
  8
0
100
AcDbCircle
 10
96.58653463416726
 20
127.7579890850349
 30
0.0
 40
4.5
100
AcDbArc
 50
0.0
 51
90.0
  0
LINE
  5
82B
330
2
100
AcDbEntity
  8
0
100
AcDbLine
 10
181.0865416341671
 20
125.6207820850349
 30
0.0
 11
181.0865416341671
 21
94.23607008503489
 31
0.0
  0
LINE
  5
82C
330
2
100
AcDbEntity
  8
0
100
AcDbLine
 10
178.5865416341671
 20
139.4285900850348
 30
0.0
 11
178.5865416341671
 21
80.4285790850349
 31
0.0
  0
LINE
  5
82D
330
2
100
AcDbEntity
  8
CENTER
100
AcDbLine
 10
189.0865416341671
 20
53.12858708503489
 30
0.0
 11
189.0865416341671
 21
66.7285930850349
 31
0.0
  0
ARC
  5
82E
330
2
100
AcDbEntity
  8
0
100
AcDbCircle
 10
183.5865416341671
 20
64.22862008503489
 30
0.0
 40
5.0
100
AcDbArc
 50
143.9947969999993
 51
180.0
  0
LINE
  5
82F
330
2
100
AcDbEntity
  8
0
100
AcDbLine
 10
180.1097356341672
 20
59.28202908503489
 30
0.0
 11
178.5865416341671
 21
80.42859008503489
 31
0.0
  0
ARC
  5
830
330
2
100
AcDbEntity
  8
0
100
AcDbCircle
 10
189.0865416341671
 20
59.9285900850349
 30
0.0
 40
9.0
100
AcDbArc
 50
0.0
 51
94.12016299999981
  0
LINE
  5
831
330
2
100
AcDbEntity
  8
CENTER
100
AcDbLine
 10
182.2865386341671
 20
59.9285900850349
 30
0.0
 11
195.8865446341672
 21
59.9285900850349
 31
0.0
  0
CIRCLE
  5
832
330
2
100
AcDbEntity
  8
0
100
AcDbCircle
 10
189.0865416341671
 20
59.9285900850349
 30
0.0
 40
4.25
  0
ARC
  5
833
330
2
100
AcDbEntity
  8
0
100
AcDbCircle
 10
176.5865416341671
 20
56.22859008503489
 30
0.0
 40
2.0
100
AcDbArc
 50
270.0
 51
0.0
  0
ARC
  5
834
330
2
100
AcDbEntity
  8
0
100
AcDbCircle
 10
189.0865416341671
 20
59.9285900850349
 30
0.0
 40
9.0
100
AcDbArc
 50
184.120102
 51
270.0
  0
LINE
  5
835
330
2
100
AcDbEntity
  8
0
100
AcDbLine
 10
178.5865416341671
 20
56.22859008503489
 30
0.0
 11
178.5865416341671
 21
64.22862008503489
 31
0.0
  0
ARC
  5
836
330
2
100
AcDbEntity
  8
0
100
AcDbCircle
 10
203.0865416341671
 20
59.9285900850349
 30
0.0
 40
5.0
100
AcDbArc
 50
180.0
 51
270.0
  0
LINE
  5
837
330
2
100
AcDbEntity
  8
0
100
AcDbLine
 10
183.0935456341672
 20
73.5331700850349
 30
0.0
 11
181.0864356341671
 21
94.2365540850349
 31
0.0
  0
ARC
  5
838
330
2
100
AcDbEntity
  8
0
100
AcDbCircle
 10
188.0806366341671
 20
73.89241008503489
 30
0.0
 40
5.0
100
AcDbArc
 50
184.1204989999988
 51
274.1202089999985
  0
LINE
  5
839
330
2
100
AcDbEntity
  8
0
100
AcDbLine
 10
183.0935456341672
 20
146.3240520850348
 30
0.0
 11
181.0865416341671
 21
125.6209500850348
 31
0.0
  0
ARC
  5
83A
330
2
100
AcDbEntity
  8
0
100
AcDbCircle
 10
188.0806366341671
 20
145.9647690850348
 30
0.0
 40
5.0
100
AcDbArc
 50
85.87979900000091
 51
175.8795010000011
  0
LINE
  5
83B
330
2
100
AcDbEntity
  8
CENTER
100
AcDbLine
 10
182.2865386341671
 20
159.9285900850348
 30
0.0
 11
195.8865446341672
 21
159.9285900850348
 31
0.0
  0
ARC
  5
83C
330
2
100
AcDbEntity
  8
0
100
AcDbCircle
 10
189.0865416341671
 20
159.9285900850348
 30
0.0
 40
9.0
100
AcDbArc
 50
90.0
 51
175.8798979999999
  0
ARC
  5
83D
330
2
100
AcDbEntity
  8
0
100
AcDbCircle
 10
203.0865416341671
 20
159.9285900850348
 30
0.0
 40
5.0
100
AcDbArc
 50
90.0
 51
180.0
  0
CIRCLE
  5
83E
330
2
100
AcDbEntity
  8
0
100
AcDbCircle
 10
269.0865416341671
 20
159.9285900850348
 30
0.0
 40
4.25
  0
LINE
  5
83F
330
2
100
AcDbEntity
  8
CENTER
100
AcDbLine
 10
269.0865416341671
 20
153.1285870850348
 30
0.0
 11
269.0865416341671
 21
166.7285930850348
 31
0.0
  0
LINE
  5
840
330
2
100
AcDbEntity
  8
0
100
AcDbLine
 10
278.0632416341672
 20
160.5752190850348
 30
0.0
 11
279.5865416341671
 21
139.4285900850348
 31
0.0
  0
LINE
  5
841
330
2
100
AcDbEntity
  8
0
100
AcDbLine
 10
243.0865416341671
 20
163.9973920850348
 30
0.0
 11
243.0865416341671
 21
158.4492120850348
 31
0.0
  0
LINE
  5
842
330
2
100
AcDbEntity
  8
0
100
AcDbLine
 10
215.0865416341671
 20
163.9973920850348
 30
0.0
 11
215.0865416341671
 21
158.4491970850349
 31
0.0
  0
LINE
  5
843
330
2
100
AcDbEntity
  8
CENTER
100
AcDbLine
 10
229.0865416341671
 20
178.9285900850348
 30
0.0
 11
229.0865416341671
 21
40.92859008503487
 31
0.0
  0
ARC
  5
844
330
2
100
AcDbEntity
  8
0
100
AcDbCircle
 10
269.0865416341671
 20
159.9285900850348
 30
0.0
 40
9.0
100
AcDbArc
 50
180.0
 51
274.1206970000004
  0
LINE
  5
845
330
2
100
AcDbEntity
  8
0
100
AcDbLine
 10
279.5865416341671
 20
80.42859008503489
 30
0.0
 11
279.5865416341671
 21
139.4285900850348
 31
0.0
  0
LINE
  5
846
330
2
100
AcDbEntity
  8
0
100
AcDbLine
 10
277.0865416341671
 20
125.6209500850348
 30
0.0
 11
277.0865416341671
 21
94.2365540850349
 31
0.0
  0
LINE
  5
847
330
2
100
AcDbEntity
  8
0
100
AcDbLine
 10
215.0865416341671
 20
61.4079790850349
 30
0.0
 11
215.0865416341671
 21
56.13396008503489
 31
0.0
  0
LINE
  5
848
330
2
100
AcDbEntity
  8
0
100
AcDbLine
 10
243.0865416341671
 20
61.4079790850349
 30
0.0
 11
243.0865416341671
 21
56.13396008503489
 31
0.0
  0
LINE
  5
849
330
2
100
AcDbEntity
  8
0
100
AcDbLine
 10
221.7901396341671
 20
89.64963308503488
 30
0.0
 11
221.1869446341672
 21
90.2210740850349
 31
0.0
  0
LINE
  5
84A
330
2
100
AcDbEntity
  8
0
100
AcDbLine
 10
217.4939366341671
 20
91.49109408503489
 30
0.0
 11
221.7805426341671
 21
91.49109408503489
 31
0.0
  0
LINE
  5
84B
330
2
100
AcDbEntity
  8
0
100
AcDbLine
 10
221.7901396341671
 20
86.43592208503489
 30
0.0
 11
220.1217436341671
 21
86.43592208503489
 31
0.0
  0
LINE
  5
84C
330
2
100
AcDbEntity
  8
0
100
AcDbLine
 10
220.1217436341671
 20
87.48182008503489
 30
0.0
 11
222.7115416341671
 21
87.48182008503489
 31
0.0
  0
LINE
  5
84D
330
2
100
AcDbEntity
  8
0
100
AcDbLine
 10
221.7901396341671
 20
82.6908580850349
 30
0.0
 11
220.8816466341672
 21
81.92859008503489
 31
0.0
  0
ARC
  5
84E
330
2
100
AcDbEntity
  8
0
100
AcDbCircle
 10
219.7979376341673
 20
85.04139108503489
 30
0.0
 40
1.992186999999999
100
AcDbArc
 50
270.0002140000007
 51
0.0001089999998967
  0
LINE
  5
84F
330
2
100
AcDbEntity
  8
0
100
AcDbLine
 10
216.3365416341671
 20
90.00909908503487
 30
0.0
 11
216.3365416341671
 21
83.16945008503489
 31
0.0
  0
LINE
  5
850
330
2
100
AcDbEntity
  8
0
100
AcDbLine
 10
217.4073426341672
 20
89.3285800850349
 30
0.0
 11
217.4073426341672
 21
83.81952008503489
 31
0.0
  0
LINE
  5
851
330
2
100
AcDbEntity
  8
0
100
AcDbLine
 10
216.3365416341671
 20
83.16945008503489
 30
0.0
 11
217.5663396341672
 21
81.92859008503489
 31
0.0
  0
LINE
  5
852
330
2
100
AcDbEntity
  8
0
100
AcDbLine
 10
220.1217436341671
 20
87.48182008503489
 30
0.0
 11
220.1217436341671
 21
86.43592208503489
 31
0.0
  0
LINE
  5
853
330
2
100
AcDbEntity
  8
0
100
AcDbLine
 10
217.4073426341672
 20
83.81952008503489
 30
0.0
 11
218.1386356341672
 21
83.04919908503491
 31
0.0
  0
LINE
  5
854
330
2
100
AcDbEntity
  8
0
100
AcDbLine
 10
219.7979376341673
 20
83.04919908503491
 30
0.0
 11
218.1386356341672
 21
83.04919908503491
 31
0.0
  0
LINE
  5
855
330
2
100
AcDbEntity
  8
0
100
AcDbLine
 10
217.5663396341672
 20
81.92859008503489
 30
0.0
 11
220.8816466341672
 21
81.92859008503489
 31
0.0
  0
LINE
  5
856
330
2
100
AcDbEntity
  8
0
100
AcDbLine
 10
217.4939366341671
 20
91.49109408503489
 30
0.0
 11
216.3365416341671
 21
90.00909908503487
 31
0.0
  0
LINE
  5
857
330
2
100
AcDbEntity
  8
0
100
AcDbLine
 10
218.1271456341671
 20
90.2210740850349
 30
0.0
 11
217.4073426341672
 21
89.3285800850349
 31
0.0
  0
LINE
  5
858
330
2
100
AcDbEntity
  8
0
100
AcDbLine
 10
221.1990446341672
 20
90.2210740850349
 30
0.0
 11
218.1271456341671
 21
90.2210740850349
 31
0.0
  0
LINE
  5
859
330
2
100
AcDbEntity
  8
0
100
AcDbLine
 10
228.4639376341672
 20
90.32068408503489
 30
0.0
 11
228.4639376341672
 21
82.97448808503489
 31
0.0
  0
LINE
  5
85A
330
2
100
AcDbEntity
  8
0
100
AcDbLine
 10
229.6593416341672
 20
90.32068408503489
 30
0.0
 11
229.6593416341672
 21
82.97448808503489
 31
0.0
  0
LINE
  5
85B
330
2
100
AcDbEntity
  8
0
100
AcDbLine
 10
221.7901396341671
 20
85.43982808503489
 30
0.0
 11
221.7901396341671
 21
86.2366990850349
 31
0.0
  0
LINE
  5
85C
330
2
100
AcDbEntity
  8
0
100
AcDbLine
 10
221.7901396341671
 20
86.43592208503489
 30
0.0
 11
221.7901396341671
 21
85.04139108503489
 31
0.0
  0
LINE
  5
85D
330
2
100
AcDbEntity
  8
0
100
AcDbLine
 10
221.7901396341671
 20
82.6908580850349
 30
0.0
 11
221.7901396341671
 21
81.92859008503489
 31
0.0
  0
LINE
  5
85E
330
2
100
AcDbEntity
  8
0
100
AcDbLine
 10
221.7901396341671
 20
81.92859008503489
 30
0.0
 11
222.7115416341671
 21
81.92859008503489
 31
0.0
  0
LINE
  5
85F
330
2
100
AcDbEntity
  8
0
100
AcDbLine
 10
222.7115416341671
 20
87.48182008503489
 30
0.0
 11
222.7115416341671
 21
81.92859008503489
 31
0.0
  0
LINE
  5
860
330
2
100
AcDbEntity
  8
0
100
AcDbLine
 10
229.6593416341672
 20
82.97448808503489
 30
0.0
 11
230.0577486341671
 21
82.97448808503489
 31
0.0
  0
LINE
  5
861
330
2
100
AcDbEntity
  8
0
100
AcDbLine
 10
227.9908386341671
 20
82.97448808503489
 30
0.0
 11
228.4639376341672
 21
82.97448808503489
 31
0.0
  0
LINE
  5
862
330
2
100
AcDbEntity
  8
0
100
AcDbLine
 10
227.9908386341671
 20
81.92859008503489
 30
0.0
 11
230.0577486341671
 21
81.92859008503489
 31
0.0
  0
LINE
  5
863
330
2
100
AcDbEntity
  8
0
100
AcDbLine
 10
227.9908386341671
 20
82.97448808503489
 30
0.0
 11
227.9908386341671
 21
81.92859008503489
 31
0.0
  0
LINE
  5
864
330
2
100
AcDbEntity
  8
0
100
AcDbLine
 10
230.0577486341671
 20
82.97448808503489
 30
0.0
 11
230.0577486341671
 21
81.92859008503489
 31
0.0
  0
LINE
  5
865
330
2
100
AcDbEntity
  8
0
100
AcDbLine
 10
228.4639376341672
 20
90.32068408503489
 30
0.0
 11
226.9490446341671
 21
90.32068408503489
 31
0.0
  0
LINE
  5
866
330
2
100
AcDbEntity
  8
0
100
AcDbLine
 10
225.8990416341671
 20
91.49109408503489
 30
0.0
 11
232.2740416341671
 21
91.49109408503489
 31
0.0
  0
LINE
  5
867
330
2
100
AcDbEntity
  8
0
100
AcDbLine
 10
225.8990416341671
 20
89.49890608503489
 30
0.0
 11
225.8990416341671
 21
91.49109408503489
 31
0.0
  0
LINE
  5
868
330
2
100
AcDbEntity
  8
0
100
AcDbLine
 10
225.8990416341671
 20
89.49890608503489
 30
0.0
 11
226.6066376341671
 21
89.49890608503489
 31
0.0
  0
LINE
  5
869
330
2
100
AcDbEntity
  8
0
100
AcDbLine
 10
226.9490446341671
 20
90.32068408503489
 30
0.0
 11
226.6066376341671
 21
89.49890608503489
 31
0.0
  0
LINE
  5
86A
330
2
100
AcDbEntity
  8
0
100
AcDbLine
 10
221.7805426341671
 20
91.49109408503489
 30
0.0
 11
222.7115416341671
 21
90.4579520850349
 31
0.0
  0
LINE
  5
86B
330
2
100
AcDbEntity
  8
0
100
AcDbLine
 10
221.7901396341671
 20
89.49890608503489
 30
0.0
 11
222.7115416341671
 21
89.49890608503489
 31
0.0
  0
LINE
  5
86C
330
2
100
AcDbEntity
  8
0
100
AcDbLine
 10
222.7115416341671
 20
90.4579520850349
 30
0.0
 11
222.7115416341671
 21
89.49890608503489
 31
0.0
  0
LINE
  5
86D
330
2
100
AcDbEntity
  8
0
100
AcDbLine
 10
221.7901396341671
 20
89.64963308503488
 30
0.0
 11
221.7901396341671
 21
89.49890608503489
 31
0.0
  0
LINE
  5
86E
330
2
100
AcDbEntity
  8
0
100
AcDbLine
 10
232.2740416341671
 20
89.49890608503489
 30
0.0
 11
232.2740416341671
 21
91.49109408503489
 31
0.0
  0
LINE
  5
86F
330
2
100
AcDbEntity
  8
0
100
AcDbLine
 10
231.6090486341672
 20
89.49890608503489
 30
0.0
 11
232.2740416341671
 21
89.49890608503489
 31
0.0
  0
LINE
  5
870
330
2
100
AcDbEntity
  8
0
100
AcDbLine
 10
231.3203376341671
 20
90.32068408503489
 30
0.0
 11
231.6090486341672
 21
89.49890608503489
 31
0.0
  0
LINE
  5
871
330
2
100
AcDbEntity
  8
0
100
AcDbLine
 10
229.6593416341672
 20
90.32068408503489
 30
0.0
 11
231.3203376341671
 21
90.32068408503489
 31
0.0
  0
LINE
  5
872
330
2
100
AcDbEntity
  8
0
100
AcDbLine
 10
235.9346406341671
 20
90.32068408503489
 30
0.0
 11
235.9346406341671
 21
82.92469108503487
 31
0.0
  0
ARC
  5
873
330
2
100
AcDbEntity
  8
0
100
AcDbCircle
 10
239.2840366341672
 20
88.93860008503489
 30
0.0
 40
1.557193
100
AcDbArc
 50
277.4147260000004
 51
62.41184999999839
  0
LINE
  5
874
330
2
100
AcDbEntity
  8
0
100
AcDbLine
 10
237.0303436341671
 20
90.32068408503489
 30
0.0
 11
237.0303436341671
 21
87.39442908503489
 31
0.0
  0
ARC
  5
875
330
2
100
AcDbEntity
  8
0
100
AcDbCircle
 10
239.2840366341672
 20
88.93860008503489
 30
0.0
 40
2.55249
100
AcDbArc
 50
286.0181270000003
 51
90.00351000000046
  0
LINE
  5
876
330
2
100
AcDbEntity
  8
0
100
AcDbLine
 10
237.0303436341671
 20
87.39442908503489
 30
0.0
 11
239.4850406341672
 21
87.39442908503489
 31
0.0
  0
LINE
  5
877
330
2
100
AcDbEntity
  8
0
100
AcDbLine
 10
237.0303436341671
 20
86.39856808503489
 30
0.0
 11
239.0708406341672
 21
86.39856808503489
 31
0.0
  0
LINE
  5
878
330
2
100
AcDbEntity
  8
0
100
AcDbLine
 10
237.0303436341671
 20
86.39856808503489
 30
0.0
 11
237.0303436341671
 21
82.92469108503487
 31
0.0
  0
LINE
  5
879
330
2
100
AcDbEntity
  8
0
100
AcDbLine
 10
235.4615416341671
 20
82.92469108503487
 30
0.0
 11
235.9346406341671
 21
82.92469108503487
 31
0.0
  0
LINE
  5
87A
330
2
100
AcDbEntity
  8
0
100
AcDbLine
 10
237.0303436341671
 20
82.92469108503487
 30
0.0
 11
237.4661506341672
 21
82.92469108503487
 31
0.0
  0
LINE
  5
87B
330
2
100
AcDbEntity
  8
0
100
AcDbLine
 10
237.4661506341672
 20
81.92859008503489
 30
0.0
 11
235.4615416341671
 21
81.92859008503489
 31
0.0
  0
LINE
  5
87C
330
2
100
AcDbEntity
  8
0
100
AcDbLine
 10
237.4661506341672
 20
82.92469108503487
 30
0.0
 11
237.4661506341672
 21
81.92859008503489
 31
0.0
  0
LINE
  5
87D
330
2
100
AcDbEntity
  8
0
100
AcDbLine
 10
235.4615416341671
 20
82.92469108503487
 30
0.0
 11
235.4615416341671
 21
81.92859008503489
 31
0.0
  0
LINE
  5
87E
330
2
100
AcDbEntity
  8
0
100
AcDbLine
 10
241.8365416341671
 20
82.92469108503487
 30
0.0
 11
241.8365416341671
 21
81.92859008503489
 31
0.0
  0
LINE
  5
87F
330
2
100
AcDbEntity
  8
0
100
AcDbLine
 10
239.9884436341671
 20
86.48521908503488
 30
0.0
 11
241.5682466341672
 21
82.92469108503487
 31
0.0
  0
LINE
  5
880
330
2
100
AcDbEntity
  8
0
100
AcDbLine
 10
239.0708406341672
 20
86.39856808503489
 30
0.0
 11
240.5659426341671
 21
82.92469108503487
 31
0.0
  0
LINE
  5
881
330
2
100
AcDbEntity
  8
0
100
AcDbLine
 10
240.3673496341671
 20
82.92469108503487
 30
0.0
 11
240.5659426341671
 21
82.92469108503487
 31
0.0
  0
LINE
  5
882
330
2
100
AcDbEntity
  8
0
100
AcDbLine
 10
240.3673496341671
 20
82.92469108503487
 30
0.0
 11
240.3673496341671
 21
81.92859008503489
 31
0.0
  0
LINE
  5
883
330
2
100
AcDbEntity
  8
0
100
AcDbLine
 10
241.5682466341672
 20
82.92469108503487
 30
0.0
 11
241.8365416341671
 21
82.92469108503487
 31
0.0
  0
LINE
  5
884
330
2
100
AcDbEntity
  8
0
100
AcDbLine
 10
240.3673496341671
 20
81.92859008503489
 30
0.0
 11
241.8365416341671
 21
81.92859008503489
 31
0.0
  0
LINE
  5
885
330
2
100
AcDbEntity
  8
0
100
AcDbLine
 10
235.4615416341671
 20
91.49109408503489
 30
0.0
 11
239.2840366341672
 21
91.49109408503489
 31
0.0
  0
LINE
  5
886
330
2
100
AcDbEntity
  8
0
100
AcDbLine
 10
237.0303436341671
 20
90.32068408503489
 30
0.0
 11
240.0052436341673
 21
90.31874608503489
 31
0.0
  0
LINE
  5
887
330
2
100
AcDbEntity
  8
0
100
AcDbLine
 10
235.4615416341671
 20
91.49109408503489
 30
0.0
 11
235.4615416341671
 21
90.32068408503489
 31
0.0
  0
LINE
  5
888
330
2
100
AcDbEntity
  8
0
100
AcDbLine
 10
235.4615416341671
 20
90.32068408503489
 30
0.0
 11
235.9346406341671
 21
90.32068408503489
 31
0.0
  0
LINE
  5
889
330
2
100
AcDbEntity
  8
CENTER
100
AcDbLine
 10
269.0865416341671
 20
53.12858708503489
 30
0.0
 11
269.0865416341671
 21
66.7285930850349
 31
0.0
  0
LINE
  5
88A
330
2
100
AcDbEntity
  8
0
100
AcDbLine
 10
278.0632416341672
 20
59.28202908503489
 30
0.0
 11
279.5865416341671
 21
80.42859008503489
 31
0.0
  0
ARC
  5
88B
330
2
100
AcDbEntity
  8
0
100
AcDbCircle
 10
269.0865416341671
 20
59.9285900850349
 30
0.0
 40
9.0
100
AcDbArc
 50
85.87983700000018
 51
180.0
  0
LINE
  5
88C
330
2
100
AcDbEntity
  8
CENTER
100
AcDbLine
 10
262.2865386341671
 20
59.9285900850349
 30
0.0
 11
275.8865446341672
 21
59.9285900850349
 31
0.0
  0
ARC
  5
88D
330
2
100
AcDbEntity
  8
0
100
AcDbCircle
 10
269.0865416341671
 20
59.9285900850349
 30
0.0
 40
9.0
100
AcDbArc
 50
270.0
 51
355.879913
  0
ARC
  5
88E
330
2
100
AcDbEntity
  8
0
100
AcDbCircle
 10
255.0865416341671
 20
59.9285900850349
 30
0.0
 40
5.0
100
AcDbArc
 50
270.0
 51
0.0
  0
CIRCLE
  5
88F
330
2
100
AcDbEntity
  8
0
100
AcDbCircle
 10
269.0865416341671
 20
59.9285900850349
 30
0.0
 40
4.25
  0
ARC
  5
890
330
2
100
AcDbEntity
  8
0
100
AcDbCircle
 10
270.0924476341671
 20
73.89241008503489
 30
0.0
 40
5.0
100
AcDbArc
 50
265.8797909999982
 51
355.8794859999999
  0
LINE
  5
891
330
2
100
AcDbEntity
  8
0
100
AcDbLine
 10
275.0794466341671
 20
73.5331700850349
 30
0.0
 11
277.0866486341672
 21
94.2365540850349
 31
0.0
  0
LINE
  5
892
330
2
100
AcDbEntity
  8
HIDS
100
AcDbLine
 10
234.5865416341671
 20
121.9286130850348
 30
0.0
 11
234.5865416341671
 21
127.9286130850348
 31
0.0
  0
LINE
  5
893
330
2
100
AcDbEntity
  8
HIDS
100
AcDbLine
 10
240.5865416341671
 20
121.9286280850348
 30
0.0
 11
240.5865416341671
 21
127.9286280850348
 31
0.0
  0
ARC
  5
894
330
2
100
AcDbEntity
  8
HIDS
100
AcDbCircle
 10
229.0865416341671
 20
124.9285900850348
 30
0.0
 40
9.0
100
AcDbArc
 50
19.47120999999928
 51
340.5288089999991
  0
LINE
  5
895
330
2
100
AcDbEntity
  8
HIDS
100
AcDbLine
 10
240.5865416341671
 20
121.9286280850348
 30
0.0
 11
234.5865416341671
 21
121.9286130850348
 31
0.0
  0
LINE
  5
896
330
2
100
AcDbEntity
  8
HIDS
100
AcDbLine
 10
240.5865416341671
 20
127.9286280850348
 30
0.0
 11
234.5865416341671
 21
127.9286130850348
 31
0.0
  0
LINE
  5
897
330
2
100
AcDbEntity
  8
0
100
AcDbLine
 10
275.0794466341671
 20
146.3240520850348
 30
0.0
 11
277.0865416341671
 21
125.6209500850348
 31
0.0
  0
ARC
  5
898
330
2
100
AcDbEntity
  8
0
100
AcDbCircle
 10
270.0924476341671
 20
145.9647690850348
 30
0.0
 40
5.0
100
AcDbArc
 50
4.12054400000038
 51
94.1202009999991
  0
LINE
  5
899
330
2
100
AcDbEntity
  8
CENTER
100
AcDbLine
 10
262.2865386341671
 20
159.9285900850348
 30
0.0
 11
275.8865446341672
 21
159.9285900850348
 31
0.0
  0
ARC
  5
89A
330
2
100
AcDbEntity
  8
0
100
AcDbCircle
 10
269.0865416341671
 20
159.9285900850348
 30
0.0
 40
9.0
100
AcDbArc
 50
4.120065000000226
 51
90.0
  0
ARC
  5
89B
330
2
100
AcDbEntity
  8
0
100
AcDbCircle
 10
255.0865416341671
 20
159.9285900850348
 30
0.0
 40
5.0
100
AcDbArc
 50
0.0
 51
90.0
  0
TEXT
  5
8B3
330
2
100
AcDbEntity
  8
TITLE
100
AcDbText
 10
320.0208762387087
 20
306.3249786278378
 30
0.0
 40
5.0
  1
HFMN-18L-10~240-T90T
 41
0.8
100
AcDbText
  0
TEXT
  5
8B4
330
2
100
AcDbEntity
  8
TITLE
100
AcDbText
 10
320.0208762387087
 20
298.3249786278378
 30
0.0
 40
5.0
  1
HFMN-18L-10~240-T90WT
 41
0.8
100
AcDbText
  0
TEXT
  5
8B5
330
2
100
AcDbEntity
  8
TITLE
100
AcDbText
 10
320.0208762387087
 20
314.3249786278378
 30
0.0
 40
5.0
  1
HFMN-18L-10~240-T60WT
 41
0.8
100
AcDbText
  0
TEXT
  5
8B6
330
2
100
AcDbEntity
  8
TITLE
100
AcDbText
 10
320.0208762387087
 20
322.3249786278378
 30
0.0
 40
5.0
  1
HFMN-18L-80~240-T60T
 41
0.8
100
AcDbText
  0
TEXT
  5
8B7
330
2
100
AcDbEntity
  8
TITLE
100
AcDbText
 10
320.0208762387087
 20
330.3249786278378
 30
0.0
 40
5.0
  1
HFMN-18L-160~240-T40WT
 41
0.8
100
AcDbText
  0
TEXT
  5
8B8
330
2
100
AcDbEntity
  8
TITLE
100
AcDbText
 10
320.0208762387087
 20
338.3249786278379
 30
0.0
 40
5.0
  1
HFMN-18L-160~240-T40T
 41
0.8
100
AcDbText
  0
TEXT
  5
8B9
330
2
100
AcDbEntity
  8
TITLE
100
AcDbText
 10
412.3514076151634
 20
314.3249786278378
 30
0.0
 40
5.0
  1
HFMN-18L-10~240-S60WT
 41
0.8
100
AcDbText
  0
TEXT
  5
8BA
330
2
100
AcDbEntity
  8
TITLE
100
AcDbText
 10
412.3514076151634
 20
298.3249786278378
 30
0.0
 40
5.0
  1
HFMN-18L-10~240-S90WT
 41
0.8
100
AcDbText
  0
TEXT
  5
8BB
330
2
100
AcDbEntity
  8
TITLE
100
AcDbText
 10
412.3514076151634
 20
306.3249786278378
 30
0.0
 40
5.0
  1
HFMN-18L-10~240-S90T
 41
0.8
100
AcDbText
  0
TEXT
  5
8BC
330
2
100
AcDbEntity
  8
TITLE
100
AcDbText
 10
412.3514076151634
 20
330.3249786278378
 30
0.0
 40
5.0
  1
HFMN-18L-160~240-S40WT
 41
0.8
100
AcDbText
  0
TEXT
  5
8BD
330
2
100
AcDbEntity
  8
TITLE
100
AcDbText
 10
412.3514076151634
 20
322.3249786278378
 30
0.0
 40
5.0
  1
HFMN-18L-10~240-S60T
 41
0.8
100
AcDbText
  0
TEXT
  5
8BE
330
2
100
AcDbEntity
  8
TITLE
100
AcDbText
 10
412.3514076151634
 20
338.3249786278379
 30
0.0
 40
5.0
  1
HFMN-18L-160~240-S40T
 41
0.8
100
AcDbText
  0
LINE
  5
2074
330
2
100
AcDbEntity
  8
0
100
AcDbLine
 10
701.349718946137
 20
163.2285830850348
 30
0.0
 11
697.849718946137
 21
161.7285830850348
 31
0.0
  0
LINE
  5
2075
330
2
100
AcDbEntity
  8
0
100
AcDbLine
 10
701.349703946137
 20
171.2285830850348
 30
0.0
 11
697.849703946137
 21
172.7285830850348
 31
0.0
  0
LINE
  5
2076
330
2
100
AcDbEntity
  8
CENTER
100
AcDbLine
 10
703.7934679461369
 20
167.2285830850348
 30
0.0
 11
641.8974089823989
 21
167.2285830850348
 31
0.0
  0
LINE
  5
209D
330
2
100
AcDbEntity
  8
0
100
AcDbLine
 10
145.6866326341672
 20
298.9347947276048
 30
0.0
 11
145.6866326341672
 21
339.0348007276048
 31
0.0
  0
LINE
  5
209E
330
2
100
AcDbEntity
  8
0
100
AcDbLine
 10
147.0864276341673
 20
344.5348007276048
 30
0.0
 11
147.0864276341671
 21
298.5348007276048
 31
0.0
  0
LINE
  5
209F
330
2
100
AcDbEntity
  8
0
100
AcDbLine
 10
98.48652163416728
 20
344.1347917276048
 30
0.0
 11
98.48652863416726
 21
304.0348007276048
 31
0.0
  0
LINE
  5
20A0
330
2
100
AcDbEntity
  8
CENTER
100
AcDbLine
 10
122.0865346341672
 20
351.9240266717126
 30
0.0
 11
122.0865346341672
 21
290.7848007276048
 31
0.0
  0
LINE
  5
20A1
330
2
100
AcDbEntity
  8
0
100
AcDbLine
 10
97.08652763416729
 20
344.5348007276048
 30
0.0
 11
97.08652763416729
 21
298.5348007276048
 31
0.0
  0
LINE
  5
20A2
330
2
100
AcDbEntity
  8
CENTER
100
AcDbLine
 10
362.1927991364226
 20
167.2285910850349
 30
0.0
 11
422.2800130988397
 21
167.2285910850349
 31
0.0
  0
LINE
  5
20A4
330
2
100
AcDbEntity
  8
0
100
AcDbLine
 10
367.2364061176311
 20
175.7285910850349
 30
0.0
 11
409.7363911176312
 21
175.7285910850349
 31
0.0
  0
LINE
  5
20A5
330
2
100
AcDbEntity
  8
0
100
AcDbLine
 10
368.2364061176311
 20
176.7285910850349
 30
0.0
 11
412.398497301605
 21
176.7285910850348
 31
0.0
  0
LINE
  5
20CC
330
2
100
AcDbEntity
  8
0
100
AcDbLine
 10
367.2364061176311
 20
175.7285910850349
 30
0.0
 11
367.2364061176312
 21
164.0105471450495
 31
0.0
  0
LINE
  5
20D4
330
2
100
AcDbEntity
  8
0
100
AcDbLine
 10
368.2364061176311
 20
176.7285910850349
 30
0.0
 11
367.2364061176311
 21
175.7285910850349
 31
0.0
  0
LINE
  5
20D5
330
2
100
AcDbEntity
  8
0
100
AcDbLine
 10
99.08652763416728
 20
296.5348007276048
 30
0.0
 11
145.0864276341671
 21
296.5348007276048
 31
0.0
  0
LINE
  5
20D6
330
2
100
AcDbEntity
  8
0
100
AcDbLine
 10
144.6866326341672
 20
297.9347947276048
 30
0.0
 11
104.5865276341672
 21
297.9347947276048
 31
0.0
  0
LINE
  5
20D7
330
2
100
AcDbEntity
  8
0
100
AcDbLine
 10
104.5865276341672
 20
300.0348007276048
 30
0.0
 11
104.5865276341672
 21
296.5349997276049
 31
0.0
  0
LINE
  5
20D8
330
2
100
AcDbEntity
  8
0
100
AcDbLine
 10
97.08652763416729
 20
298.5348007276048
 30
0.0
 11
99.08652763416728
 21
296.5348007276048
 31
0.0
  0
LINE
  5
20D9
330
2
100
AcDbEntity
  8
0
100
AcDbLine
 10
97.08652763416729
 20
298.5348007276048
 30
0.0
 11
99.08652763416728
 21
296.5348007276048
 31
0.0
  0
CIRCLE
  5
20DA
330
2
100
AcDbEntity
  8
0
100
AcDbCircle
 10
100.5865576341672
 20
300.0348007276048
 30
0.0
 40
3.500000000000028
  0
ARC
  5
20DB
330
2
100
AcDbEntity
  8
0
100
AcDbCircle
 10
100.5865576341672
 20
300.0348007276048
 30
0.0
 40
4.0
100
AcDbArc
 50
0.0
 51
90.0
  0
ARC
  5
20DC
330
2
100
AcDbEntity
  8
0
100
AcDbCircle
 10
100.5865576341672
 20
300.0348007276048
 30
0.0
 40
2.049999999999998
100
AcDbArc
 50
261.9380399160181
 51
270.0
  0
ARC
  5
20DD
330
2
100
AcDbEntity
  8
0
100
AcDbCircle
 10
100.5865576341672
 20
300.0348007276048
 30
0.0
 40
2.049999999999998
100
AcDbArc
 50
270.0
 51
278.0619600839818
  0
ARC
  5
20DE
330
2
100
AcDbEntity
  8
0
100
AcDbCircle
 10
100.5865576341672
 20
300.0348007276048
 30
0.0
 40
2.049999999999998
100
AcDbArc
 50
90.0
 51
98.06196008398188
  0
ARC
  5
20DF
330
2
100
AcDbEntity
  8
0
100
AcDbCircle
 10
100.5865576341672
 20
300.0348007276048
 30
0.0
 40
2.049999999999998
100
AcDbArc
 50
0.0
 51
8.061960083981649
  0
ARC
  5
20E0
330
2
100
AcDbEntity
  8
0
100
AcDbCircle
 10
100.5865576341672
 20
300.0348007276048
 30
0.0
 40
2.049999999999998
100
AcDbArc
 50
81.93803991601813
 51
90.0
  0
ARC
  5
20E1
330
2
100
AcDbEntity
  8
0
100
AcDbCircle
 10
102.6162576341673
 20
298.0051007276049
 30
0.0
 40
1.742199999999999
100
AcDbArc
 50
89.99869033450025
 51
180.0013096654997
  0
ARC
  5
20E2
330
2
100
AcDbEntity
  8
0
100
AcDbCircle
 10
100.5865576341672
 20
300.0348007276048
 30
0.0
 40
2.049999999999998
100
AcDbArc
 50
351.9380399160183
 51
0.0
  0
ARC
  5
20E3
330
2
100
AcDbEntity
  8
0
100
AcDbCircle
 10
102.6162576341673
 20
302.0645007276048
 30
0.0
 40
1.742199999999999
100
AcDbArc
 50
179.9986903345002
 51
270.0013096654932
  0
ARC
  5
20E4
330
2
100
AcDbEntity
  8
0
100
AcDbCircle
 10
100.5865576341672
 20
300.0348007276048
 30
0.0
 40
2.049999999999998
100
AcDbArc
 50
171.9380399160183
 51
180.0
  0
ARC
  5
20E5
330
2
100
AcDbEntity
  8
0
100
AcDbCircle
 10
100.5865576341672
 20
300.0348007276048
 30
0.0
 40
2.049999999999998
100
AcDbArc
 50
180.0
 51
188.0619600839816
  0
LINE
  5
20E6
330
2
100
AcDbEntity
  8
0
100
AcDbLine
 10
100.5865576341673
 20
304.0348007276048
 30
0.0
 11
97.08655763416732
 21
304.0348007276048
 31
0.0
  0
ARC
  5
20E7
330
2
100
AcDbEntity
  8
0
100
AcDbCircle
 10
98.55685763416728
 20
298.0051007276049
 30
0.0
 40
1.742199999999999
100
AcDbArc
 50
359.9986903345002
 51
90.00130966549322
  0
ARC
  5
20E8
330
2
100
AcDbEntity
  8
0
100
AcDbCircle
 10
98.55685763416728
 20
302.0645007276048
 30
0.0
 40
1.742199999999999
100
AcDbArc
 50
269.9986903345002
 51
0.0013096654997424
  0
LINE
  5
20E9
330
2
100
AcDbEntity
  8
0
100
AcDbLine
 10
147.0864276341671
 20
298.5348007276048
 30
0.0
 11
145.0864276341671
 21
296.5348007276048
 31
0.0
  0
LINE
  5
20EA
330
2
100
AcDbEntity
  8
0
100
AcDbLine
 10
147.0864276341671
 20
298.5348007276048
 30
0.0
 11
145.0864276341671
 21
296.5348007276048
 31
0.0
  0
LINE
  5
20EB
330
2
100
AcDbEntity
  8
0
100
AcDbLine
 10
147.0866266341672
 20
298.5348007276048
 30
0.0
 11
145.0864276341671
 21
296.5348007276048
 31
0.0
  0
LINE
  5
20EC
330
2
100
AcDbEntity
  8
0
100
AcDbLine
 10
144.6866326341672
 20
297.9347947276048
 30
0.0
 11
145.6866326341672
 21
298.9347947276048
 31
0.0
  0
LINE
  5
20ED
330
2
100
AcDbEntity
  8
0
100
AcDbLine
 10
417.2363911176312
 20
175.7285910850348
 30
0.0
 11
417.2363911176312
 21
163.137992616808
 31
0.0
  0
LINE
  5
20F1
330
2
100
AcDbEntity
  8
0
100
AcDbLine
 10
409.7363911176312
 20
174.2285910850348
 30
0.0
 11
417.2363911176312
 21
174.2285910850349
 31
0.0
  0
ARC
  5
20F2
330
2
100
AcDbEntity
  8
0
100
AcDbCircle
 10
411.6293953640382
 20
175.2347038092812
 30
0.0
 40
1.3
100
AcDbArc
 50
105.8808500082775
 51
174.9999999999999
  0
LINE
  5
20F3
330
2
100
AcDbEntity
  8
0
100
AcDbLine
 10
409.7363911176312
 20
176.2285910850348
 30
0.0
 11
410.7914287280108
 21
176.2285910850348
 31
0.0
  0
LINE
  5
20F4
330
2
100
AcDbEntity
  8
0
100
AcDbLine
 10
409.7363911176312
 20
174.2285910850348
 30
0.0
 11
409.7363911176312
 21
176.2285910850349
 31
0.0
  0
LINE
  5
20F5
330
2
100
AcDbEntity
  8
0
100
AcDbLine
 10
409.2363911176311
 20
176.7285910850348
 30
0.0
 11
409.7363911176312
 21
176.2285910850348
 31
0.0
  0
LINE
  5
20F6
330
2
100
AcDbEntity
  8
0
100
AcDbLine
 10
410.2364061176311
 20
174.2285910850349
 30
0.0
 11
410.3343422565191
 21
175.3480062748532
 31
0.0
  0
LINE
  5
20F7
330
2
100
AcDbEntity
  8
0
100
AcDbLine
 10
416.2363911176312
 20
176.7285910850348
 30
0.0
 11
417.2363911176312
 21
175.7285910850348
 31
0.0
  0
ARC
  5
20F8
330
2
100
AcDbEntity
  8
0
100
AcDbCircle
 10
415.8434168712241
 20
175.2347038092812
 30
0.0
 40
1.3
100
AcDbArc
 50
5.000000000000026
 51
74.11914999172243
  0
LINE
  5
20F9
330
2
100
AcDbEntity
  8
0
100
AcDbLine
 10
417.2364061176311
 20
174.2285910850349
 30
0.0
 11
417.1384699787433
 21
175.3480062748532
 31
0.0
  0
SPLINE
  5
20FA
330
2
100
AcDbEntity
  8
0
100
AcDbSpline
210
0.0
220
0.0
230
1.0
 70
     8
 71
     3
 72
    11
 73
     7
 74
     0
 42
0.0000000001
 43
0.0000000001
 40
0.0
 40
0.0
 40
0.0
 40
0.0
 40
0.4601364636755307
 40
1.04988694485363
 40
1.713742833862792
 40
2.320347933405154
 40
2.320347933405154
 40
2.320347933405154
 40
2.320347933405179
 10
413.4489061171762
 20
175.3115910850349
 30
0.0
 10
413.4264884600683
 20
175.4666145247147
 30
0.0
 10
413.3753384048351
 20
175.8203293426323
 30
0.0
 10
412.9394532433015
 20
176.245057014234
 30
0.0
 10
412.334402528294
 20
176.4642441941998
 30
0.0
 10
411.9092179041182
 20
176.3952528945891
 30
0.0
 10
411.7066662944671
 20
176.3810326224125
 30
0.0
  0
SPLINE
  5
20FB
330
2
100
AcDbEntity
  8
0
100
AcDbSpline
210
0.0
220
0.0
230
1.0
 70
     8
 71
     3
 72
    11
 73
     7
 74
     0
 42
0.0000000001
 43
0.0000000001
 40
0.0
 40
0.0
 40
0.0
 40
0.0
 40
0.4601364636755307
 40
1.04988694485363
 40
1.713742833862792
 40
2.320347933405154
 40
2.320347933405154
 40
2.320347933405154
 40
2.320347933405179
 10
414.0239061180863
 20
175.3115910850349
 30
0.0
 10
414.0463237751941
 20
175.4666145247147
 30
0.0
 10
414.0974738304274
 20
175.8203293426323
 30
0.0
 10
414.5333589919609
 20
176.245057014234
 30
0.0
 10
415.1384097069684
 20
176.4642441941998
 30
0.0
 10
415.5635943311442
 20
176.3952528945891
 30
0.0
 10
415.7661459407953
 20
176.3810326224125
 30
0.0
  0
LINE
  5
20FC
330
2
100
AcDbEntity
  8
0
100
AcDbLine
 10
414.0239061180863
 20
175.3115910850349
 30
0.0
 11
413.4489061171762
 21
175.3115910850349
 31
0.0
  0
LINE
  5
20FD
330
2
100
AcDbEntity
  8
0
100
AcDbLine
 10
411.7066662944671
 20
176.3810326224125
 30
0.0
 11
411.6864061176312
 21
176.5920093678741
 31
0.0
  0
LINE
  5
20FE
330
2
100
AcDbEntity
  8
0
100
AcDbLine
 10
415.7661459407953
 20
176.3810326224125
 30
0.0
 11
415.7864061176312
 21
176.5920093678741
 31
0.0
  0
ARC
  5
20FF
330
2
100
AcDbEntity
  8
0
100
AcDbCircle
 10
413.7364061176311
 20
167.8285910850348
 30
0.0
 40
9.0
100
AcDbArc
 50
74.11914999172243
 51
105.8808500082775
  0
LINE
  5
2100
330
2
100
AcDbEntity
  8
0
100
AcDbLine
 10
415.0743149336574
 20
176.7285910850348
 30
0.0
 11
416.2363911176312
 21
176.7285910850348
 31
0.0
  0
LINE
  5
2101
330
2
100
AcDbEntity
  8
CENTER
100
AcDbLine
 10
670.849711946137
 20
141.0348840850348
 30
0.0
 11
670.849711946137
 21
182.1160830850348
 31
0.0
  0
LINE
  5
2102
330
2
100
AcDbEntity
  8
0
100
AcDbLine
 10
695.849718946137
 20
175.7285830850348
 30
0.0
 11
695.849718946137
 21
147.7285850850348
 31
0.0
  0
LINE
  5
2103
330
2
100
AcDbEntity
  8
0
100
AcDbLine
 10
645.849711946137
 20
175.7285830850348
 30
0.0
 11
645.849711946137
 21
147.7285850850348
 31
0.0
  0
LINE
  5
2104
330
2
100
AcDbEntity
  8
0
100
AcDbLine
 10
694.349718946137
 20
145.7285850850348
 30
0.0
 11
647.8497119461369
 21
145.7285850850348
 31
0.0
  0
LINE
  5
2105
330
2
100
AcDbEntity
  8
0
100
AcDbLine
 10
695.849718946137
 20
147.7285850850348
 30
0.0
 11
645.849711946137
 21
147.7285850850348
 31
0.0
  0
LINE
  5
2107
330
2
100
AcDbEntity
  8
0
100
AcDbLine
 10
648.3497119461369
 20
145.7285850850348
 30
0.0
 11
648.3497119461369
 21
144.2285850850348
 31
0.0
  0
LINE
  5
2108
330
2
100
AcDbEntity
  8
0
100
AcDbLine
 10
647.8497119461369
 20
145.7285850850348
 30
0.0
 11
645.849711946137
 21
147.7285850850348
 31
0.0
  0
LINE
  5
2109
330
2
100
AcDbEntity
  8
0
100
AcDbLine
 10
694.349718946137
 20
145.7285850850348
 30
0.0
 11
694.349718946137
 21
144.2285850850348
 31
0.0
  0
LINE
  5
210A
330
2
100
AcDbEntity
  8
0
100
AcDbLine
 10
695.849718946137
 20
147.7285850850348
 30
0.0
 11
693.849718946137
 21
145.7285850850348
 31
0.0
  0
LINE
  5
210B
330
2
100
AcDbEntity
  8
0
100
AcDbLine
 10
697.849718946137
 20
157.7285850850348
 30
0.0
 11
645.849711946137
 21
157.7285850850348
 31
0.0
  0
LINE
  5
210C
330
2
100
AcDbEntity
  8
0
100
AcDbLine
 10
653.3497123747078
 20
175.7285830850348
 30
0.0
 11
695.8497189461369
 21
175.7285830850348
 31
0.0
  0
LINE
  5
210D
330
2
100
AcDbEntity
  8
0
100
AcDbLine
 10
650.6876207621623
 20
176.7285830850348
 30
0.0
 11
694.8497119461369
 21
176.7285830850348
 31
0.0
  0
LINE
  5
210E
330
2
100
AcDbEntity
  8
0
100
AcDbLine
 10
653.3497123747078
 20
176.2285830850347
 30
0.0
 11
652.2946893357572
 21
176.2285830850347
 31
0.0
  0
LINE
  5
210F
330
2
100
AcDbEntity
  8
0
100
AcDbLine
 10
653.3497123747078
 20
174.2285830850347
 30
0.0
 11
645.8497123747079
 21
174.2285830850348
 31
0.0
  0
SPLINE
  5
2110
330
2
100
AcDbEntity
  8
0
100
AcDbSpline
210
0.0
220
0.0
230
1.0
 70
     8
 71
     3
 72
    11
 73
     7
 74
     0
 42
0.0000000001
 43
0.0000000001
 40
0.0
 40
0.0
 40
0.0
 40
0.0
 40
0.4601364636755307
 40
1.04988694485363
 40
1.713742833862792
 40
2.320347933405154
 40
2.320347933405154
 40
2.320347933405154
 40
2.320347933405179
 10
649.637211946592
 20
175.3115830850347
 30
0.0
 10
649.6596296036998
 20
175.4666065247146
 30
0.0
 10
649.7107796589332
 20
175.8203213426322
 30
0.0
 10
650.1466648204667
 20
176.2450490142338
 30
0.0
 10
650.7517155354742
 20
176.4642361941997
 30
0.0
 10
651.1769001596499
 20
176.395244894589
 30
0.0
 10
651.379451769301
 20
176.3810246224123
 30
0.0
  0
LINE
  5
2111
330
2
100
AcDbEntity
  8
0
100
AcDbLine
 10
649.637211946592
 20
175.3115830850347
 30
0.0
 11
649.0622119456819
 21
175.3115830850347
 31
0.0
  0
LINE
  5
2112
330
2
100
AcDbEntity
  8
0
100
AcDbLine
 10
651.379451769301
 20
176.3810246224123
 30
0.0
 11
651.399711946137
 21
176.5920013678739
 31
0.0
  0
ARC
  5
2113
330
2
100
AcDbEntity
  8
0
100
AcDbCircle
 10
651.4567226997298
 20
175.2346958092811
 30
0.0
 40
1.3
100
AcDbArc
 50
5.000000000000026
 51
74.11914999172243
  0
LINE
  5
2114
330
2
100
AcDbEntity
  8
0
100
AcDbLine
 10
652.8497119461369
 20
174.2285830850348
 30
0.0
 11
652.751775807249
 21
175.347998274853
 31
0.0
  0
LINE
  5
2115
330
2
100
AcDbEntity
  8
0
100
AcDbLine
 10
646.8497119461369
 20
176.7285830850348
 30
0.0
 11
648.0118031301116
 21
176.7285830850348
 31
0.0
  0
LINE
  5
2116
330
2
100
AcDbEntity
  8
0
100
AcDbLine
 10
645.849711946137
 20
175.7285830850348
 30
0.0
 11
646.8497119461369
 21
176.7285830850348
 31
0.0
  0
ARC
  5
2117
330
2
100
AcDbEntity
  8
0
100
AcDbCircle
 10
647.2427011925439
 20
175.2346958092811
 30
0.0
 40
1.3
100
AcDbArc
 50
105.8808500082775
 51
174.9999999999999
  0
LINE
  5
2118
330
2
100
AcDbEntity
  8
0
100
AcDbLine
 10
645.849711946137
 20
174.2285830850348
 30
0.0
 11
645.9476480850248
 21
175.347998274853
 31
0.0
  0
LINE
  5
2119
330
2
100
AcDbEntity
  8
0
100
AcDbLine
 10
647.3199721229729
 20
176.3810246224123
 30
0.0
 11
647.299711946137
 21
176.5920013678739
 31
0.0
  0
SPLINE
  5
211A
330
2
100
AcDbEntity
  8
0
100
AcDbSpline
210
0.0
220
0.0
230
1.0
 70
     8
 71
     3
 72
    11
 73
     7
 74
     0
 42
0.0000000001
 43
0.0000000001
 40
0.0
 40
0.0
 40
0.0
 40
0.0
 40
0.4601364636755307
 40
1.04988694485363
 40
1.713742833862792
 40
2.320347933405154
 40
2.320347933405154
 40
2.320347933405154
 40
2.320347933405179
 10
649.0622119456819
 20
175.3115830850347
 30
0.0
 10
649.039794288574
 20
175.4666065247146
 30
0.0
 10
648.9886442333409
 20
175.8203213426322
 30
0.0
 10
648.5527590718072
 20
176.2450490142338
 30
0.0
 10
647.9477083567998
 20
176.4642361941997
 30
0.0
 10
647.522523732624
 20
176.395244894589
 30
0.0
 10
647.3199721229729
 20
176.3810246224123
 30
0.0
  0
ARC
  5
211B
330
2
100
AcDbEntity
  8
0
100
AcDbCircle
 10
649.3497119461369
 20
167.8285830850347
 30
0.0
 40
9.0
100
AcDbArc
 50
74.11914999172243
 51
105.8808500082775
  0
LINE
  5
211C
330
2
100
AcDbEntity
  8
0
100
AcDbLine
 10
653.3497123747078
 20
174.2285830850347
 30
0.0
 11
653.3497123747078
 21
176.2285830850348
 31
0.0
  0
LINE
  5
211D
330
2
100
AcDbEntity
  8
0
100
AcDbLine
 10
653.8497123747078
 20
176.7285830850347
 30
0.0
 11
653.3497123747078
 21
176.2285830850347
 31
0.0
  0
LINE
  5
211E
330
2
100
AcDbEntity
  8
0
100
AcDbLine
 10
697.849703946137
 20
173.7285830850348
 30
0.0
 11
697.849718946137
 21
157.7285850850348
 31
0.0
  0
LINE
  5
211F
330
2
100
AcDbEntity
  8
0
100
AcDbLine
 10
694.8497189461369
 20
176.7285830850348
 30
0.0
 11
695.8497189461369
 21
175.7285830850348
 31
0.0
  0
LINE
  5
2120
330
2
100
AcDbEntity
  8
0
100
AcDbLine
 10
696.849718946137
 20
174.7285830850348
 30
0.0
 11
695.849718946137
 21
174.7285830850348
 31
0.0
  0
ARC
  5
2121
330
2
100
AcDbEntity
  8
0
100
AcDbCircle
 10
696.8497039461369
 20
173.7285830850348
 30
0.0
 40
1.0
100
AcDbArc
 50
0.0
 51
90.0
  0
LINE
  5
2122
330
2
100
AcDbEntity
  8
0
100
AcDbLine
 10
99.48652863416725
 20
345.1347917276048
 30
0.0
 11
139.5864276341673
 21
345.1347917276048
 31
0.0
  0
LINE
  5
2123
330
2
100
AcDbEntity
  8
0
100
AcDbLine
 10
99.08652763416728
 20
346.5348007276048
 30
0.0
 11
145.0864276341673
 21
346.5348007276048
 31
0.0
  0
ARC
  5
2125
330
2
100
AcDbEntity
  8
0
100
AcDbCircle
 10
96.08654263416724
 20
328.0348007276048
 30
0.0
 40
1.0
100
AcDbArc
 50
90.0
 51
180.0
  0
ARC
  5
2126
330
2
100
AcDbEntity
  8
0
100
AcDbCircle
 10
96.08652763416717
 20
315.0348007276048
 30
0.0
 40
1.0
100
AcDbArc
 50
180.0
 51
270.0
  0
LINE
  5
2127
330
2
100
AcDbEntity
  8
0
100
AcDbLine
 10
95.08652763416728
 20
315.0348007276048
 30
0.0
 11
95.08652763416728
 21
328.0348007276048
 31
0.0
  0
LINE
  5
2128
330
2
100
AcDbEntity
  8
0
100
AcDbLine
 10
91.58652763416728
 20
323.5348007276048
 30
0.0
 11
91.58652763416728
 21
319.5348007276048
 31
0.0
  0
LINE
  5
2129
330
2
100
AcDbEntity
  8
0
100
AcDbLine
 10
95.08652763416728
 20
316.0348007276049
 30
0.0
 11
91.58652763416728
 21
319.5348007276048
 31
0.0
  0
LINE
  5
212A
330
2
100
AcDbEntity
  8
0
100
AcDbLine
 10
91.58652763416728
 20
323.5348007276048
 30
0.0
 11
95.08652763416728
 21
327.0348007276048
 31
0.0
  0
LINE
  5
212B
330
2
100
AcDbEntity
  8
0
100
AcDbLine
 10
96.08652763416728
 20
314.0348007276049
 30
0.0
 11
97.08652763416729
 21
314.0348007276049
 31
0.0
  0
LINE
  5
212C
330
2
100
AcDbEntity
  8
0
100
AcDbLine
 10
96.08652763416728
 20
329.0348007276048
 30
0.0
 11
97.08652763416729
 21
329.0348007276048
 31
0.0
  0
LINE
  5
212D
330
2
100
AcDbEntity
  8
0
100
AcDbLine
 10
97.08652763416729
 20
344.5348007276048
 30
0.0
 11
99.08652763416728
 21
346.5348007276048
 31
0.0
  0
LINE
  5
212E
330
2
100
AcDbEntity
  8
0
100
AcDbLine
 10
98.48652163416728
 20
344.1347917276048
 30
0.0
 11
99.48652863416725
 21
345.1347917276048
 31
0.0
  0
ARC
  5
212F
330
2
100
AcDbEntity
  8
0
100
AcDbCircle
 10
143.5866266341672
 20
343.0348007276048
 30
0.0
 40
4.0
100
AcDbArc
 50
180.0
 51
270.0
  0
CIRCLE
  5
2130
330
2
100
AcDbEntity
  8
0
100
AcDbCircle
 10
143.5866266341672
 20
343.0348007276048
 30
0.0
 40
3.500000000000028
  0
LINE
  5
2131
330
2
100
AcDbEntity
  8
0
100
AcDbLine
 10
139.5864276341673
 20
343.0348007276048
 30
0.0
 11
139.5864276341673
 21
346.5348007276048
 31
0.0
  0
LINE
  5
2132
330
2
100
AcDbEntity
  8
0
100
AcDbLine
 10
147.0864276341673
 20
344.5348007276048
 30
0.0
 11
145.0864276341673
 21
346.5348007276048
 31
0.0
  0
LINE
  5
2133
330
2
100
AcDbEntity
  8
0
100
AcDbLine
 10
145.0864276341673
 20
346.5348007276048
 30
0.0
 11
147.0864276341673
 21
344.5348007276048
 31
0.0
  0
ARC
  5
2134
330
2
100
AcDbEntity
  8
0
100
AcDbCircle
 10
143.5866266341672
 20
343.0348007276048
 30
0.0
 40
2.049999999999998
100
AcDbArc
 50
90.0
 51
98.06196008398188
  0
ARC
  5
2135
330
2
100
AcDbEntity
  8
0
100
AcDbCircle
 10
143.5866266341672
 20
343.0348007276048
 30
0.0
 40
2.049999999999998
100
AcDbArc
 50
81.93803991601813
 51
90.0
  0
LINE
  5
2136
330
2
100
AcDbEntity
  8
0
100
AcDbLine
 10
143.5864276341673
 20
339.0348007276048
 30
0.0
 11
147.0864276341673
 21
339.0348007276048
 31
0.0
  0
ARC
  5
2137
330
2
100
AcDbEntity
  8
0
100
AcDbCircle
 10
143.5866266341672
 20
343.0348007276048
 30
0.0
 40
2.049999999999998
100
AcDbArc
 50
261.9380399160181
 51
270.0
  0
ARC
  5
2138
330
2
100
AcDbEntity
  8
0
100
AcDbCircle
 10
143.5866266341672
 20
343.0348007276048
 30
0.0
 40
2.049999999999998
100
AcDbArc
 50
270.0
 51
278.0619600839818
  0
ARC
  5
2139
330
2
100
AcDbEntity
  8
0
100
AcDbCircle
 10
143.5866266341672
 20
343.0348007276048
 30
0.0
 40
2.049999999999998
100
AcDbArc
 50
0.0
 51
8.061960083981649
  0
ARC
  5
213A
330
2
100
AcDbEntity
  8
0
100
AcDbCircle
 10
145.6163266341674
 20
341.0051007276048
 30
0.0
 40
1.742199999999999
100
AcDbArc
 50
89.99869033450025
 51
180.0013096654997
  0
ARC
  5
213B
330
2
100
AcDbEntity
  8
0
100
AcDbCircle
 10
143.5866266341672
 20
343.0348007276048
 30
0.0
 40
2.049999999999998
100
AcDbArc
 50
351.9380399160183
 51
0.0
  0
ARC
  5
213C
330
2
100
AcDbEntity
  8
0
100
AcDbCircle
 10
145.6163266341674
 20
345.0645007276047
 30
0.0
 40
1.742199999999999
100
AcDbArc
 50
179.9986903345002
 51
270.0013096654932
  0
ARC
  5
213D
330
2
100
AcDbEntity
  8
0
100
AcDbCircle
 10
143.5866266341672
 20
343.0348007276048
 30
0.0
 40
2.049999999999998
100
AcDbArc
 50
171.9380399160183
 51
180.0
  0
ARC
  5
213E
330
2
100
AcDbEntity
  8
0
100
AcDbCircle
 10
143.5866266341672
 20
343.0348007276048
 30
0.0
 40
2.049999999999998
100
AcDbArc
 50
180.0
 51
188.0619600839816
  0
ARC
  5
213F
330
2
100
AcDbEntity
  8
0
100
AcDbCircle
 10
141.5569266341673
 20
341.0051007276048
 30
0.0
 40
1.742199999999999
100
AcDbArc
 50
359.9986903345002
 51
90.00130966549322
  0
ARC
  5
2140
330
2
100
AcDbEntity
  8
0
100
AcDbCircle
 10
141.5569266341673
 20
345.0645007276047
 30
0.0
 40
1.742199999999999
100
AcDbArc
 50
269.9986903345002
 51
0.0013096654997424
  0
LINE
  5
2141
330
2
100
AcDbEntity
  8
0
100
AcDbLine
 10
701.349703946137
 20
171.2285830850348
 30
0.0
 11
701.349703946137
 21
163.2285830850348
 31
0.0
  0
LINE
  5
2183
330
2
100
AcDbEntity
  8
0
100
AcDbLine
 10
147.0865346341672
 20
175.7285910850348
 30
0.0
 11
147.0865346341672
 21
147.7285930850348
 31
0.0
  0
LINE
  5
2184
330
2
100
AcDbEntity
  8
0
100
AcDbLine
 10
95.08654263416724
 20
173.7285910850348
 30
0.0
 11
95.08652763416728
 21
157.7285930850348
 31
0.0
  0
LINE
  5
2185
330
2
100
AcDbEntity
  8
CENTER
100
AcDbLine
 10
122.0865346341672
 20
141.0348920850348
 30
0.0
 11
122.0865346341672
 21
182.1160910850348
 31
0.0
  0
LINE
  5
2186
330
2
100
AcDbEntity
  8
0
100
AcDbLine
 10
97.08652763416729
 20
175.7285910850348
 30
0.0
 11
97.08652763416729
 21
147.7285930850348
 31
0.0
  0
LINE
  5
2187
330
2
100
AcDbEntity
  8
0
100
AcDbLine
 10
98.58652763416728
 20
145.7285930850348
 30
0.0
 11
145.0865346341672
 21
145.7285930850348
 31
0.0
  0
LINE
  5
2188
330
2
100
AcDbEntity
  8
0
100
AcDbLine
 10
95.08652763416728
 20
157.7285930850348
 30
0.0
 11
147.0865346341672
 21
157.7285930850348
 31
0.0
  0
LINE
  5
2189
330
2
100
AcDbEntity
  8
0
100
AcDbLine
 10
97.08652763416729
 20
147.7285930850348
 30
0.0
 11
147.0865346341672
 21
147.7285930850348
 31
0.0
  0
LINE
  5
218A
330
2
100
AcDbEntity
  8
0
100
AcDbLine
 10
97.08652763416729
 20
147.7285930850348
 30
0.0
 11
99.08652763416728
 21
145.7285930850348
 31
0.0
  0
LINE
  5
218B
330
2
100
AcDbEntity
  8
0
100
AcDbLine
 10
98.58652763416728
 20
145.7285930850348
 30
0.0
 11
98.58652763416728
 21
144.2285930850348
 31
0.0
  0
LINE
  5
218C
330
2
100
AcDbEntity
  8
0
100
AcDbLine
 10
145.0865346341672
 20
145.7285930850348
 30
0.0
 11
147.0865346341672
 21
147.7285930850348
 31
0.0
  0
LINE
  5
218D
330
2
100
AcDbEntity
  8
0
100
AcDbLine
 10
144.5865346341672
 20
145.7285930850348
 30
0.0
 11
144.5865346341672
 21
144.2285930850348
 31
0.0
  0
LINE
  5
218E
330
2
100
AcDbEntity
  8
0
100
AcDbLine
 10
101.9244434501928
 20
176.7285910850348
 30
0.0
 11
146.0865346341672
 21
176.7285910850348
 31
0.0
  0
LINE
  5
218F
330
2
100
AcDbEntity
  8
0
100
AcDbLine
 10
104.5865280627382
 20
175.7285910850348
 30
0.0
 11
147.0865416341673
 21
175.7285910850348
 31
0.0
  0
LINE
  5
2190
330
2
100
AcDbEntity
  8
CENTER
100
AcDbLine
 10
89.14277863416726
 20
167.2285910850348
 30
0.0
 11
151.0388375979053
 21
167.2285910850348
 31
0.0
  0
ARC
  5
2192
330
2
100
AcDbEntity
  8
0
100
AcDbCircle
 10
102.6935453877601
 20
175.2347038092811
 30
0.0
 40
1.3
100
AcDbArc
 50
5.000000000000026
 51
74.11914999172243
  0
LINE
  5
2193
330
2
100
AcDbEntity
  8
0
100
AcDbLine
 10
98.55679481100333
 20
176.3810326224124
 30
0.0
 11
98.53653463416732
 21
176.5920093678739
 31
0.0
  0
ARC
  5
2194
330
2
100
AcDbEntity
  8
0
100
AcDbCircle
 10
98.47952388057434
 20
175.2347038092811
 30
0.0
 40
1.3
100
AcDbArc
 50
105.8808500082775
 51
174.9999999999999
  0
LINE
  5
2195
330
2
100
AcDbEntity
  8
0
100
AcDbLine
 10
98.08652806273824
 20
176.7285910850347
 30
0.0
 11
97.08652763416729
 21
175.7285910850348
 31
0.0
  0
LINE
  5
2196
330
2
100
AcDbEntity
  8
0
100
AcDbLine
 10
97.08652763416729
 20
175.7285910850348
 30
0.0
 11
98.08652763416729
 21
176.7285910850348
 31
0.0
  0
LINE
  5
2197
330
2
100
AcDbEntity
  8
0
100
AcDbLine
 10
102.6162744573314
 20
176.3810326224124
 30
0.0
 11
102.6365346341674
 21
176.5920093678739
 31
0.0
  0
LINE
  5
2198
330
2
100
AcDbEntity
  8
0
100
AcDbLine
 10
105.0865280627382
 20
176.7285910850347
 30
0.0
 11
104.5865280627382
 21
176.2285910850347
 31
0.0
  0
LINE
  5
2199
330
2
100
AcDbEntity
  8
0
100
AcDbLine
 10
104.5865280627382
 20
174.2285910850347
 30
0.0
 11
97.08652806273825
 21
174.2285910850348
 31
0.0
  0
LINE
  5
219A
330
2
100
AcDbEntity
  8
0
100
AcDbLine
 10
91.58654263416725
 20
171.2285910850348
 30
0.0
 11
91.58654263416725
 21
163.2285910850348
 31
0.0
  0
LINE
  5
219B
330
2
100
AcDbEntity
  8
0
100
AcDbLine
 10
91.58652763416728
 20
163.2285910850348
 30
0.0
 11
95.08652763416728
 21
161.7285910850348
 31
0.0
  0
LINE
  5
219C
330
2
100
AcDbEntity
  8
0
100
AcDbLine
 10
97.08653463416737
 20
174.2285910850348
 30
0.0
 11
97.18447077305519
 21
175.348006274853
 31
0.0
  0
LINE
  5
219D
330
2
100
AcDbEntity
  8
0
100
AcDbLine
 10
96.08652763416728
 20
174.7285910850348
 30
0.0
 11
97.08652763416729
 21
174.7285910850348
 31
0.0
  0
LINE
  5
219E
330
2
100
AcDbEntity
  8
0
100
AcDbLine
 10
91.58654263416725
 20
171.2285910850348
 30
0.0
 11
95.08654263416724
 21
172.7285910850348
 31
0.0
  0
ARC
  5
219F
330
2
100
AcDbEntity
  8
0
100
AcDbCircle
 10
96.08654263416724
 20
173.7285910850348
 30
0.0
 40
1.0
100
AcDbArc
 50
90.0
 51
180.0
  0
LINE
  5
21A0
330
2
100
AcDbEntity
  8
0
100
AcDbLine
 10
104.5865280627382
 20
176.2285910850347
 30
0.0
 11
103.5315120237875
 21
176.2285910850347
 31
0.0
  0
SPLINE
  5
21A1
330
2
100
AcDbEntity
  8
0
100
AcDbSpline
210
0.0
220
0.0
230
1.0
 70
     8
 71
     3
 72
    11
 73
     7
 74
     0
 42
0.0000000001
 43
0.0000000001
 40
0.0
 40
0.0
 40
0.0
 40
0.0
 40
0.4601364636755307
 40
1.04988694485363
 40
1.713742833862792
 40
2.320347933405154
 40
2.320347933405154
 40
2.320347933405154
 40
2.320347933405179
 10
100.2990346337123
 20
175.3115910850348
 30
0.0
 10
100.2766169766044
 20
175.4666145247146
 30
0.0
 10
100.2254669213712
 20
175.8203293426322
 30
0.0
 10
99.78958175983757
 20
176.2450570142338
 30
0.0
 10
99.18453104483024
 20
176.4642441941997
 30
0.0
 10
98.75934642065431
 20
176.395252894589
 30
0.0
 10
98.55679481100333
 20
176.3810326224124
 30
0.0
  0
LINE
  5
21A2
330
2
100
AcDbEntity
  8
0
100
AcDbLine
 10
104.0865346341672
 20
174.2285910850348
 30
0.0
 11
103.9885984952794
 21
175.348006274853
 31
0.0
  0
LINE
  5
21A3
330
2
100
AcDbEntity
  8
0
100
AcDbLine
 10
100.8740346346223
 20
175.3115910850348
 30
0.0
 11
100.2990346337123
 21
175.3115910850348
 31
0.0
  0
SPLINE
  5
21A4
330
2
100
AcDbEntity
  8
0
100
AcDbSpline
210
0.0
220
0.0
230
1.0
 70
     8
 71
     3
 72
    11
 73
     7
 74
     0
 42
0.0000000001
 43
0.0000000001
 40
0.0
 40
0.0
 40
0.0
 40
0.0
 40
0.4601364636755307
 40
1.04988694485363
 40
1.713742833862792
 40
2.320347933405154
 40
2.320347933405154
 40
2.320347933405154
 40
2.320347933405179
 10
100.8740346346223
 20
175.3115910850348
 30
0.0
 10
100.8964522917302
 20
175.4666145247146
 30
0.0
 10
100.9476023469635
 20
175.8203293426322
 30
0.0
 10
101.3834875084971
 20
176.2450570142338
 30
0.0
 10
101.9885382235045
 20
176.4642441941997
 30
0.0
 10
102.4137228476804
 20
176.395252894589
 30
0.0
 10
102.6162744573314
 20
176.3810326224124
 30
0.0
  0
LINE
  5
21A5
330
2
100
AcDbEntity
  8
0
100
AcDbLine
 10
104.5865280627382
 20
174.2285910850347
 30
0.0
 11
104.5865280627382
 21
176.2285910850348
 31
0.0
  0
ARC
  5
21A6
330
2
100
AcDbEntity
  8
0
100
AcDbCircle
 10
100.5865346341673
 20
167.8285910850347
 30
0.0
 40
9.0
100
AcDbArc
 50
74.11914999172243
 51
105.8808500082775
  0
LINE
  5
21A7
330
2
100
AcDbEntity
  8
0
100
AcDbLine
 10
98.08652763416729
 20
176.7285910850348
 30
0.0
 11
99.24862581814194
 21
176.7285910850348
 31
0.0
  0
LINE
  5
21A8
330
2
100
AcDbEntity
  8
0
100
AcDbLine
 10
146.0865416341673
 20
176.7285910850348
 30
0.0
 11
147.0865416341673
 21
175.7285910850348
 31
0.0
  0
LINE
  5
227E
330
2
100
AcDbEntity
  8
0
100
AcDbLine
 10
96.58654163416713
 20
314.0348007276049
 30
0.0
 11
96.58654163416713
 21
274.5348007276049
 31
0.0
  0
ENDSEC
  0
SECTION
  2
OBJECTS
  0
DICTIONARY
  5
7
330
0
100
AcDbDictionary
  3
ACAD_GROUP
350
75
  3
ACAD_LAYOUT
350
61
  3
ACAD_MLINESTYLE
350
76
  3
ACAD_PLOTSETTINGS
350
77
  3
ACAD_PLOTSTYLENAME
350
6
  3
ACADDIM
350
480
  3
ACDBHEADERROUNDTRIPXREC
350
250B
  3
ACDBVARIABLEDICTIONARY
350
102
  3
DWGPROPS
350
3D2
  0
DICTIONARY
  5
252C
330
2
100
AcDbDictionary
280
     1
  3
ACAD_LAYOUTSELFREF
360
252D
  0
DICTIONARY
  5
252E
330
2505
100
AcDbDictionary
280
     1
  3
ACAD_LAYOUTSELFREF
360
252F
  0
DICTIONARY
  5
75
102
{ACAD_REACTORS
330
7
102
}
330
7
100
AcDbDictionary
  0
DICTIONARY
  5
61
102
{ACAD_REACTORS
330
7
102
}
330
7
100
AcDbDictionary
  0
DICTIONARY
  5
76
102
{ACAD_REACTORS
330
7
102
}
330
7
100
AcDbDictionary
  3
STANDARD
350
78
  0
DICTIONARY
  5
77
102
{ACAD_REACTORS
330
7
102
}
330
7
100
AcDbDictionary
  0
ACDBDICTIONARYWDFLT
  5
6
102
{ACAD_REACTORS
330
7
102
}
330
7
100
AcDbDictionary
281
     1
  3
Normal
350
5
100
AcDbDictionaryWithDefault
340
5
  0
XRECORD
  5
480
102
{ACAD_REACTORS
330
7
102
}
330
7
100
AcDbXrecord
 90
   990106
  3

 60
     0
 61
     0
 62
     1
 63
     3
 64
     1
 65
     0
 66
     0
 67
     3
 68
     1
 69
     0
 70
     0
 71
     0
 72
     0
 40
0.0
170
     2
340
0
  0
DICTIONARY
  5
250B
102
{ACAD_REACTORS
330
7
102
}
330
7
100
AcDbDictionary
  3
CEPSNTYPE
350
2515
  3
DIMSTYLEDATA
350
2519
  3
FINGERPRINTGUID
350
2516
  3
HYPERLINKBASE
350
250E
  3
INSUNITS
350
2514
  3
LAYOUTDICT
350
2510
  3
LWETCUNION
350
2513
  3
PLOTSETDICT
350
2511
  3
PLOTSTYLNAMDICT
350
2512
  3
PSVPSCALE
350
2518
  3
PUCSBASE
350
251C
  3
PUCSORGBACK
350
2522
  3
PUCSORGBOTTOM
350
251E
  3
PUCSORGFRONT
350
2521
  3
PUCSORGLEFT
350
251F
  3
PUCSORGRIGHT
350
2520
  3
PUCSORGTOP
350
251D
  3
PUCSORTHOREF
350
251A
  3
PUCSORTHOVIEW
350
251B
  3
STYLESHEET
350
250F
  3
TSTACKALIGN
350
250C
  3
TSTACKSIZE
350
250D
  3
UCSBASE
350
2525
  3
UCSORGBACK
350
252B
  3
UCSORGBOTTOM
350
2527
  3
UCSORGFRONT
350
252A
  3
UCSORGLEFT
350
2528
  3
UCSORGRIGHT
350
2529
  3
UCSORGTOP
350
2526
  3
UCSORTHOREF
350
2523
  3
UCSORTHOVIEW
350
2524
  3
VERSIONGUID
350
2517
  0
DICTIONARY
  5
102
102
{ACAD_REACTORS
330
7
102
}
330
7
100
AcDbDictionary
  3
DIMASSOC
350
103
  0
XRECORD
  5
3D2
102
{ACAD_REACTORS
330
7
102
}
330
7
100
AcDbXrecord
  1
DWGPROPS COOKIE
  2

  3

  4

  6

  7

  8

  9

300
=
301
=
302
=
303
=
304
=
305
=
306
=
307
=
308
=
309
=
 40
0.5353330671296296
 41
2452052.431989363
 42
2453406.550756377
  1

 90
        0
  0
XRECORD
  5
252D
102
{ACAD_REACTORS
330
252C
102
}
330
252C
100
AcDbXrecord
340
2
  0
XRECORD
  5
252F
102
{ACAD_REACTORS
330
252E
102
}
330
252E
100
AcDbXrecord
340
2505
  0
MLINESTYLE
  5
78
102
{ACAD_REACTORS
330
76
102
}
330
76
100
AcDbMlineStyle
  2
STANDARD
 70
     0
  3

 62
     0
 51
90.0
 52
90.0
 71
     2
 49
0.5
 62
   256
  6
BYLAYER
 49
-0.5
 62
   256
  6
BYLAYER
  0
ACDBPLACEHOLDER
  5
5
102
{ACAD_REACTORS
330
6
102
}
330
6
100
AcDbPlaceHolder
280
     0
  0
XRECORD
  5
2515
102
{ACAD_REACTORS
330
250B
102
}
330
250B
100
AcDbXrecord
 90
        0
  0
XRECORD
  5
2519
102
{ACAD_REACTORS
330
250B
102
}
330
250B
100
AcDbXrecord
1000
DSTYLE
1002
{
1070
   179
 70
     2
1070
   277
 70
     6
1002
}
  0
XRECORD
  5
2516
102
{ACAD_REACTORS
330
250B
102
}
330
250B
100
AcDbXrecord
  1
{6385560B-F4B1-4644-A7C2-A3E32AC3D232}
  0
XRECORD
  5
250E
102
{ACAD_REACTORS
330
250B
102
}
330
250B
100
AcDbXrecord
  1

  0
XRECORD
  5
2514
102
{ACAD_REACTORS
330
250B
102
}
330
250B
100
AcDbXrecord
 90
        0
  0
XRECORD
  5
2510
102
{ACAD_REACTORS
330
250B
102
}
330
250B
100
AcDbXrecord
340
61
  0
XRECORD
  5
2513
102
{ACAD_REACTORS
330
250B
102
}
330
250B
100
AcDbXrecord
 90
    10781
  0
XRECORD
  5
2511
102
{ACAD_REACTORS
330
250B
102
}
330
250B
100
AcDbXrecord
340
77
  0
XRECORD
  5
2512
102
{ACAD_REACTORS
330
250B
102
}
330
250B
100
AcDbXrecord
340
6
  0
XRECORD
  5
2518
102
{ACAD_REACTORS
330
250B
102
}
330
250B
100
AcDbXrecord
 40
0.0
  0
XRECORD
  5
251C
102
{ACAD_REACTORS
330
250B
102
}
330
250B
100
AcDbXrecord
340
0
  0
XRECORD
  5
2522
102
{ACAD_REACTORS
330
250B
102
}
330
250B
100
AcDbXrecord
 10
0.0
 20
0.0
 30
0.0
  0
XRECORD
  5
251E
102
{ACAD_REACTORS
330
250B
102
}
330
250B
100
AcDbXrecord
 10
0.0
 20
0.0
 30
0.0
  0
XRECORD
  5
2521
102
{ACAD_REACTORS
330
250B
102
}
330
250B
100
AcDbXrecord
 10
0.0
 20
0.0
 30
0.0
  0
XRECORD
  5
251F
102
{ACAD_REACTORS
330
250B
102
}
330
250B
100
AcDbXrecord
 10
0.0
 20
0.0
 30
0.0
  0
XRECORD
  5
2520
102
{ACAD_REACTORS
330
250B
102
}
330
250B
100
AcDbXrecord
 10
0.0
 20
0.0
 30
0.0
  0
XRECORD
  5
251D
102
{ACAD_REACTORS
330
250B
102
}
330
250B
100
AcDbXrecord
 10
0.0
 20
0.0
 30
0.0
  0
XRECORD
  5
251A
102
{ACAD_REACTORS
330
250B
102
}
330
250B
100
AcDbXrecord
340
0
  0
XRECORD
  5
251B
102
{ACAD_REACTORS
330
250B
102
}
330
250B
100
AcDbXrecord
 70
     0
  0
XRECORD
  5
250F
102
{ACAD_REACTORS
330
250B
102
}
330
250B
100
AcDbXrecord
  1
Sekkei.ctb
  0
XRECORD
  5
250C
102
{ACAD_REACTORS
330
250B
102
}
330
250B
100
AcDbXrecord
 90
        1
  0
XRECORD
  5
250D
102
{ACAD_REACTORS
330
250B
102
}
330
250B
100
AcDbXrecord
 90
       70
  0
XRECORD
  5
2525
102
{ACAD_REACTORS
330
250B
102
}
330
250B
100
AcDbXrecord
340
0
  0
XRECORD
  5
252B
102
{ACAD_REACTORS
330
250B
102
}
330
250B
100
AcDbXrecord
 10
0.0
 20
0.0
 30
0.0
  0
XRECORD
  5
2527
102
{ACAD_REACTORS
330
250B
102
}
330
250B
100
AcDbXrecord
 10
0.0
 20
0.0
 30
0.0
  0
XRECORD
  5
252A
102
{ACAD_REACTORS
330
250B
102
}
330
250B
100
AcDbXrecord
 10
0.0
 20
0.0
 30
0.0
  0
XRECORD
  5
2528
102
{ACAD_REACTORS
330
250B
102
}
330
250B
100
AcDbXrecord
 10
0.0
 20
0.0
 30
0.0
  0
XRECORD
  5
2529
102
{ACAD_REACTORS
330
250B
102
}
330
250B
100
AcDbXrecord
 10
0.0
 20
0.0
 30
0.0
  0
XRECORD
  5
2526
102
{ACAD_REACTORS
330
250B
102
}
330
250B
100
AcDbXrecord
 10
0.0
 20
0.0
 30
0.0
  0
XRECORD
  5
2523
102
{ACAD_REACTORS
330
250B
102
}
330
250B
100
AcDbXrecord
340
0
  0
XRECORD
  5
2524
102
{ACAD_REACTORS
330
250B
102
}
330
250B
100
AcDbXrecord
 70
     0
  0
XRECORD
  5
2517
102
{ACAD_REACTORS
330
250B
102
}
330
250B
100
AcDbXrecord
  1
{FFB4400C-8942-4027-94B1-83A955485EA4}
  0
DICTIONARYVAR
  5
103
102
{ACAD_REACTORS
330
102
102
}
330
102
100
DictionaryVariables
280
     0
  1
1
  0
ENDSEC
  0
EOF
