  0
SECTION
  2
HEADER
  9
$CLAYER
  8
1
  9
$LTSCALE
 40
3.0
  0
ENDSEC
  0
SECTION
  2
TABLES
  0
TABLE
  2
LTYPE
 70
     4
  0
LTYPE
  2
CONTINUOUS
  3
solid line
 70
    64
 72
    65
 73
     0
 40
0.0
  0
LTYPE
  2
DASHED
  3
__ __ __ __ __ __ __ __ __ __ __ __ __ __ __
 70
    64
 72
    65
 73
     2
 40
0.75
 49
0.5
 49
-0.25
  0
LTYPE
  2
CENTER
  3
____ _ ____ _ ____ _ ____ _ ____ _ ____ _ ____
 70
    64
 72
    65
 73
     4
 40
2.0
 49
1.25
 49
-0.25
 49
0.25
 49
-0.25
  0
LTYPE
  2
PHANTOM
  3
_____ _ _ _____ _ _ _____ _ _ _____ _ _ ____
 70
    64
 72
    65
 73
     6
 40
2.5
 49
1.25
 49
-0.25
 49
0.25
 49
-0.25
 49
0.25
 49
-0.25
  0
ENDTAB
  0
TABLE
  2
LAYER
 70
     1
  0
LAYER
  2
0
 70
    64
 62
     7
  6
CONTINUOUS
  0
ENDTAB
  0
TABLE
  2
STYLE
 70
     1
  0
STYLE
  2
STANDARD
 70
     0
 40
0.000000
 41
1.000000
 50
0.000000
 71
     0
 42
3.000000
  3
txt
  4
BIGFONT
  0
ENDTAB
  0
ENDSEC
  0
SECTION
  2
BLOCKS
  0
ENDSEC
  0
SECTION
  2
ENTITIES
  0
LINE
  8
0
  6
CENTER
 10
60.740002
 20
7.147500
 11
60.740002
 21
137.647507
  0
LINE
  8
0
  6
CONTINUOUS
 10
12.740000
 20
131.847504
 11
12.740000
 21
13.847500
  0
LINE
  8
0
  6
CONTINUOUS
 10
102.739998
 20
110.347488
 11
102.739998
 21
65.347488
  0
LINE
  8
0
  6
CONTINUOUS
 10
97.739998
 20
122.899384
 11
97.739998
 21
22.795580
  0
LINE
  8
0
  6
CENTER
 10
3.427500
 20
87.847504
 11
142.677505
 21
87.847504
  0
LINE
  8
0
  6
CONTINUOUS
 10
99.740021
 20
111.347504
 11
101.739998
 21
111.347504
  0
LINE
  8
0
  6
CONTINUOUS
 10
99.740021
 20
64.347496
 11
101.739998
 21
64.347496
  0
LINE
  8
0
  6
CONTINUOUS
 10
22.740000
 20
40.347511
 11
22.740000
 21
15.347500
  0
LINE
  8
0
  6
CONTINUOUS
 10
21.205351
 20
131.847504
 11
12.740000
 21
131.847504
  0
LINE
  8
0
  6
CONTINUOUS
 10
21.205351
 20
13.847500
 11
12.740000
 21
13.847500
  0
LINE
  8
0
  6
CONTINUOUS
 10
94.792343
 20
125.898933
 11
24.705111
 21
127.122032
  0
LINE
  8
0
  6
CONTINUOUS
 10
94.792358
 20
19.796040
 11
24.705080
 21
18.572420
  0
LINE
  8
0
  6
CONTINUOUS
 10
95.973473
 20
102.347504
 11
25.740021
 21
102.347504
  0
LINE
  8
0
  6
CONTINUOUS
 10
95.973473
 20
43.347500
 11
25.740021
 21
43.347500
  0
ARC
  8
0
  6
CONTINUOUS
 10
94.740021
 20
122.899384
 40
3.000000
 50
0.000000
 51
89.000359
  0
ARC
  8
0
  6
CONTINUOUS
 10
94.739998
 20
22.795580
 40
3.000000
 50
-88.999687
 51
0.000000
  0
ARC
  8
0
  6
CONTINUOUS
 10
25.740021
 20
40.347519
 40
3.000000
 50
90.000000
 51
180.000000
  0
ARC
  8
0
  6
CONTINUOUS
 10
25.740000
 20
105.347504
 40
3.000000
 50
180.000000
 51
270.000000
  0
LINE
  8
0
  6
CENTER
 10
7.677500
 20
22.847500
 11
27.427500
 21
22.847500
  0
LINE
  8
0
  6
CENTER
 10
9.427500
 20
122.847504
 11
26.427500
 21
122.847504
  0
LINE
  8
0
  6
DASHED
 10
12.740000
 20
118.597504
 11
22.740000
 21
118.597504
  0
LINE
  8
0
  6
DASHED
 10
12.740000
 20
127.097504
 11
22.740000
 21
127.097504
  0
LINE
  8
0
  6
DASHED
 10
12.740000
 20
27.097500
 11
22.740000
 21
27.097500
  0
LINE
  8
0
  6
DASHED
 10
12.740000
 20
18.597500
 11
22.740000
 21
18.597500
  0
LINE
  8
0
  6
CONTINUOUS
 10
34.740021
 20
17.147499
 11
86.739990
 21
17.147499
  0
ARC
  8
0
  6
CONTINUOUS
 10
86.739998
 20
20.147499
 40
3.000000
 50
270.000000
 51
351.561890
  0
ARC
  8
0
  6
CONTINUOUS
 10
34.740002
 20
20.147499
 40
3.000000
 50
208.811905
 51
270.000000
  0
ARC
  8
0
  6
CONTINUOUS
 10
99.739998
 20
113.347504
 40
2.000000
 50
180.000000
 51
270.000000
  0
ARC
  8
0
  6
CONTINUOUS
 10
99.740021
 20
62.347504
 40
2.000000
 50
90.000000
 51
180.000000
  0
ARC
  8
0
  6
CONTINUOUS
 10
101.739998
 20
65.347488
 40
1.000000
 50
-90.000000
 51
0.000000
  0
ARC
  8
0
  6
CONTINUOUS
 10
101.739998
 20
110.347488
 40
1.000000
 50
0.000000
 51
90.000000
  0
ARC
  8
0
  6
CONTINUOUS
 10
60.740002
 20
62.147495
 40
45.000000
 50
-34.692108
 51
20.459709
  0
ARC
  8
0
  6
CONTINUOUS
 10
21.240000
 20
15.347500
 40
1.500000
 50
-90.000000
 51
0.000000
  0
LINE
  8
0
  6
CENTER
 10
3.427500
 20
62.147495
 11
114.739998
 21
62.147495
  0
LINE
  8
0
  6
CONTINUOUS
 10
22.740000
 20
129.847488
 11
22.740000
 21
105.347488
  0
ARC
  8
0
  6
CONTINUOUS
 10
20.740011
 20
129.847488
 40
2.000000
 50
0.000000
 51
90.000000
  0
LINE
  8
0
  6
CONTINUOUS
 10
23.137211
 20
130.365143
 11
23.417810
 21
129.317902
  0
ARC
  8
0
  6
CONTINUOUS
 10
21.205359
 20
129.847488
 40
2.000000
 50
15.000470
 51
90.000000
  0
ARC
  8
0
  6
CONTINUOUS
 10
24.739981
 20
129.121735
 40
2.000000
 50
180.000000
 51
269.000610
  0
ARC
  8
0
  6
CONTINUOUS
 10
26.315571
 20
130.094406
 40
3.000000
 50
195.000504
 51
269.000488
  0
LINE
  8
0
  6
CONTINUOUS
 10
23.137199
 20
15.329860
 11
23.417650
 21
16.376530
  0
ARC
  8
0
  6
CONTINUOUS
 10
21.205351
 20
15.847500
 40
2.000000
 50
270.000000
 51
345.000000
  0
ARC
  8
0
  6
CONTINUOUS
 10
24.740021
 20
16.572741
 40
2.000000
 50
91.000641
 51
180.000000
  0
ARC
  8
0
  6
CONTINUOUS
 10
26.315439
 20
15.600080
 40
3.000000
 50
91.000458
 51
165.000198
  0
LINE
  8
0
  6
CONTINUOUS
 10
107.739998
 20
36.046989
 11
107.739998
 21
78.847504
  0
LINE
  8
0
  6
CONTINUOUS
 10
34.639481
 20
15.147500
 11
86.840508
 21
15.147500
  0
LINE
  8
0
  6
CONTINUOUS
 10
29.689751
 20
17.197741
 11
28.253120
 21
18.634350
  0
ARC
  8
0
  6
CONTINUOUS
 10
100.739998
 20
36.046982
 40
7.000000
 50
-44.999882
 51
0.000000
  0
ARC
  8
0
  6
CONTINUOUS
 10
86.840508
 20
22.147499
 40
7.000000
 50
270.000000
 51
315.000000
  0
ARC
  8
0
  6
CONTINUOUS
 10
34.639481
 20
22.147499
 40
7.000000
 50
225.000107
 51
270.000000
  0
LINE
  8
0
  6
CONTINUOUS
 10
91.790253
 20
17.197750
 11
94.381371
 21
19.788879
  0
LINE
  8
0
  6
CONTINUOUS
 10
105.689751
 20
31.097250
 11
97.739998
 21
23.147499
  0
LINE
  8
0
  6
CONTINUOUS
 10
134.740005
 20
78.847504
 11
134.740005
 21
96.847504
  0
LINE
  8
0
  6
CONTINUOUS
 10
104.739998
 20
96.847504
 11
134.740005
 21
96.847504
  0
LINE
  8
0
  6
CONTINUOUS
 10
104.739998
 20
78.847504
 11
134.740005
 21
78.847504
  0
LINE
  8
0
  6
CONTINUOUS
 10
104.739998
 20
97.847504
 11
104.739998
 21
77.847504
  0
LINE
  8
0
  6
CONTINUOUS
 10
102.739998
 20
97.847504
 11
104.739998
 21
97.847504
  0
LINE
  8
0
  6
CONTINUOUS
 10
102.739998
 20
77.847504
 11
104.739998
 21
77.847504
  0
ARC
  8
0
  6
CONTINUOUS
 10
110.739998
 20
87.847504
 40
3.000000
 50
90.000000
 51
270.000000
  0
LINE
  8
0
  6
CONTINUOUS
 10
110.739998
 20
90.847504
 11
134.740005
 21
90.847504
  0
LINE
  8
0
  6
CONTINUOUS
 10
110.740021
 20
84.847504
 11
134.740005
 21
84.847504
  0
LINE
  8
0
  6
CONTINUOUS
 10
383.739990
 20
17.147499
 11
383.739990
 21
107.147499
  0
LINE
  8
0
  6
CENTER
 10
450.936890
 20
62.147495
 11
281.734985
 21
62.147495
  0
LINE
  8
0
  6
CONTINUOUS
 10
210.240005
 20
43.347500
 11
210.240005
 21
102.347504
  0
LINE
  8
0
  6
CONTINUOUS
 10
383.739990
 20
107.147499
 11
304.397400
 21
107.147499
  0
LINE
  8
0
  6
CONTINUOUS
 10
313.239990
 20
17.147499
 11
383.739990
 21
17.147499
  0
LINE
  8
0
  6
CENTER
 10
289.281555
 20
87.847504
 11
226.678757
 21
87.847504
  0
LINE
  8
0
  6
CENTER
 10
260.739990
 20
140.397507
 11
260.739990
 21
5.054150
  0
LINE
  8
0
  6
CONTINUOUS
 10
300.739990
 20
131.847504
 11
220.740005
 21
131.847504
  0
LINE
  8
0
  6
CONTINUOUS
 10
300.739990
 20
13.847500
 11
220.740005
 21
13.847500
  0
LINE
  8
0
  6
CENTER
 10
227.740005
 20
122.847504
 11
213.865005
 21
122.847504
  0
LINE
  8
0
  6
CENTER
 10
220.740005
 20
116.147499
 11
220.740005
 21
129.647507
  0
CIRCLE
  8
0
  6
CONTINUOUS
 10
220.740005
 20
122.847504
 40
4.250000
  0
LINE
  8
0
  6
CENTER
 10
227.740005
 20
22.847500
 11
213.865005
 21
22.847500
  0
LINE
  8
0
  6
CENTER
 10
220.740005
 20
29.547501
 11
220.740005
 21
16.047501
  0
CIRCLE
  8
0
  6
CONTINUOUS
 10
220.740005
 20
22.847500
 40
4.250000
  0
LINE
  8
0
  6
CENTER
 10
293.739990
 20
122.847504
 11
307.614990
 21
122.847504
  0
LINE
  8
0
  6
CENTER
 10
300.739990
 20
116.147499
 11
300.739990
 21
129.647507
  0
CIRCLE
  8
0
  6
CONTINUOUS
 10
300.739990
 20
122.847504
 40
4.250000
  0
LINE
  8
0
  6
CENTER
 10
293.739990
 20
22.847500
 11
307.614990
 21
22.847500
  0
LINE
  8
0
  6
CENTER
 10
300.739990
 20
29.547501
 11
300.739990
 21
16.047501
  0
CIRCLE
  8
0
  6
CONTINUOUS
 10
300.739990
 20
22.847500
 40
4.250000
  0
LINE
  8
0
  6
CONTINUOUS
 10
211.763306
 20
123.494133
 11
210.240005
 21
102.347504
  0
LINE
  8
0
  6
CONTINUOUS
 10
211.763306
 20
22.200939
 11
210.240005
 21
43.347500
  0
ARC
  8
0
  6
CONTINUOUS
 10
220.740005
 20
122.847504
 40
9.000000
 50
90.000000
 51
175.879898
  0
ARC
  8
0
  6
CONTINUOUS
 10
220.740005
 20
22.847500
 40
9.000000
 50
-175.879898
 51
-90.000000
  0
ARC
  8
0
  6
CONTINUOUS
 10
300.739990
 20
122.847504
 40
9.000000
 50
4.120102
 51
90.000000
  0
LINE
  8
0
  6
CONTINUOUS
 10
309.716705
 20
123.494133
 11
310.894196
 21
107.147499
  0
LINE
  8
0
  6
CONTINUOUS
 10
309.716705
 20
22.200939
 11
310.284790
 21
30.086821
  0
ARC
  8
0
  6
CONTINUOUS
 10
300.739990
 20
22.847500
 40
9.000000
 50
270.000000
 51
355.879913
  0
ARC
  8
0
  6
CONTINUOUS
 10
306.239990
 20
27.147530
 40
5.000000
 50
0.000000
 51
90.000000
  0
ARC
  8
0
  6
CONTINUOUS
 10
313.239990
 20
19.147499
 40
2.000000
 50
180.000000
 51
270.000000
  0
LINE
  8
0
  6
CONTINUOUS
 10
311.239990
 20
19.147499
 11
311.239990
 21
27.147530
  0
LINE
  8
0
  6
CONTINUOUS
 10
311.239990
 20
99.747391
 11
311.239990
 21
27.147530
  0
LINE
  8
0
  6
CONTINUOUS
 10
383.739990
 20
96.556801
 11
313.239990
 21
96.556801
  0
LINE
  8
0
  6
CONTINUOUS
 10
383.739990
 20
27.738190
 11
312.739990
 21
27.738190
  0
CIRCLE
  8
0
  6
CONTINUOUS
 10
260.739990
 20
87.847504
 40
23.500000
  0
LINE
  8
0
  6
CONTINUOUS
 10
252.330597
 20
44.847500
 11
248.865005
 21
44.847500
  0
LINE
  8
0
  6
CONTINUOUS
 10
254.243500
 20
50.652470
 11
254.243500
 21
44.847500
  0
LINE
  8
0
  6
CONTINUOUS
 10
257.575500
 20
52.760990
 11
257.575500
 21
54.843494
  0
LINE
  8
0
  6
CONTINUOUS
 10
264.239502
 20
52.760990
 11
264.239502
 21
54.843494
  0
LINE
  8
0
  6
CONTINUOUS
 10
260.256714
 20
53.620022
 11
260.256714
 21
45.940811
  0
LINE
  8
0
  6
CONTINUOUS
 10
261.506195
 20
53.620022
 11
261.506195
 21
45.940811
  0
LINE
  8
0
  6
CONTINUOUS
 10
268.066101
 20
53.620022
 11
268.066101
 21
45.888748
  0
LINE
  8
0
  6
CONTINUOUS
 10
269.211395
 20
49.520100
 11
269.211395
 21
45.888748
  0
LINE
  8
0
  6
CONTINUOUS
 10
252.662399
 20
53.515896
 11
249.451202
 21
53.515896
  0
LINE
  8
0
  6
CONTINUOUS
 10
249.948303
 20
46.018909
 11
249.463303
 21
46.018909
  0
LINE
  8
0
  6
CONTINUOUS
 10
249.451202
 20
53.515896
 11
248.698807
 21
52.582935
  0
LINE
  8
0
  6
CONTINUOUS
 10
248.789307
 20
54.843494
 11
247.579498
 21
53.294315
  0
LINE
  8
0
  6
CONTINUOUS
 10
248.698807
 20
46.824139
 11
249.463303
 21
46.018909
  0
LINE
  8
0
  6
CONTINUOUS
 10
247.579498
 20
46.144600
 11
248.865005
 21
44.847500
  0
LINE
  8
0
  6
CONTINUOUS
 10
247.579498
 20
53.294315
 11
247.579498
 21
46.144600
  0
LINE
  8
0
  6
CONTINUOUS
 10
248.698807
 20
52.582935
 11
248.698807
 21
46.824139
  0
LINE
  8
0
  6
CONTINUOUS
 10
253.280304
 20
52.918552
 11
252.649796
 21
53.515896
  0
LINE
  8
0
  6
CONTINUOUS
 10
253.270294
 20
54.843494
 11
254.243500
 21
53.763515
  0
LINE
  8
0
  6
CONTINUOUS
 10
253.280304
 20
52.760990
 11
254.243500
 21
52.760990
  0
LINE
  8
0
  6
CONTINUOUS
 10
248.789307
 20
54.843494
 11
253.270294
 21
54.843494
  0
LINE
  8
0
  6
CONTINUOUS
 10
251.536194
 20
50.652470
 11
254.243500
 21
50.652470
  0
LINE
  8
0
  6
CONTINUOUS
 10
253.280304
 20
49.559151
 11
251.536194
 21
49.559151
  0
LINE
  8
0
  6
CONTINUOUS
 10
250.781296
 20
46.018909
 11
249.948303
 21
46.018909
  0
LINE
  8
0
  6
CONTINUOUS
 10
253.280304
 20
48.517910
 11
253.280304
 21
49.350899
  0
LINE
  8
0
  6
CONTINUOUS
 10
251.197800
 20
46.018909
 11
250.781296
 21
46.018909
  0
LINE
  8
0
  6
CONTINUOUS
 10
253.280304
 20
48.101398
 11
253.280304
 21
48.517910
  0
LINE
  8
0
  6
CONTINUOUS
 10
253.280304
 20
48.046089
 11
253.280304
 21
48.101398
  0
ARC
  8
0
  6
CONTINUOUS
 10
251.197800
 20
48.101398
 40
2.082500
 50
-89.999786
 51
0.000109
  0
LINE
  8
0
  6
CONTINUOUS
 10
253.280304
 20
45.644321
 11
253.280304
 21
44.847500
  0
LINE
  8
0
  6
CONTINUOUS
 10
254.243500
 20
53.763515
 11
254.243500
 21
52.760990
  0
LINE
  8
0
  6
CONTINUOUS
 10
253.280304
 20
49.559151
 11
253.280304
 21
48.101398
  0
LINE
  8
0
  6
CONTINUOUS
 10
251.536194
 20
50.652470
 11
251.536194
 21
49.559151
  0
LINE
  8
0
  6
CONTINUOUS
 10
253.280304
 20
49.350899
 11
253.280304
 21
49.559151
  0
LINE
  8
0
  6
CONTINUOUS
 10
253.280304
 20
44.847500
 11
254.243500
 21
44.847500
  0
LINE
  8
0
  6
CONTINUOUS
 10
253.280304
 20
45.644321
 11
252.330597
 21
44.847500
  0
LINE
  8
0
  6
CONTINUOUS
 10
261.506195
 20
45.940811
 11
261.922699
 21
45.940811
  0
LINE
  8
0
  6
CONTINUOUS
 10
259.762085
 20
45.940811
 11
259.762085
 21
44.847500
  0
LINE
  8
0
  6
CONTINUOUS
 10
261.922699
 20
45.940811
 11
261.922699
 21
44.847500
  0
LINE
  8
0
  6
CONTINUOUS
 10
263.544403
 20
52.760990
 11
264.239502
 21
52.760990
  0
LINE
  8
0
  6
CONTINUOUS
 10
257.575500
 20
52.760990
 11
258.315186
 21
52.760990
  0
LINE
  8
0
  6
CONTINUOUS
 10
257.575500
 20
54.843494
 11
264.239502
 21
54.843494
  0
LINE
  8
0
  6
CONTINUOUS
 10
259.762085
 20
44.847500
 11
261.922699
 21
44.847500
  0
LINE
  8
0
  6
CONTINUOUS
 10
259.762085
 20
45.940811
 11
260.256714
 21
45.940811
  0
ARC
  8
0
  6
CONTINUOUS
 10
271.567291
 20
52.175289
 40
2.668203
 50
-73.981873
 51
90.003510
  0
ARC
  8
0
  6
CONTINUOUS
 10
271.567291
 20
52.175289
 40
1.627786
 50
-82.585274
 51
62.411850
  0
LINE
  8
0
  6
CONTINUOUS
 10
267.571503
 20
54.843494
 11
271.567291
 21
54.843494
  0
LINE
  8
0
  6
CONTINUOUS
 10
271.777313
 20
50.561119
 11
269.211395
 21
50.561119
  0
LINE
  8
0
  6
CONTINUOUS
 10
267.571503
 20
54.843494
 11
267.571503
 21
53.620022
  0
LINE
  8
0
  6
CONTINUOUS
 10
269.211395
 20
53.620022
 11
269.211395
 21
50.561119
  0
LINE
  8
0
  6
CONTINUOUS
 10
272.303497
 20
49.610680
 11
273.954987
 21
45.888748
  0
LINE
  8
0
  6
CONTINUOUS
 10
271.344299
 20
49.520100
 11
272.907196
 21
45.888748
  0
LINE
  8
0
  6
CONTINUOUS
 10
267.571503
 20
45.888748
 11
268.066101
 21
45.888748
  0
LINE
  8
0
  6
CONTINUOUS
 10
269.211395
 20
45.888748
 11
269.666992
 21
45.888748
  0
LINE
  8
0
  6
CONTINUOUS
 10
269.666992
 20
44.847500
 11
267.571503
 21
44.847500
  0
LINE
  8
0
  6
CONTINUOUS
 10
272.699585
 20
45.888748
 11
272.907196
 21
45.888748
  0
LINE
  8
0
  6
CONTINUOUS
 10
273.954987
 20
45.888748
 11
274.235504
 21
45.888748
  0
LINE
  8
0
  6
CONTINUOUS
 10
272.699585
 20
44.847500
 11
274.235504
 21
44.847500
  0
LINE
  8
0
  6
CONTINUOUS
 10
274.235504
 20
45.888748
 11
274.235504
 21
44.847500
  0
LINE
  8
0
  6
CONTINUOUS
 10
272.699585
 20
45.888748
 11
272.699585
 21
44.847500
  0
LINE
  8
0
  6
CONTINUOUS
 10
269.666992
 20
45.888748
 11
269.666992
 21
44.847500
  0
LINE
  8
0
  6
CONTINUOUS
 10
267.571503
 20
45.888748
 11
267.571503
 21
44.847500
  0
LINE
  8
0
  6
CONTINUOUS
 10
258.673096
 20
53.620022
 11
258.315186
 21
52.760990
  0
LINE
  8
0
  6
CONTINUOUS
 10
263.242493
 20
53.620022
 11
263.544403
 21
52.760990
  0
LINE
  8
0
  6
CONTINUOUS
 10
261.506195
 20
53.620022
 11
263.242493
 21
53.620022
  0
LINE
  8
0
  6
CONTINUOUS
 10
260.256714
 20
53.620022
 11
258.673096
 21
53.620022
  0
LINE
  8
0
  6
CONTINUOUS
 10
269.211395
 20
49.520100
 11
271.344299
 21
49.520100
  0
LINE
  8
0
  6
CONTINUOUS
 10
267.571503
 20
53.620022
 11
268.066101
 21
53.620022
  0
LINE
  8
0
  6
CONTINUOUS
 10
269.211395
 20
53.620022
 11
272.321106
 21
53.618000
  0
LINE
  8
0
  6
CONTINUOUS
 10
253.280304
 20
52.918552
 11
253.280304
 21
52.760990
  0
LINE
  8
0
  6
CONTINUOUS
 10
276.161102
 20
19.847500
 11
245.318893
 21
19.847500
  0
LINE
  8
0
  6
CONTINUOUS
 10
245.318893
 20
125.847504
 11
276.161102
 21
125.847504
  0
LINE
  8
0
  6
CONTINUOUS
 10
279.032593
 20
124.940788
 11
309.111389
 21
103.840691
  0
LINE
  8
0
  6
CONTINUOUS
 10
242.447495
 20
124.940781
 11
210.240005
 21
102.347504
  0
LINE
  8
0
  6
CONTINUOUS
 10
279.032593
 20
20.754200
 11
293.981506
 21
31.240770
  0
LINE
  8
0
  6
CONTINUOUS
 10
242.447403
 20
20.754219
 11
210.240005
 21
43.347500
  0
ARC
  8
0
  6
CONTINUOUS
 10
276.161194
 20
120.847504
 40
5.000000
 50
54.950710
 51
90.000000
  0
ARC
  8
0
  6
CONTINUOUS
 10
245.318893
 20
120.847504
 40
5.000000
 50
90.000000
 51
125.049500
  0
ARC
  8
0
  6
CONTINUOUS
 10
245.318893
 20
24.847500
 40
5.000000
 50
234.950500
 51
270.000000
  0
ARC
  8
0
  6
CONTINUOUS
 10
276.161102
 20
24.847500
 40
5.000000
 50
270.000000
 51
305.049591
  0
LINE
  8
0
  6
CONTINUOUS
 10
296.852905
 20
32.147499
 11
306.239990
 21
32.147499
  0
ARC
  8
0
  6
CONTINUOUS
 10
296.852905
 20
27.147511
 40
5.000000
 50
90.000000
 51
125.049698
  0
ARC
  8
0
  6
CONTINUOUS
 10
306.239990
 20
99.747391
 40
5.000000
 50
0.000000
 51
54.950691
  0
LINE
  8
0
  6
CONTINUOUS
 10
393.239990
 20
107.147499
 11
383.739990
 21
107.147499
  0
LINE
  8
0
  6
CONTINUOUS
 10
383.739990
 20
96.556801
 11
393.239990
 21
96.556801
  0
LINE
  8
0
  6
CONTINUOUS
 10
393.239990
 20
17.147499
 11
383.739990
 21
17.147499
  0
LINE
  8
0
  6
CONTINUOUS
 10
383.739990
 20
27.738190
 11
393.239990
 21
27.738190
  0
LINE
  8
0
  6
CONTINUOUS
 10
393.239990
 20
109.147499
 11
393.239990
 21
15.147500
  0
LINE
  8
0
  6
CONTINUOUS
 10
393.239990
 20
91.147499
 11
437.214996
 21
91.147499
  0
LINE
  8
0
  6
CONTINUOUS
 10
393.239990
 20
33.147499
 11
437.214996
 21
33.147499
  0
LINE
  8
0
  6
CONTINUOUS
 10
383.239990
 20
108.647499
 11
383.239990
 21
107.147499
  0
LINE
  8
0
  6
CONTINUOUS
 10
390.239990
 20
108.647499
 11
390.239990
 21
107.147499
  0
LINE
  8
0
  6
CONTINUOUS
 10
390.239990
 20
108.647499
 11
383.239990
 21
108.647499
  0
LINE
  8
0
  6
CONTINUOUS
 10
385.839996
 20
121.647499
 11
385.839996
 21
108.647499
  0
LINE
  8
0
  6
CONTINUOUS
 10
387.640015
 20
122.272499
 11
387.640015
 21
108.647499
  0
LINE
  8
0
  6
CONTINUOUS
 10
389.440002
 20
120.209999
 11
389.440002
 21
108.647499
  0
LINE
  8
0
  6
CONTINUOUS
 10
384.040009
 20
121.022499
 11
384.040009
 21
108.647499
  0
LINE
  8
0
  6
CONTINUOUS
 10
387.640015
 20
122.272499
 11
385.839996
 21
121.647499
  0
LINE
  8
0
  6
CONTINUOUS
 10
389.440002
 20
120.209999
 11
387.640015
 21
120.834999
  0
LINE
  8
0
  6
CONTINUOUS
 10
384.040009
 20
121.022499
 11
385.838989
 21
120.574791
  0
LINE
  8
0
  6
CONTINUOUS
 10
435.739990
 20
109.147499
 11
393.239990
 21
109.147499
  0
LINE
  8
0
  6
CONTINUOUS
 10
435.739990
 20
15.147500
 11
393.239990
 21
15.147500
  0
ARC
  8
0
  6
CONTINUOUS
 10
435.739990
 20
104.147530
 40
5.000000
 50
0.000000
 51
90.000000
  0
ARC
  8
0
  6
CONTINUOUS
 10
435.739990
 20
20.147499
 40
5.000000
 50
-90.000000
 51
0.000000
  0
LINE
  8
0
  6
CONTINUOUS
 10
440.739990
 20
104.147507
 11
440.739990
 21
20.147480
  0
LINE
  8
0
  6
CONTINUOUS
 10
255.240005
 20
90.847504
 11
255.240005
 21
84.847504
  0
LINE
  8
0
  6
CONTINUOUS
 10
249.240005
 20
90.847504
 11
249.240005
 21
84.847504
  0
LINE
  8
0
  6
CONTINUOUS
 10
249.240005
 20
90.847504
 11
255.240005
 21
90.847504
  0
LINE
  8
0
  6
CONTINUOUS
 10
249.240005
 20
84.847504
 11
255.240005
 21
84.847504
  0
ARC
  8
0
  6
CONTINUOUS
 10
260.739990
 20
87.847504
 40
9.000000
 50
-160.528793
 51
160.528793
  0
LINE
  8
0
  6
CENTER
 10
260.739990
 20
189.699066
 11
260.739990
 21
335.016876
  0
LINE
  8
0
  6
CENTER
 10
454.908752
 20
270.576569
 11
196.598755
 21
270.576569
  0
LINE
  8
0
  6
CONTINUOUS
 10
214.414124
 20
233.576569
 11
309.291687
 21
233.576569
  0
LINE
  8
0
  6
CONTINUOUS
 10
311.449402
 20
241.573822
 11
311.291016
 21
235.524216
  0
LINE
  8
0
  6
CONTINUOUS
 10
313.397797
 20
225.576569
 11
383.739990
 21
225.576569
  0
LINE
  8
0
  6
CONTINUOUS
 10
383.739990
 20
241.576569
 11
304.397461
 21
241.576569
  0
LINE
  8
0
  6
CONTINUOUS
 10
383.739990
 20
299.576569
 11
313.123138
 21
299.576569
  0
LINE
  8
0
  6
CONTINUOUS
 10
313.266876
 20
315.576569
 11
383.739990
 21
315.576569
  0
LINE
  8
0
  6
CONTINUOUS
 10
312.496918
 20
270.576569
 11
311.239990
 21
318.576569
  0
LINE
  8
0
  6
CONTINUOUS
 10
277.739990
 20
238.576569
 11
277.739990
 21
306.576569
  0
LINE
  8
0
  6
CONTINUOUS
 10
243.740005
 20
238.576569
 11
243.740005
 21
306.576569
  0
LINE
  8
0
  6
CONTINUOUS
 10
304.397461
 20
243.576569
 11
304.397461
 21
307.041565
  0
LINE
  8
0
  6
CONTINUOUS
 10
238.239990
 20
228.576569
 11
283.239990
 21
228.576569
  0
LINE
  8
0
  6
CONTINUOUS
 10
284.239990
 20
229.576569
 11
284.239990
 21
231.576569
  0
LINE
  8
0
  6
CONTINUOUS
 10
237.239990
 20
229.576569
 11
237.239990
 21
231.576569
  0
ARC
  8
0
  6
CONTINUOUS
 10
286.239990
 20
231.576569
 40
2.000000
 50
90.000000
 51
180.000000
  0
ARC
  8
0
  6
CONTINUOUS
 10
235.240005
 20
231.576569
 40
2.000000
 50
0.000000
 51
90.000000
  0
ARC
  8
0
  6
CONTINUOUS
 10
283.239990
 20
229.576569
 40
1.000000
 50
-90.000000
 51
0.000000
  0
ARC
  8
0
  6
CONTINUOUS
 10
238.239990
 20
229.576569
 40
1.000000
 50
180.000000
 51
270.000000
  0
LINE
  8
0
  6
CONTINUOUS
 10
249.240005
 20
196.576569
 11
269.739990
 21
196.576569
  0
LINE
  8
0
  6
CONTINUOUS
 10
269.739990
 20
226.576569
 11
269.739990
 21
196.576569
  0
LINE
  8
0
  6
CONTINUOUS
 10
251.740005
 20
226.576569
 11
251.740005
 21
223.576569
  0
LINE
  8
0
  6
CONTINUOUS
 10
270.739990
 20
226.576569
 11
250.740005
 21
226.576569
  0
LINE
  8
0
  6
CONTINUOUS
 10
270.739990
 20
228.576569
 11
270.739990
 21
226.576569
  0
LINE
  8
0
  6
CONTINUOUS
 10
250.740005
 20
228.576569
 11
250.740005
 21
226.576569
  0
LINE
  8
0
  6
CONTINUOUS
 10
249.240005
 20
196.576569
 11
249.240005
 21
223.576569
  0
LINE
  8
0
  6
CONTINUOUS
 10
249.240005
 20
223.576569
 11
252.255005
 21
223.576569
  0
LINE
  8
0
  6
CONTINUOUS
 10
252.255005
 20
196.576569
 11
252.255005
 21
223.576569
  0
LINE
  8
0
  6
CONTINUOUS
 10
311.239990
 20
318.576569
 11
210.240005
 21
318.576569
  0
LINE
  8
0
  6
CONTINUOUS
 10
212.414795
 20
235.524216
 11
210.240005
 21
318.576569
  0
LINE
  8
0
  6
CONTINUOUS
 10
309.448792
 20
308.576569
 11
212.450180
 21
308.576569
  0
ARC
  8
0
  6
CONTINUOUS
 10
212.450180
 20
310.576569
 40
2.000000
 50
181.500000
 51
270.000000
  0
ARC
  8
0
  6
CONTINUOUS
 10
214.414124
 20
235.576569
 40
2.000000
 50
181.500000
 51
270.000000
  0
ARC
  8
0
  6
CONTINUOUS
 10
241.740005
 20
306.576569
 40
2.000000
 50
0.000000
 51
90.000000
  0
ARC
  8
0
  6
CONTINUOUS
 10
279.739990
 20
306.576569
 40
2.000000
 50
90.000000
 51
180.000000
  0
LINE
  8
0
  6
CONTINUOUS
 10
277.881927
 20
307.316559
 11
243.598068
 21
307.316559
  0
ARC
  8
0
  6
CONTINUOUS
 10
309.448792
 20
310.576569
 40
2.000000
 50
-90.000000
 51
1.500000
  0
ARC
  8
0
  6
CONTINUOUS
 10
313.266876
 20
317.576569
 40
2.000000
 50
181.500000
 51
270.000000
  0
LINE
  8
0
  6
CONTINUOUS
 10
311.398499
 20
227.524216
 11
311.291016
 21
231.628922
  0
ARC
  8
0
  6
CONTINUOUS
 10
313.397797
 20
227.576569
 40
2.000000
 50
181.500000
 51
270.000000
  0
ARC
  8
0
  6
CONTINUOUS
 10
309.291687
 20
231.576569
 40
2.000000
 50
1.500000
 51
90.000000
  0
ARC
  8
0
  6
CONTINUOUS
 10
309.291687
 20
235.576569
 40
2.000000
 50
270.000000
 51
358.500000
  0
LINE
  8
0
  6
CENTER
 10
220.740005
 20
326.265167
 11
220.740005
 21
302.402496
  0
LINE
  8
0
  6
DASHED
 10
216.490005
 20
308.576569
 11
216.490005
 21
318.576569
  0
LINE
  8
0
  6
DASHED
 10
224.990005
 20
308.576569
 11
224.990005
 21
318.576569
  0
LINE
  8
0
  6
CENTER
 10
300.739990
 20
326.265167
 11
300.739990
 21
302.402496
  0
LINE
  8
0
  6
DASHED
 10
304.989990
 20
308.576569
 11
304.989990
 21
318.576569
  0
LINE
  8
0
  6
DASHED
 10
296.489990
 20
308.576569
 11
296.489990
 21
318.576569
  0
LINE
  8
0
  6
CONTINUOUS
 10
393.239990
 20
225.576569
 11
383.739990
 21
225.576569
  0
LINE
  8
0
  6
CONTINUOUS
 10
383.739990
 20
241.576569
 11
393.239990
 21
241.576569
  0
LINE
  8
0
  6
CONTINUOUS
 10
393.239990
 20
315.576569
 11
383.739990
 21
315.576569
  0
LINE
  8
0
  6
CONTINUOUS
 10
383.739990
 20
315.576569
 11
383.739990
 21
277.442596
  0
LINE
  8
0
  6
CONTINUOUS
 10
383.739990
 20
299.576569
 11
393.239990
 21
299.576569
  0
LINE
  8
0
  6
CONTINUOUS
 10
390.239990
 20
276.576569
 11
390.239990
 21
264.576569
  0
LINE
  8
0
  6
CONTINUOUS
 10
383.239990
 20
276.576569
 11
383.239990
 21
264.576569
  0
LINE
  8
0
  6
CONTINUOUS
 10
389.239990
 20
263.576569
 11
384.239990
 21
263.576569
  0
LINE
  8
0
  6
CONTINUOUS
 10
384.239990
 20
277.576569
 11
389.239990
 21
277.576569
  0
ARC
  8
0
  6
CONTINUOUS
 10
384.239990
 20
264.576569
 40
1.000000
 50
180.000000
 51
270.000000
  0
ARC
  8
0
  6
CONTINUOUS
 10
389.239990
 20
264.576569
 40
1.000000
 50
-90.000000
 51
0.000000
  0
ARC
  8
0
  6
CONTINUOUS
 10
389.239990
 20
276.576569
 40
1.000000
 50
0.000000
 51
90.000000
  0
ARC
  8
0
  6
CONTINUOUS
 10
384.239990
 20
276.576569
 40
1.000000
 50
90.000000
 51
180.000000
  0
LINE
  8
0
  6
CONTINUOUS
 10
385.739990
 20
274.076569
 11
385.739990
 21
267.076569
  0
LINE
  8
0
  6
CONTINUOUS
 10
387.739990
 20
274.076569
 11
387.739990
 21
267.076569
  0
ARC
  8
0
  6
CONTINUOUS
 10
386.739990
 20
267.076569
 40
1.000000
 50
-90.000000
 51
0.000000
  0
ARC
  8
0
  6
CONTINUOUS
 10
386.739990
 20
267.076569
 40
1.000000
 50
180.000000
 51
270.000000
  0
ARC
  8
0
  6
CONTINUOUS
 10
386.739990
 20
274.076569
 40
1.000000
 50
0.000000
 51
90.000000
  0
ARC
  8
0
  6
CONTINUOUS
 10
386.739990
 20
274.076569
 40
1.000000
 50
90.000000
 51
180.000000
  0
LINE
  8
0
  6
CONTINUOUS
 10
383.739990
 20
263.710541
 11
383.739990
 21
225.576569
  0
LINE
  8
0
  6
CONTINUOUS
 10
393.239990
 20
223.576569
 11
393.239990
 21
317.576569
  0
LINE
  8
0
  6
CONTINUOUS
 10
393.239990
 20
241.576569
 11
437.215027
 21
241.576569
  0
LINE
  8
0
  6
CONTINUOUS
 10
393.239990
 20
299.576569
 11
437.215027
 21
299.576569
  0
LINE
  8
0
  6
CONTINUOUS
 10
435.740021
 20
223.576569
 11
393.239990
 21
223.576569
  0
LINE
  8
0
  6
CONTINUOUS
 10
435.740021
 20
317.576569
 11
393.239990
 21
317.576569
  0
ARC
  8
0
  6
CONTINUOUS
 10
435.739990
 20
228.576569
 40
5.000000
 50
-90.000000
 51
0.000000
  0
ARC
  8
0
  6
CONTINUOUS
 10
435.740021
 20
312.576569
 40
5.000000
 50
0.000000
 51
90.000000
  0
LINE
  8
0
  6
CONTINUOUS
 10
440.739990
 20
228.576569
 11
440.740021
 21
312.576569
  0
ARC
  8
0
  6
CONTINUOUS
 10
393.239990
 20
309.846405
 40
4.500000
 50
180.000000
 51
270.000000
  0
ARC
  8
0
  6
CONTINUOUS
 10
393.239990
 20
309.846405
 40
3.000000
 50
180.000000
 51
270.000000
  0
ARC
  8
0
  6
CONTINUOUS
 10
393.239990
 20
309.846405
 40
1.500000
 50
180.000000
 51
270.000000
  0
LINE
  8
0
  6
CONTINUOUS
 10
391.739990
 20
309.846405
 11
391.739990
 21
314.862000
  0
LINE
  8
0
  6
CONTINUOUS
 10
390.239990
 20
309.846405
 11
390.239990
 21
314.346405
  0
LINE
  8
0
  6
CONTINUOUS
 10
388.739990
 20
309.846405
 11
388.739990
 21
314.346405
  0
LINE
  8
0
  6
CONTINUOUS
 10
391.739990
 20
314.846405
 11
390.239990
 21
314.346405
  0
LINE
  8
0
  6
CONTINUOUS
 10
390.239990
 20
313.846405
 11
388.739990
 21
314.346405
  0
TEXT
  8
0
 10
-46.000000
 20
5.000000
 40
4.000000
 41
1.000000
  1
HFMN-18L-10~240-T90
 50
0.000000
  0
ENDSEC
  0
EOF
