  0
SECTION
  2
HEADER
  9
$CLAYER
  8
1
  9
$LTSCALE
 40
3.0
  0
ENDSEC
  0
SECTION
  2
TABLES
  0
TABLE
  2
LTYPE
 70
     4
  0
LTYPE
  2
CONTINUOUS
  3
solid line
 70
    64
 72
    65
 73
     0
 40
0.0
  0
LTYPE
  2
DASHED
  3
__ __ __ __ __ __ __ __ __ __ __ __ __ __ __
 70
    64
 72
    65
 73
     2
 40
0.75
 49
0.5
 49
-0.25
  0
LTYPE
  2
CENTER
  3
____ _ ____ _ ____ _ ____ _ ____ _ ____ _ ____
 70
    64
 72
    65
 73
     4
 40
2.0
 49
1.25
 49
-0.25
 49
0.25
 49
-0.25
  0
LTYPE
  2
PHANTOM
  3
_____ _ _ _____ _ _ _____ _ _ _____ _ _ ____
 70
    64
 72
    65
 73
     6
 40
2.5
 49
1.25
 49
-0.25
 49
0.25
 49
-0.25
 49
0.25
 49
-0.25
  0
ENDTAB
  0
TABLE
  2
LAYER
 70
     1
  0
LAYER
  2
0
 70
    64
 62
     7
  6
CONTINUOUS
  0
ENDTAB
  0
TABLE
  2
STYLE
 70
     1
  0
STYLE
  2
STANDARD
 70
     0
 40
0.000000
 41
1.000000
 50
0.000000
 71
     0
 42
3.000000
  3
txt
  4
BIGFONT
  0
ENDTAB
  0
ENDSEC
  0
SECTION
  2
BLOCKS
  0
ENDSEC
  0
SECTION
  2
ENTITIES
  0
LINE
  8
0
  6
CONTINUOUS
 10
58.249989
 20
8.750000
 11
58.249989
 21
98.750000
  0
LINE
  8
0
  6
CENTER
 10
58.249989
 20
53.750000
 11
153.136703
 21
53.750000
  0
LINE
  8
0
  6
CONTINUOUS
 10
231.750000
 20
34.950001
 11
231.750000
 21
93.949997
  0
LINE
  8
0
  6
CONTINUOUS
 10
58.249989
 20
98.750000
 11
131.095703
 21
98.750000
  0
LINE
  8
0
  6
CONTINUOUS
 10
128.750000
 20
8.750000
 11
58.249989
 21
8.750000
  0
LINE
  8
0
  6
CENTER
 10
146.299698
 20
79.449997
 11
217.750000
 21
79.449997
  0
LINE
  8
0
  6
CENTER
 10
181.250000
 20
132.000000
 11
181.250000
 21
-3.990300
  0
LINE
  8
0
  6
CONTINUOUS
 10
141.250000
 20
123.449997
 11
221.250000
 21
123.449997
  0
LINE
  8
0
  6
CONTINUOUS
 10
141.250000
 20
5.450000
 11
221.250000
 21
5.450000
  0
LINE
  8
0
  6
CENTER
 10
214.250000
 20
114.449997
 11
228.125000
 21
114.449997
  0
LINE
  8
0
  6
CENTER
 10
221.250000
 20
107.750000
 11
221.250000
 21
121.250000
  0
CIRCLE
  8
0
  6
CONTINUOUS
 10
221.250000
 20
114.449997
 40
4.250000
  0
LINE
  8
0
  6
CENTER
 10
214.250000
 20
14.450000
 11
228.125000
 21
14.450000
  0
LINE
  8
0
  6
CENTER
 10
221.250000
 20
21.150000
 11
221.250000
 21
7.650000
  0
CIRCLE
  8
0
  6
CONTINUOUS
 10
221.250000
 20
14.450000
 40
4.250000
  0
LINE
  8
0
  6
CENTER
 10
148.250000
 20
114.449997
 11
134.375000
 21
114.449997
  0
LINE
  8
0
  6
CENTER
 10
141.250000
 20
107.750000
 11
141.250000
 21
121.250000
  0
CIRCLE
  8
0
  6
CONTINUOUS
 10
141.250000
 20
114.449997
 40
4.250000
  0
LINE
  8
0
  6
CENTER
 10
148.250000
 20
14.450000
 11
134.375000
 21
14.450000
  0
LINE
  8
0
  6
CENTER
 10
141.250000
 20
21.150000
 11
141.250000
 21
7.650000
  0
CIRCLE
  8
0
  6
CONTINUOUS
 10
141.250000
 20
14.450000
 40
4.250000
  0
LINE
  8
0
  6
CONTINUOUS
 10
230.226700
 20
115.096626
 11
231.750000
 21
93.949997
  0
LINE
  8
0
  6
CONTINUOUS
 10
230.226700
 20
13.803440
 11
231.750000
 21
34.950001
  0
LINE
  8
0
  6
CONTINUOUS
 10
155.250000
 20
119.449997
 11
207.250000
 21
119.449997
  0
LINE
  8
0
  6
CONTINUOUS
 10
207.250000
 20
9.450000
 11
155.250000
 21
9.450000
  0
LINE
  8
0
  6
CONTINUOUS
 10
133.250000
 20
80.142189
 11
133.250000
 21
48.757481
  0
ARC
  8
0
  6
CONTINUOUS
 10
181.250000
 20
64.449997
 40
50.500000
 50
18.103800
 51
161.896194
  0
ARC
  8
0
  6
CONTINUOUS
 10
181.250000
 20
64.449997
 40
50.500000
 50
198.103806
 51
341.896210
  0
LINE
  8
0
  6
CONTINUOUS
 10
229.250000
 20
80.142357
 11
229.250000
 21
48.757965
  0
ARC
  8
0
  6
CONTINUOUS
 10
207.250000
 20
114.449997
 40
5.000000
 50
0.000000
 51
90.000000
  0
ARC
  8
0
  6
CONTINUOUS
 10
222.255905
 20
100.486183
 40
5.000000
 50
4.120544
 51
94.120201
  0
ARC
  8
0
  6
CONTINUOUS
 10
221.250000
 20
114.449997
 40
9.000000
 50
180.000000
 51
274.120697
  0
ARC
  8
0
  6
CONTINUOUS
 10
221.250000
 20
114.449997
 40
9.000000
 50
4.120065
 51
90.000000
  0
ARC
  8
0
  6
CONTINUOUS
 10
207.250000
 20
14.450000
 40
5.000000
 50
-90.000000
 51
0.000000
  0
ARC
  8
0
  6
CONTINUOUS
 10
222.255905
 20
28.413820
 40
5.000000
 50
265.879791
 51
355.879486
  0
ARC
  8
0
  6
CONTINUOUS
 10
221.250000
 20
14.450000
 40
9.000000
 50
270.000000
 51
355.879913
  0
ARC
  8
0
  6
CONTINUOUS
 10
221.250000
 20
14.450000
 40
9.000000
 50
85.879837
 51
180.000000
  0
LINE
  8
0
  6
CONTINUOUS
 10
227.242905
 20
100.845459
 11
229.250000
 21
80.142357
  0
LINE
  8
0
  6
CONTINUOUS
 10
227.242905
 20
28.054581
 11
229.250107
 21
48.757961
  0
ARC
  8
0
  6
CONTINUOUS
 10
155.250000
 20
114.449997
 40
5.000000
 50
90.000000
 51
180.000000
  0
ARC
  8
0
  6
CONTINUOUS
 10
141.250000
 20
114.449997
 40
9.000000
 50
-94.120667
 51
0.000000
  0
ARC
  8
0
  6
CONTINUOUS
 10
140.244095
 20
100.486183
 40
5.000000
 50
85.879799
 51
175.879501
  0
LINE
  8
0
  6
CONTINUOUS
 10
135.257004
 20
100.845459
 11
133.250000
 21
80.142357
  0
ARC
  8
0
  6
CONTINUOUS
 10
140.244095
 20
28.413820
 40
5.000000
 50
-175.879501
 51
-85.879791
  0
ARC
  8
0
  6
CONTINUOUS
 10
141.250000
 20
14.450000
 40
9.000000
 50
0.000000
 51
94.120163
  0
ARC
  8
0
  6
CONTINUOUS
 10
155.250000
 20
14.450000
 40
5.000000
 50
180.000000
 51
270.000000
  0
LINE
  8
0
  6
CONTINUOUS
 10
135.257004
 20
28.054581
 11
133.249893
 21
48.757961
  0
ARC
  8
0
  6
CONTINUOUS
 10
141.250000
 20
114.449997
 40
9.000000
 50
90.000000
 51
175.879898
  0
LINE
  8
0
  6
CONTINUOUS
 10
132.273193
 20
115.096626
 11
130.750000
 21
93.949997
  0
LINE
  8
0
  6
CONTINUOUS
 10
132.273193
 20
13.803440
 11
130.750000
 21
34.950001
  0
ARC
  8
0
  6
CONTINUOUS
 10
141.250000
 20
14.450000
 40
9.000000
 50
-175.879898
 51
-90.000000
  0
ARC
  8
0
  6
CONTINUOUS
 10
135.750000
 20
18.750031
 40
5.000000
 50
143.994797
 51
180.000000
  0
ARC
  8
0
  6
CONTINUOUS
 10
128.750000
 20
10.750000
 40
2.000000
 50
-90.000000
 51
0.000000
  0
LINE
  8
0
  6
CONTINUOUS
 10
130.750000
 20
10.750000
 11
130.750000
 21
18.750031
  0
LINE
  8
0
  6
CONTINUOUS
 10
130.750000
 20
93.949997
 11
130.750000
 21
34.949989
  0
LINE
  8
0
  6
CONTINUOUS
 10
58.249989
 20
88.159302
 11
128.750000
 21
88.159302
  0
LINE
  8
0
  6
CONTINUOUS
 10
58.249989
 20
19.340691
 11
129.250000
 21
19.340691
  0
CIRCLE
  8
0
  6
CONTINUOUS
 10
181.250000
 20
79.449997
 40
23.500000
  0
LINE
  8
0
  6
CONTINUOUS
 10
174.875000
 20
42.003231
 11
174.875000
 21
36.450001
  0
LINE
  8
0
  6
CONTINUOUS
 10
178.062500
 20
44.020317
 11
178.062500
 21
46.012505
  0
LINE
  8
0
  6
CONTINUOUS
 10
184.437500
 20
44.020317
 11
184.437500
 21
46.012505
  0
LINE
  8
0
  6
CONTINUOUS
 10
180.627396
 20
44.842094
 11
180.627396
 21
37.495899
  0
LINE
  8
0
  6
CONTINUOUS
 10
181.822800
 20
44.842094
 11
181.822800
 21
37.495899
  0
LINE
  8
0
  6
CONTINUOUS
 10
188.098099
 20
44.842094
 11
188.098099
 21
37.446098
  0
LINE
  8
0
  6
CONTINUOUS
 10
189.193802
 20
40.919979
 11
189.193802
 21
37.446098
  0
LINE
  8
0
  6
CONTINUOUS
 10
173.362503
 20
44.742485
 11
170.290604
 21
44.742485
  0
LINE
  8
0
  6
CONTINUOUS
 10
170.290604
 20
44.742485
 11
169.570801
 21
43.849991
  0
LINE
  8
0
  6
CONTINUOUS
 10
169.657394
 20
46.012505
 11
168.500000
 21
44.530510
  0
LINE
  8
0
  6
CONTINUOUS
 10
169.570801
 20
38.340931
 11
170.302094
 21
37.570610
  0
LINE
  8
0
  6
CONTINUOUS
 10
168.500000
 20
37.690861
 11
169.729797
 21
36.450001
  0
LINE
  8
0
  6
CONTINUOUS
 10
168.500000
 20
44.530510
 11
168.500000
 21
37.690861
  0
LINE
  8
0
  6
CONTINUOUS
 10
169.570801
 20
43.849991
 11
169.570801
 21
38.340931
  0
LINE
  8
0
  6
CONTINUOUS
 10
173.953598
 20
44.171043
 11
173.350403
 21
44.742485
  0
LINE
  8
0
  6
CONTINUOUS
 10
173.944000
 20
46.012505
 11
174.875000
 21
44.979362
  0
LINE
  8
0
  6
CONTINUOUS
 10
173.953598
 20
44.020317
 11
174.875000
 21
44.020317
  0
LINE
  8
0
  6
CONTINUOUS
 10
169.657394
 20
46.012505
 11
173.944000
 21
46.012505
  0
LINE
  8
0
  6
CONTINUOUS
 10
173.953598
 20
40.957329
 11
172.285202
 21
40.957329
  0
LINE
  8
0
  6
CONTINUOUS
 10
173.953598
 20
39.961239
 11
173.953598
 21
40.758110
  0
LINE
  8
0
  6
CONTINUOUS
 10
171.961395
 20
37.570610
 11
170.302094
 21
37.570610
  0
ARC
  8
0
  6
CONTINUOUS
 10
171.961395
 20
39.562801
 40
1.992187
 50
-89.999786
 51
0.000109
  0
LINE
  8
0
  6
CONTINUOUS
 10
173.953598
 20
37.212269
 11
173.953598
 21
36.450001
  0
LINE
  8
0
  6
CONTINUOUS
 10
174.875000
 20
44.979362
 11
174.875000
 21
44.020317
  0
LINE
  8
0
  6
CONTINUOUS
 10
173.953598
 20
40.957329
 11
173.953598
 21
39.562801
  0
LINE
  8
0
  6
CONTINUOUS
 10
172.285202
 20
42.003231
 11
172.285202
 21
40.957329
  0
LINE
  8
0
  6
CONTINUOUS
 10
173.953598
 20
36.450001
 11
174.875000
 21
36.450001
  0
LINE
  8
0
  6
CONTINUOUS
 10
173.953598
 20
37.212269
 11
173.045105
 21
36.450001
  0
LINE
  8
0
  6
CONTINUOUS
 10
181.822800
 20
37.495899
 11
182.221207
 21
37.495899
  0
LINE
  8
0
  6
CONTINUOUS
 10
180.154297
 20
37.495899
 11
180.154297
 21
36.450001
  0
LINE
  8
0
  6
CONTINUOUS
 10
182.221207
 20
37.495899
 11
182.221207
 21
36.450001
  0
LINE
  8
0
  6
CONTINUOUS
 10
183.772507
 20
44.020317
 11
184.437500
 21
44.020317
  0
LINE
  8
0
  6
CONTINUOUS
 10
178.062500
 20
44.020317
 11
178.770096
 21
44.020317
  0
LINE
  8
0
  6
CONTINUOUS
 10
178.062500
 20
46.012505
 11
184.437500
 21
46.012505
  0
LINE
  8
0
  6
CONTINUOUS
 10
180.154297
 20
36.450001
 11
182.221207
 21
36.450001
  0
LINE
  8
0
  6
CONTINUOUS
 10
180.154297
 20
37.495899
 11
180.627396
 21
37.495899
  0
ARC
  8
0
  6
CONTINUOUS
 10
191.447495
 20
43.460011
 40
2.552490
 50
-73.981873
 51
90.003510
  0
ARC
  8
0
  6
CONTINUOUS
 10
191.447495
 20
43.460011
 40
1.557193
 50
-82.585274
 51
62.411850
  0
LINE
  8
0
  6
CONTINUOUS
 10
187.625000
 20
46.012505
 11
191.447495
 21
46.012505
  0
LINE
  8
0
  6
CONTINUOUS
 10
187.625000
 20
46.012505
 11
187.625000
 21
44.842094
  0
LINE
  8
0
  6
CONTINUOUS
 10
189.193802
 20
44.842094
 11
189.193802
 21
41.915840
  0
LINE
  8
0
  6
CONTINUOUS
 10
192.151901
 20
41.006630
 11
193.731705
 21
37.446098
  0
LINE
  8
0
  6
CONTINUOUS
 10
191.234299
 20
40.919979
 11
192.729401
 21
37.446098
  0
LINE
  8
0
  6
CONTINUOUS
 10
187.625000
 20
37.446098
 11
188.098099
 21
37.446098
  0
LINE
  8
0
  6
CONTINUOUS
 10
189.193802
 20
37.446098
 11
189.629593
 21
37.446098
  0
LINE
  8
0
  6
CONTINUOUS
 10
189.629593
 20
36.450001
 11
187.625000
 21
36.450001
  0
LINE
  8
0
  6
CONTINUOUS
 10
192.530807
 20
37.446098
 11
192.729401
 21
37.446098
  0
LINE
  8
0
  6
CONTINUOUS
 10
193.731705
 20
37.446098
 11
194.000000
 21
37.446098
  0
LINE
  8
0
  6
CONTINUOUS
 10
192.530807
 20
36.450001
 11
194.000000
 21
36.450001
  0
LINE
  8
0
  6
CONTINUOUS
 10
194.000000
 20
37.446098
 11
194.000000
 21
36.450001
  0
LINE
  8
0
  6
CONTINUOUS
 10
192.530807
 20
37.446098
 11
192.530807
 21
36.450001
  0
LINE
  8
0
  6
CONTINUOUS
 10
189.629593
 20
37.446098
 11
189.629593
 21
36.450001
  0
LINE
  8
0
  6
CONTINUOUS
 10
187.625000
 20
37.446098
 11
187.625000
 21
36.450001
  0
LINE
  8
0
  6
CONTINUOUS
 10
179.112503
 20
44.842094
 11
178.770096
 21
44.020317
  0
LINE
  8
0
  6
CONTINUOUS
 10
183.483795
 20
44.842094
 11
183.772507
 21
44.020317
  0
LINE
  8
0
  6
CONTINUOUS
 10
181.822800
 20
44.842094
 11
183.483795
 21
44.842094
  0
LINE
  8
0
  6
CONTINUOUS
 10
180.627396
 20
44.842094
 11
179.112503
 21
44.842094
  0
LINE
  8
0
  6
CONTINUOUS
 10
187.625000
 20
44.842094
 11
188.098099
 21
44.842094
  0
LINE
  8
0
  6
CONTINUOUS
 10
189.193802
 20
44.842094
 11
192.168701
 21
44.840157
  0
LINE
  8
0
  6
CONTINUOUS
 10
173.953598
 20
44.171043
 11
173.953598
 21
44.020317
  0
LINE
  8
0
  6
CONTINUOUS
 10
169.729797
 20
36.450001
 11
173.045105
 21
36.450001
  0
LINE
  8
0
  6
CONTINUOUS
 10
189.193802
 20
41.915840
 11
191.648499
 21
41.915840
  0
LINE
  8
0
  6
CONTINUOUS
 10
189.193802
 20
40.919979
 11
191.234299
 21
40.919979
  0
LINE
  8
0
  6
CONTINUOUS
 10
172.285202
 20
42.003231
 11
174.875000
 21
42.003231
  0
LINE
  8
0
  6
CONTINUOUS
 10
167.250000
 20
118.518799
 11
167.250000
 21
112.970612
  0
LINE
  8
0
  6
CONTINUOUS
 10
195.250000
 20
118.518799
 11
195.250000
 21
112.970619
  0
LINE
  8
0
  6
CONTINUOUS
 10
167.250000
 20
15.929390
 11
167.250000
 21
10.655370
  0
LINE
  8
0
  6
CONTINUOUS
 10
195.250000
 20
15.929390
 11
195.250000
 21
10.655370
  0
LINE
  8
0
  6
CENTER
 10
381.250000
 20
-1.250000
 11
381.250000
 21
158.750000
  0
LINE
  8
0
  6
CONTINUOUS
 10
339.250000
 20
101.949989
 11
339.250000
 21
56.949993
  0
LINE
  8
0
  6
CONTINUOUS
 10
418.250000
 20
114.501877
 11
418.250000
 21
14.398080
  0
LINE
  8
0
  6
CENTER
 10
299.750000
 20
79.449997
 11
433.783112
 21
79.449997
  0
LINE
  8
0
  6
CONTINUOUS
 10
343.250000
 20
102.949997
 11
340.250000
 21
102.949997
  0
LINE
  8
0
  6
CONTINUOUS
 10
343.250000
 20
55.949997
 11
340.250000
 21
55.949997
  0
LINE
  8
0
  6
CONTINUOUS
 10
341.715393
 20
123.449997
 11
333.250000
 21
123.449997
  0
LINE
  8
0
  6
CONTINUOUS
 10
341.715393
 20
5.450000
 11
333.250000
 21
5.450000
  0
LINE
  8
0
  6
CONTINUOUS
 10
415.302307
 20
117.501442
 11
345.215088
 21
118.724533
  0
LINE
  8
0
  6
CONTINUOUS
 10
346.773102
 20
10.202110
 11
415.302399
 21
11.398550
  0
LINE
  8
0
  6
CONTINUOUS
 10
416.564514
 20
93.949997
 11
348.415802
 21
93.949997
  0
LINE
  8
0
  6
CONTINUOUS
 10
416.564514
 20
34.950001
 11
346.250000
 21
34.950001
  0
ARC
  8
0
  6
CONTINUOUS
 10
415.250000
 20
114.501877
 40
3.000000
 50
0.000000
 51
89.000359
  0
ARC
  8
0
  6
CONTINUOUS
 10
415.250000
 20
14.398080
 40
3.000000
 50
-88.999687
 51
0.000000
  0
ARC
  8
0
  6
CONTINUOUS
 10
346.250000
 20
31.950020
 40
3.000000
 50
90.000000
 51
180.000000
  0
LINE
  8
0
  6
CENTER
 10
328.187500
 20
14.450000
 11
347.937500
 21
14.450000
  0
LINE
  8
0
  6
CENTER
 10
329.937500
 20
114.449997
 11
346.937500
 21
114.449997
  0
LINE
  8
0
  6
DASHED
 10
333.250000
 20
110.199997
 11
343.250000
 21
110.199997
  0
LINE
  8
0
  6
DASHED
 10
333.250000
 20
118.699997
 11
343.250000
 21
118.699997
  0
LINE
  8
0
  6
DASHED
 10
333.250000
 20
18.700001
 11
343.250000
 21
18.700001
  0
LINE
  8
0
  6
DASHED
 10
333.250000
 20
10.200000
 11
343.250000
 21
10.200000
  0
LINE
  8
0
  6
CONTINUOUS
 10
355.250000
 20
8.750000
 11
407.250000
 21
8.750000
  0
ARC
  8
0
  6
CONTINUOUS
 10
407.250000
 20
11.750000
 40
3.000000
 50
270.000000
 51
351.561890
  0
ARC
  8
0
  6
CONTINUOUS
 10
355.250000
 20
11.750000
 40
3.000000
 50
208.811905
 51
270.000000
  0
ARC
  8
0
  6
CONTINUOUS
 10
340.250000
 20
56.949993
 40
1.000000
 50
180.000000
 51
270.000000
  0
ARC
  8
0
  6
CONTINUOUS
 10
340.250000
 20
101.949989
 40
1.000000
 50
90.000000
 51
180.000000
  0
ARC
  8
0
  6
CONTINUOUS
 10
381.250000
 20
53.750000
 40
45.000000
 50
-34.692108
 51
21.039440
  0
LINE
  8
0
  6
CONTINUOUS
 10
423.250000
 20
101.949989
 11
423.250000
 21
56.949993
  0
LINE
  8
0
  6
CONTINUOUS
 10
420.250000
 20
102.949997
 11
422.250000
 21
102.949997
  0
LINE
  8
0
  6
CONTINUOUS
 10
420.250000
 20
55.949997
 11
422.250000
 21
55.949997
  0
ARC
  8
0
  6
CONTINUOUS
 10
420.250000
 20
104.949997
 40
2.000000
 50
180.000000
 51
270.000000
  0
ARC
  8
0
  6
CONTINUOUS
 10
420.250000
 20
53.950008
 40
2.000000
 50
90.000000
 51
180.000000
  0
ARC
  8
0
  6
CONTINUOUS
 10
422.250000
 20
56.949993
 40
1.000000
 50
-90.000000
 51
0.000000
  0
ARC
  8
0
  6
CONTINUOUS
 10
422.250000
 20
101.949989
 40
1.000000
 50
0.000000
 51
90.000000
  0
LINE
  8
0
  6
CONTINUOUS
 10
333.250000
 20
107.166122
 11
340.687500
 21
106.187500
  0
LINE
  8
0
  6
CONTINUOUS
 10
340.687500
 20
106.187500
 11
345.687500
 21
102.937500
  0
LINE
  8
0
  6
CONTINUOUS
 10
348.601593
 20
93.522499
 11
350.062500
 21
92.562500
  0
LINE
  8
0
  6
CONTINUOUS
 10
350.062500
 20
92.562500
 11
349.562500
 21
86.562500
  0
LINE
  8
0
  6
CONTINUOUS
 10
349.562500
 20
86.562500
 11
347.562500
 21
83.062500
  0
LINE
  8
0
  6
CONTINUOUS
 10
347.562500
 20
83.062500
 11
349.437500
 21
77.562500
  0
LINE
  8
0
  6
CONTINUOUS
 10
349.437500
 20
77.562500
 11
348.812500
 21
71.812500
  0
LINE
  8
0
  6
CONTINUOUS
 10
348.812500
 20
71.812500
 11
348.187500
 21
65.562500
  0
LINE
  8
0
  6
CONTINUOUS
 10
348.187500
 20
65.562500
 11
349.312500
 21
60.937500
  0
LINE
  8
0
  6
CONTINUOUS
 10
349.312500
 20
60.937500
 11
348.187500
 21
56.687500
  0
LINE
  8
0
  6
CONTINUOUS
 10
348.187500
 20
56.687500
 11
344.937500
 21
51.812500
  0
LINE
  8
0
  6
CONTINUOUS
 10
344.937500
 20
51.812500
 11
340.437500
 21
49.812500
  0
LINE
  8
0
  6
CONTINUOUS
 10
340.437500
 20
49.812500
 11
336.187500
 21
47.187500
  0
LINE
  8
0
  6
CONTINUOUS
 10
336.187500
 20
47.187500
 11
333.250000
 21
46.790543
  0
LINE
  8
0
  6
CONTINUOUS
 10
345.687500
 20
102.937500
 11
346.437500
 21
98.500000
  0
LINE
  8
0
  6
CONTINUOUS
 10
346.437500
 20
98.500000
 11
348.601593
 21
93.522499
  0
LINE
  8
0
  6
CONTINUOUS
 10
343.250000
 20
121.449997
 11
343.250000
 21
51.062496
  0
LINE
  8
0
  6
CONTINUOUS
 10
343.250000
 20
8.175220
 11
343.250000
 21
7.450000
  0
LINE
  8
0
  6
CONTINUOUS
 10
333.250000
 20
123.449997
 11
333.250000
 21
88.449997
  0
LINE
  8
0
  6
CONTINUOUS
 10
333.250000
 20
5.450000
 11
333.250000
 21
70.449997
  0
LINE
  8
0
  6
CENTER
 10
328.000000
 20
53.750000
 11
437.000000
 21
53.750000
  0
ARC
  8
0
  6
CONTINUOUS
 10
341.250000
 20
121.449989
 40
2.000000
 50
0.000000
 51
90.000000
  0
ARC
  8
0
  6
CONTINUOUS
 10
341.715393
 20
121.449989
 40
2.000000
 50
15.000500
 51
90.000000
  0
ARC
  8
0
  6
CONTINUOUS
 10
345.250000
 20
120.724251
 40
2.000000
 50
180.000000
 51
269.000610
  0
ARC
  8
0
  6
CONTINUOUS
 10
346.825592
 20
121.696899
 40
3.000000
 50
195.000504
 51
269.000610
  0
LINE
  8
0
  6
CONTINUOUS
 10
343.647186
 20
121.967644
 11
343.927795
 21
120.920403
  0
LINE
  8
0
  6
CONTINUOUS
 10
343.927704
 20
7.979030
 11
343.647186
 21
6.932370
  0
ARC
  8
0
  6
CONTINUOUS
 10
341.250000
 20
7.450000
 40
2.000000
 50
-90.000000
 51
0.000000
  0
ARC
  8
0
  6
CONTINUOUS
 10
341.715393
 20
7.450010
 40
2.000000
 50
270.000000
 51
345.000000
  0
LINE
  8
0
  6
CONTINUOUS
 10
343.250000
 20
8.175220
 11
343.250000
 21
31.950010
  0
ARC
  8
0
  6
CONTINUOUS
 10
345.250000
 20
8.175230
 40
2.000000
 50
91.000633
 51
180.000000
  0
LINE
  8
0
  6
CONTINUOUS
 10
346.773102
 20
10.202110
 11
345.215088
 21
10.174920
  0
ARC
  8
0
  6
CONTINUOUS
 10
346.825409
 20
7.202580
 40
3.000000
 50
91.000526
 51
165.000107
  0
LINE
  8
0
  6
CONTINUOUS
 10
428.250000
 20
79.850502
 11
428.250000
 21
27.649490
  0
LINE
  8
0
  6
CONTINUOUS
 10
407.350494
 20
6.750000
 11
355.149506
 21
6.750000
  0
LINE
  8
0
  6
CONTINUOUS
 10
426.199707
 20
84.800247
 11
423.250000
 21
87.749977
  0
LINE
  8
0
  6
CONTINUOUS
 10
350.199707
 20
8.800240
 11
348.763092
 21
10.236850
  0
ARC
  8
0
  6
CONTINUOUS
 10
355.149506
 20
13.750000
 40
7.000000
 50
225.000107
 51
270.000000
  0
ARC
  8
0
  6
CONTINUOUS
 10
407.350494
 20
13.750000
 40
7.000000
 50
270.000000
 51
315.000000
  0
ARC
  8
0
  6
CONTINUOUS
 10
421.250000
 20
27.649481
 40
7.000000
 50
-44.999882
 51
0.000000
  0
ARC
  8
0
  6
CONTINUOUS
 10
421.250000
 20
79.850479
 40
7.000000
 50
0.000000
 51
45.000229
  0
LINE
  8
0
  6
CONTINUOUS
 10
426.199707
 20
22.699751
 11
418.250000
 21
14.750000
  0
LINE
  8
0
  6
CONTINUOUS
 10
412.300293
 20
8.800250
 11
414.891388
 21
11.391370
  0
LINE
  8
0
  6
CONTINUOUS
 10
307.250000
 20
70.449997
 11
307.250000
 21
88.449997
  0
LINE
  8
0
  6
CONTINUOUS
 10
337.250000
 20
88.449997
 11
307.250000
 21
88.449997
  0
LINE
  8
0
  6
CONTINUOUS
 10
337.250000
 20
70.449997
 11
307.250000
 21
70.449997
  0
LINE
  8
0
  6
CONTINUOUS
 10
337.250000
 20
89.449997
 11
337.250000
 21
69.449997
  0
LINE
  8
0
  6
CONTINUOUS
 10
339.250000
 20
89.449997
 11
337.250000
 21
89.449997
  0
LINE
  8
0
  6
CONTINUOUS
 10
339.250000
 20
69.449997
 11
337.250000
 21
69.449997
  0
ARC
  8
0
  6
CONTINUOUS
 10
331.250000
 20
79.449997
 40
3.000000
 50
-90.000000
 51
90.000000
  0
LINE
  8
0
  6
CONTINUOUS
 10
331.250000
 20
82.449997
 11
307.250000
 21
82.449997
  0
LINE
  8
0
  6
CONTINUOUS
 10
331.250000
 20
76.449997
 11
307.250000
 21
76.449997
  0
LINE
  8
0
  6
CONTINUOUS
 10
186.750000
 20
76.450020
 11
186.750000
 21
82.450020
  0
LINE
  8
0
  6
CONTINUOUS
 10
192.750000
 20
76.450043
 11
192.750000
 21
82.450043
  0
LINE
  8
0
  6
CONTINUOUS
 10
192.750000
 20
76.450043
 11
186.750000
 21
76.450020
  0
LINE
  8
0
  6
CONTINUOUS
 10
192.750000
 20
82.450043
 11
186.750000
 21
82.450020
  0
ARC
  8
0
  6
CONTINUOUS
 10
181.250000
 20
79.449997
 40
9.000000
 50
19.471210
 51
340.528809
  0
LINE
  8
0
  6
CONTINUOUS
 10
48.750000
 20
98.750000
 11
58.250000
 21
98.750000
  0
LINE
  8
0
  6
CONTINUOUS
 10
58.250000
 20
88.159302
 11
48.750000
 21
88.159302
  0
LINE
  8
0
  6
CONTINUOUS
 10
48.750000
 20
8.750000
 11
58.250000
 21
8.750000
  0
LINE
  8
0
  6
CONTINUOUS
 10
58.250000
 20
19.340700
 11
48.750000
 21
19.340700
  0
LINE
  8
0
  6
CENTER
 10
-9.925000
 20
53.750000
 11
58.250000
 21
53.750000
  0
LINE
  8
0
  6
CONTINUOUS
 10
48.750000
 20
100.750000
 11
48.750000
 21
6.750000
  0
LINE
  8
0
  6
CONTINUOUS
 10
48.750000
 20
82.750000
 11
4.775000
 21
82.750000
  0
LINE
  8
0
  6
CONTINUOUS
 10
48.750000
 20
24.750000
 11
4.775002
 21
24.750000
  0
LINE
  8
0
  6
CONTINUOUS
 10
6.249998
 20
100.750000
 11
48.750000
 21
100.750000
  0
LINE
  8
0
  6
CONTINUOUS
 10
6.249999
 20
6.750000
 11
48.750000
 21
6.750000
  0
LINE
  8
0
  6
CONTINUOUS
 10
1.249998
 20
11.750000
 11
1.249998
 21
95.750000
  0
ARC
  8
0
  6
CONTINUOUS
 10
6.250023
 20
95.750023
 40
5.000000
 50
90.000000
 51
180.000000
  0
ARC
  8
0
  6
CONTINUOUS
 10
6.249998
 20
11.750000
 40
5.000000
 50
180.000000
 51
270.000000
  0
LINE
  8
0
  6
CONTINUOUS
 10
50.749989
 20
100.250000
 11
109.250000
 21
100.250000
  0
LINE
  8
0
  6
CONTINUOUS
 10
50.749989
 20
100.250000
 11
50.749989
 21
98.750000
  0
LINE
  8
0
  6
CONTINUOUS
 10
96.749977
 20
100.250000
 11
96.749977
 21
98.750000
  0
LINE
  8
0
  6
CONTINUOUS
 10
49.249989
 20
149.250000
 11
49.249989
 21
102.250000
  0
LINE
  8
0
  6
CONTINUOUS
 10
111.250000
 20
149.250015
 11
111.250000
 21
102.250000
  0
LINE
  8
0
  6
CONTINUOUS
 10
111.250000
 20
102.250000
 11
109.250000
 21
100.250000
  0
LINE
  8
0
  6
CONTINUOUS
 10
49.249989
 20
102.250000
 11
51.249989
 21
100.250000
  0
LINE
  8
0
  6
CONTINUOUS
 10
49.249989
 20
102.250000
 11
111.250000
 21
102.250000
  0
LINE
  8
0
  6
CONTINUOUS
 10
49.249989
 20
112.250023
 11
111.250000
 21
112.250023
  0
LINE
  8
0
  6
CENTER
 10
80.249977
 20
153.678986
 11
80.249977
 21
95.655991
  0
LINE
  8
0
  6
CONTINUOUS
 10
49.249989
 20
113.250023
 11
111.250000
 21
113.250023
  0
LINE
  8
0
  6
CONTINUOUS
 10
50.249989
 20
150.250000
 11
110.250000
 21
150.250015
  0
LINE
  8
0
  6
CONTINUOUS
 10
110.250000
 20
150.250015
 11
111.250000
 21
149.250015
  0
LINE
  8
0
  6
CONTINUOUS
 10
49.249989
 20
149.250000
 11
50.249989
 21
150.250000
  0
LINE
  8
0
  6
CONTINUOUS
 10
49.249989
 20
149.250000
 11
111.250000
 21
149.250015
  0
LINE
  8
0
  6
CENTER
 10
46.624989
 20
133.250015
 11
52.374989
 21
133.250015
  0
LINE
  8
0
  6
CONTINUOUS
 10
48.124989
 20
143.750015
 11
51.249989
 21
143.750015
  0
LINE
  8
0
  6
CONTINUOUS
 10
48.124989
 20
122.750023
 11
51.249989
 21
122.750023
  0
LINE
  8
0
  6
CONTINUOUS
 10
412.250000
 20
149.250000
 11
412.250000
 21
117.554703
  0
LINE
  8
0
  6
CONTINUOUS
 10
350.250000
 20
149.250000
 11
350.250000
 21
118.636673
  0
LINE
  8
0
  6
CONTINUOUS
 10
351.250000
 20
150.250000
 11
411.250000
 21
150.250000
  0
LINE
  8
0
  6
CONTINUOUS
 10
411.250000
 20
150.250000
 11
412.250000
 21
149.250000
  0
LINE
  8
0
  6
CONTINUOUS
 10
351.250000
 20
150.250000
 11
350.250000
 21
149.250000
  0
LINE
  8
0
  6
CONTINUOUS
 10
350.250000
 20
149.250000
 11
412.250000
 21
149.250000
  0
LINE
  8
0
  6
CENTER
 10
181.250000
 20
348.212494
 11
181.250000
 21
212.750000
  0
LINE
  8
0
  6
CENTER
 10
-14.322812
 20
293.043121
 11
245.391251
 21
293.043121
  0
LINE
  8
0
  6
CONTINUOUS
 10
227.575882
 20
330.043121
 11
132.698318
 21
330.043121
  0
LINE
  8
0
  6
CONTINUOUS
 10
130.540588
 20
322.045868
 11
130.699005
 21
328.095490
  0
LINE
  8
0
  6
CONTINUOUS
 10
128.592194
 20
338.043121
 11
58.250000
 21
338.043121
  0
LINE
  8
0
  6
CONTINUOUS
 10
111.249977
 20
322.043121
 11
137.592545
 21
322.043121
  0
LINE
  8
0
  6
CONTINUOUS
 10
111.249977
 20
264.043121
 11
128.866882
 21
264.043121
  0
LINE
  8
0
  6
CONTINUOUS
 10
128.723129
 20
248.043121
 11
58.250000
 21
248.043121
  0
LINE
  8
0
  6
CONTINUOUS
 10
129.493073
 20
293.043121
 11
130.750000
 21
245.043121
  0
LINE
  8
0
  6
CONTINUOUS
 10
164.250000
 20
325.043121
 11
164.250000
 21
257.043121
  0
LINE
  8
0
  6
CONTINUOUS
 10
198.250000
 20
325.043121
 11
198.250000
 21
257.043121
  0
LINE
  8
0
  6
CONTINUOUS
 10
137.592545
 20
320.043121
 11
137.592545
 21
256.578125
  0
LINE
  8
0
  6
CONTINUOUS
 10
203.750000
 20
335.043121
 11
158.750000
 21
335.043121
  0
LINE
  8
0
  6
CONTINUOUS
 10
157.750000
 20
334.043121
 11
157.750000
 21
332.043121
  0
LINE
  8
0
  6
CONTINUOUS
 10
204.750000
 20
334.043121
 11
204.750000
 21
332.043121
  0
ARC
  8
0
  6
CONTINUOUS
 10
155.750000
 20
332.043121
 40
2.000000
 50
-90.000000
 51
0.000000
  0
ARC
  8
0
  6
CONTINUOUS
 10
206.750000
 20
332.043121
 40
2.000000
 50
180.000000
 51
270.000000
  0
ARC
  8
0
  6
CONTINUOUS
 10
158.750015
 20
334.043121
 40
1.000000
 50
90.000000
 51
180.000000
  0
ARC
  8
0
  6
CONTINUOUS
 10
203.750000
 20
334.043121
 40
1.000000
 50
0.000000
 51
90.000000
  0
LINE
  8
0
  6
CONTINUOUS
 10
192.750000
 20
219.043121
 11
172.250000
 21
219.043121
  0
LINE
  8
0
  6
CONTINUOUS
 10
172.250000
 20
245.043121
 11
172.250000
 21
219.043121
  0
LINE
  8
0
  6
CONTINUOUS
 10
192.750000
 20
219.043121
 11
192.750000
 21
245.043121
  0
LINE
  8
0
  6
CONTINUOUS
 10
189.735001
 20
219.043121
 11
189.735001
 21
245.043121
  0
LINE
  8
0
  6
CONTINUOUS
 10
130.750000
 20
245.043121
 11
231.750000
 21
245.043121
  0
LINE
  8
0
  6
CONTINUOUS
 10
229.575195
 20
328.095490
 11
231.750000
 21
245.043121
  0
LINE
  8
0
  6
CONTINUOUS
 10
132.541199
 20
255.043121
 11
229.539825
 21
255.043121
  0
ARC
  8
0
  6
CONTINUOUS
 10
229.539825
 20
253.043121
 40
2.000000
 50
1.500000
 51
90.000000
  0
ARC
  8
0
  6
CONTINUOUS
 10
227.575882
 20
328.043121
 40
2.000000
 50
1.500000
 51
90.000000
  0
ARC
  8
0
  6
CONTINUOUS
 10
200.250000
 20
257.043121
 40
2.000000
 50
180.000000
 51
270.000000
  0
ARC
  8
0
  6
CONTINUOUS
 10
162.250000
 20
257.043121
 40
2.000000
 50
-90.000000
 51
0.000000
  0
LINE
  8
0
  6
CONTINUOUS
 10
164.108063
 20
256.303131
 11
198.391937
 21
256.303131
  0
ARC
  8
0
  6
CONTINUOUS
 10
132.541199
 20
253.043121
 40
2.000000
 50
90.000000
 51
181.500000
  0
ARC
  8
0
  6
CONTINUOUS
 10
128.723129
 20
246.043121
 40
2.000000
 50
1.500000
 51
90.000000
  0
LINE
  8
0
  6
CONTINUOUS
 10
130.591507
 20
336.095490
 11
130.699005
 21
331.990784
  0
ARC
  8
0
  6
CONTINUOUS
 10
128.592194
 20
336.043121
 40
2.000000
 50
1.500000
 51
90.000000
  0
ARC
  8
0
  6
CONTINUOUS
 10
132.698318
 20
332.043121
 40
2.000000
 50
181.500000
 51
270.000000
  0
ARC
  8
0
  6
CONTINUOUS
 10
132.698318
 20
328.043121
 40
2.000000
 50
90.000000
 51
178.500000
  0
LINE
  8
0
  6
CENTER
 10
221.250000
 20
237.354538
 11
221.250000
 21
261.217194
  0
LINE
  8
0
  6
DASHED
 10
225.500000
 20
255.043121
 11
225.500000
 21
245.043121
  0
LINE
  8
0
  6
DASHED
 10
217.000000
 20
255.043121
 11
217.000000
 21
245.043121
  0
LINE
  8
0
  6
CENTER
 10
141.250000
 20
237.354538
 11
141.250000
 21
261.217194
  0
LINE
  8
0
  6
DASHED
 10
137.000000
 20
255.043121
 11
137.000000
 21
245.043121
  0
LINE
  8
0
  6
DASHED
 10
145.500000
 20
255.043121
 11
145.500000
 21
245.043121
  0
LINE
  8
0
  6
CONTINUOUS
 10
48.750000
 20
338.043121
 11
58.250000
 21
338.043121
  0
LINE
  8
0
  6
CONTINUOUS
 10
49.249981
 20
322.043121
 11
48.750000
 21
322.043121
  0
LINE
  8
0
  6
CONTINUOUS
 10
48.750000
 20
248.043121
 11
58.250000
 21
248.043121
  0
LINE
  8
0
  6
CONTINUOUS
 10
58.250000
 20
248.043121
 11
58.250000
 21
262.043121
  0
LINE
  8
0
  6
CONTINUOUS
 10
49.249981
 20
264.043121
 11
48.750000
 21
264.043121
  0
LINE
  8
0
  6
CONTINUOUS
 10
58.250000
 20
324.043121
 11
58.250000
 21
338.043121
  0
LINE
  8
0
  6
CONTINUOUS
 10
48.750000
 20
340.043121
 11
48.750000
 21
246.043121
  0
LINE
  8
0
  6
CONTINUOUS
 10
48.750000
 20
322.043121
 11
4.774970
 21
322.043121
  0
LINE
  8
0
  6
CONTINUOUS
 10
48.750000
 20
264.043121
 11
4.774970
 21
264.043121
  0
LINE
  8
0
  6
CONTINUOUS
 10
6.249980
 20
340.043121
 11
48.750000
 21
340.043121
  0
LINE
  8
0
  6
CONTINUOUS
 10
6.249980
 20
246.043121
 11
48.750000
 21
246.043121
  0
ARC
  8
0
  6
CONTINUOUS
 10
6.250010
 20
335.043121
 40
5.000000
 50
90.000000
 51
180.000000
  0
ARC
  8
0
  6
CONTINUOUS
 10
6.249980
 20
251.043121
 40
5.000000
 50
180.000000
 51
270.000000
  0
LINE
  8
0
  6
CONTINUOUS
 10
1.250010
 20
335.043121
 11
1.249980
 21
251.043121
  0
LINE
  8
0
  6
CONTINUOUS
 10
111.249977
 20
264.043121
 11
111.249977
 21
322.043121
  0
LINE
  8
0
  6
CONTINUOUS
 10
49.249981
 20
322.043121
 11
49.249981
 21
264.043121
  0
LINE
  8
0
  6
CENTER
 10
80.249977
 20
256.796875
 11
80.249977
 21
329.489685
  0
LINE
  8
0
  6
CONTINUOUS
 10
109.249977
 20
262.043121
 11
51.249981
 21
262.043121
  0
LINE
  8
0
  6
CONTINUOUS
 10
109.249977
 20
324.043121
 11
51.249981
 21
324.043121
  0
LINE
  8
0
  6
CONTINUOUS
 10
51.249981
 20
262.043121
 11
49.249981
 21
264.043121
  0
LINE
  8
0
  6
CONTINUOUS
 10
49.249981
 20
322.043121
 11
51.249981
 21
324.043121
  0
LINE
  8
0
  6
CONTINUOUS
 10
111.249977
 20
322.043121
 11
109.249977
 21
324.043121
  0
LINE
  8
0
  6
CONTINUOUS
 10
111.249977
 20
264.043121
 11
109.249977
 21
262.043121
  0
LINE
  8
0
  6
CONTINUOUS
 10
57.249981
 20
267.043121
 11
57.249981
 21
262.043121
  0
LINE
  8
0
  6
CONTINUOUS
 10
54.249981
 20
270.043121
 11
49.249981
 21
270.043121
  0
CIRCLE
  8
0
  6
CONTINUOUS
 10
53.249981
 20
266.043121
 40
2.250000
  0
ARC
  8
0
  6
CONTINUOUS
 10
54.249981
 20
267.043121
 40
3.000000
 50
0.000000
 51
90.000000
  0
LINE
  8
0
  6
CONTINUOUS
 10
50.249981
 20
271.043121
 11
50.249981
 21
315.043121
  0
LINE
  8
0
  6
CONTINUOUS
 10
54.249981
 20
271.043121
 11
50.249981
 21
271.043121
  0
ARC
  8
0
  6
CONTINUOUS
 10
54.249981
 20
267.043121
 40
4.000000
 50
0.000000
 51
90.000000
  0
LINE
  8
0
  6
CONTINUOUS
 10
58.249981
 20
263.043121
 11
58.249981
 21
267.043121
  0
LINE
  8
0
  6
CONTINUOUS
 10
50.249981
 20
271.043121
 11
49.249981
 21
270.043121
  0
LINE
  8
0
  6
CONTINUOUS
 10
102.249977
 20
263.043121
 11
58.249981
 21
263.043121
  0
LINE
  8
0
  6
CONTINUOUS
 10
58.249981
 20
263.043121
 11
57.249981
 21
262.043121
  0
LINE
  8
0
  6
CONTINUOUS
 10
106.249977
 20
270.043121
 11
111.249977
 21
270.043121
  0
LINE
  8
0
  6
CONTINUOUS
 10
103.249977
 20
267.043121
 11
103.249977
 21
262.043121
  0
CIRCLE
  8
0
  6
CONTINUOUS
 10
107.249977
 20
266.043121
 40
2.250000
  0
ARC
  8
0
  6
CONTINUOUS
 10
106.249977
 20
267.043121
 40
3.000000
 50
90.000000
 51
180.000000
  0
LINE
  8
0
  6
CONTINUOUS
 10
102.249977
 20
267.043121
 11
102.249977
 21
263.043121
  0
ARC
  8
0
  6
CONTINUOUS
 10
106.249977
 20
267.043121
 40
4.000000
 50
90.000000
 51
180.000000
  0
LINE
  8
0
  6
CONTINUOUS
 10
110.249977
 20
271.043121
 11
106.249977
 21
271.043121
  0
LINE
  8
0
  6
CONTINUOUS
 10
102.249977
 20
263.043121
 11
103.249977
 21
262.043121
  0
LINE
  8
0
  6
CONTINUOUS
 10
110.249977
 20
271.043121
 11
111.249977
 21
270.043121
  0
LINE
  8
0
  6
CONTINUOUS
 10
103.249977
 20
319.043121
 11
103.249977
 21
324.043121
  0
LINE
  8
0
  6
CONTINUOUS
 10
106.249977
 20
316.043121
 11
111.249977
 21
316.043121
  0
CIRCLE
  8
0
  6
CONTINUOUS
 10
107.249977
 20
320.043121
 40
2.250000
  0
ARC
  8
0
  6
CONTINUOUS
 10
106.249977
 20
319.043121
 40
3.000000
 50
180.000000
 51
270.000000
  0
LINE
  8
0
  6
CONTINUOUS
 10
106.249977
 20
315.043121
 11
110.249977
 21
315.043121
  0
ARC
  8
0
  6
CONTINUOUS
 10
106.249977
 20
319.043121
 40
4.000000
 50
180.000000
 51
270.000000
  0
LINE
  8
0
  6
CONTINUOUS
 10
102.249977
 20
323.043121
 11
102.249977
 21
319.043121
  0
LINE
  8
0
  6
CONTINUOUS
 10
110.249977
 20
315.043121
 11
111.249977
 21
316.043121
  0
LINE
  8
0
  6
CONTINUOUS
 10
102.249977
 20
323.043121
 11
103.249977
 21
324.043121
  0
LINE
  8
0
  6
CONTINUOUS
 10
54.249981
 20
316.043121
 11
49.249981
 21
316.043121
  0
LINE
  8
0
  6
CONTINUOUS
 10
57.249981
 20
319.043121
 11
57.249981
 21
324.043121
  0
CIRCLE
  8
0
  6
CONTINUOUS
 10
53.249981
 20
320.043121
 40
2.250000
  0
ARC
  8
0
  6
CONTINUOUS
 10
54.249981
 20
319.043121
 40
3.000000
 50
-90.000000
 51
0.000000
  0
LINE
  8
0
  6
CONTINUOUS
 10
58.249981
 20
319.043121
 11
58.249981
 21
323.043121
  0
ARC
  8
0
  6
CONTINUOUS
 10
54.249981
 20
319.043121
 40
4.000000
 50
-90.000000
 51
0.000000
  0
LINE
  8
0
  6
CONTINUOUS
 10
50.249981
 20
315.043121
 11
54.249981
 21
315.043121
  0
LINE
  8
0
  6
CONTINUOUS
 10
58.249981
 20
323.043121
 11
57.249981
 21
324.043121
  0
LINE
  8
0
  6
CONTINUOUS
 10
50.249981
 20
315.043121
 11
49.249981
 21
316.043121
  0
LINE
  8
0
  6
CONTINUOUS
 10
102.249977
 20
323.043121
 11
58.249981
 21
323.043121
  0
LINE
  8
0
  6
CONTINUOUS
 10
110.249977
 20
271.043121
 11
110.249977
 21
315.043121
  0
TEXT
  8
0
 10
-14.000000
 20
-3.000000
 40
4.000000
 41
1.000000
  1
HFMN-18R-10~240-S90C
 50
0.000000
  0
ENDSEC
  0
EOF
