  0
SECTION
  2
HEADER
  9
$ACADVER
  1
AC1014
  9
$ACADMAINTVER
 70
     9
  9
$DWGCODEPAGE
  3
ANSI_932
  9
$INSBASE
 10
0.0
 20
0.0
 30
0.0
  9
$EXTMIN
 10
36.56726048988878
 20
42.13273856589069
 30
0.0
  9
$EXTMAX
 10
489.0095082884851
 20
398.2554389015528
 30
0.0
  9
$LIMMIN
 10
0.0
 20
0.0
  9
$LIMMAX
 10
297.0
 20
210.0
  9
$ORTHOMODE
 70
     1
  9
$REGENMODE
 70
     1
  9
$FILLMODE
 70
     1
  9
$QTEXTMODE
 70
     0
  9
$MIRRTEXT
 70
     0
  9
$DRAGMODE
 70
     2
  9
$LTSCALE
 40
2.0
  9
$OSMODE
 70
    37
  9
$ATTMODE
 70
     1
  9
$TEXTSIZE
 40
2.0
  9
$TRACEWID
 40
1.0
  9
$TEXTSTYLE
  7
STANDARD
  9
$CLAYER
  8
0
  9
$CELTYPE
  6
BYLAYER
  9
$CECOLOR
 62
   256
  9
$CELTSCALE
 40
1.0
  9
$DELOBJ
 70
     1
  9
$DISPSILH
 70
     0
  9
$DIMSCALE
 40
2.0
  9
$DIMASZ
 40
1.8
  9
$DIMEXO
 40
0.625
  9
$DIMDLI
 40
3.75
  9
$DIMRND
 40
0.0
  9
$DIMDLE
 40
0.0
  9
$DIMEXE
 40
0.8
  9
$DIMTP
 40
0.0
  9
$DIMTM
 40
0.0
  9
$DIMTXT
 40
1.8
  9
$DIMCEN
 40
2.5
  9
$DIMTSZ
 40
0.0
  9
$DIMTOL
 70
     0
  9
$DIMLIM
 70
     0
  9
$DIMTIH
 70
     0
  9
$DIMTOH
 70
     0
  9
$DIMSE1
 70
     0
  9
$DIMSE2
 70
     0
  9
$DIMTAD
 70
     1
  9
$DIMZIN
 70
     8
  9
$DIMBLK
  1

  9
$DIMASO
 70
     1
  9
$DIMSHO
 70
     1
  9
$DIMPOST
  1

  9
$DIMAPOST
  1

  9
$DIMALT
 70
     0
  9
$DIMALTD
 70
     4
  9
$DIMALTF
 40
0.0394
  9
$DIMLFAC
 40
1.0
  9
$DIMTOFL
 70
     1
  9
$DIMTVP
 40
0.0
  9
$DIMTIX
 70
     0
  9
$DIMSOXD
 70
     0
  9
$DIMSAH
 70
     0
  9
$DIMBLK1
  1

  9
$DIMBLK2
  1

  9
$DIMSTYLE
  2
STANDARD
  9
$DIMCLRD
 70
     0
  9
$DIMCLRE
 70
     0
  9
$DIMCLRT
 70
     0
  9
$DIMTFAC
 40
1.0
  9
$DIMGAP
 40
0.75
  9
$DIMJUST
 70
     0
  9
$DIMSD1
 70
     0
  9
$DIMSD2
 70
     0
  9
$DIMTOLJ
 70
     1
  9
$DIMTZIN
 70
     0
  9
$DIMALTZ
 70
     0
  9
$DIMALTTZ
 70
     0
  9
$DIMFIT
 70
     3
  9
$DIMUPT
 70
     0
  9
$DIMUNIT
 70
     8
  9
$DIMDEC
 70
     2
  9
$DIMTDEC
 70
     2
  9
$DIMALTU
 70
     8
  9
$DIMALTTD
 70
     4
  9
$DIMTXSTY
  7
STANDARD
  9
$DIMAUNIT
 70
     0
  9
$LUNITS
 70
     2
  9
$LUPREC
 70
     3
  9
$SKETCHINC
 40
1.0
  9
$FILLETRAD
 40
10.0
  9
$AUNITS
 70
     0
  9
$AUPREC
 70
     2
  9
$MENU
  1
.
  9
$ELEVATION
 40
0.0
  9
$PELEVATION
 40
0.0
  9
$THICKNESS
 40
0.0
  9
$LIMCHECK
 70
     0
  9
$BLIPMODE
 70
     0
  9
$CHAMFERA
 40
0.0
  9
$CHAMFERB
 40
0.0
  9
$CHAMFERC
 40
20.0
  9
$CHAMFERD
 40
0.0
  9
$SKPOLY
 70
     0
  9
$TDCREATE
 40
2453754.486560139
  9
$TDUPDATE
 40
2453832.468853437
  9
$TDINDWG
 40
0.1748339583
  9
$TDUSRTIMER
 40
0.1748339583
  9
$USRTIMER
 70
     1
  9
$ANGBASE
 50
0.0
  9
$ANGDIR
 70
     0
  9
$PDMODE
 70
     0
  9
$PDSIZE
 40
-10.0
  9
$PLINEWID
 40
0.0
  9
$COORDS
 70
     0
  9
$SPLFRAME
 70
     0
  9
$SPLINETYPE
 70
     6
  9
$SPLINESEGS
 70
     8
  9
$ATTDIA
 70
     0
  9
$ATTREQ
 70
     1
  9
$HANDLING
 70
-16383
  9
$HANDSEED
  5
1E95
  9
$SURFTAB1
 70
     6
  9
$SURFTAB2
 70
     6
  9
$SURFTYPE
 70
     6
  9
$SURFU
 70
     6
  9
$SURFV
 70
     6
  9
$UCSNAME
  2

  9
$UCSORG
 10
0.0
 20
0.0
 30
0.0
  9
$UCSXDIR
 10
1.0
 20
0.0
 30
0.0
  9
$UCSYDIR
 10
0.0
 20
1.0
 30
0.0
  9
$PUCSNAME
  2

  9
$PUCSORG
 10
0.0
 20
0.0
 30
0.0
  9
$PUCSXDIR
 10
1.0
 20
0.0
 30
0.0
  9
$PUCSYDIR
 10
0.0
 20
1.0
 30
0.0
  9
$USERI1
 70
     0
  9
$USERI2
 70
     0
  9
$USERI3
 70
     0
  9
$USERI4
 70
     0
  9
$USERI5
 70
     0
  9
$USERR1
 40
0.0
  9
$USERR2
 40
0.0
  9
$USERR3
 40
0.0
  9
$USERR4
 40
0.0
  9
$USERR5
 40
0.0
  9
$WORLDVIEW
 70
     1
  9
$SHADEDGE
 70
     3
  9
$SHADEDIF
 70
    70
  9
$TILEMODE
 70
     1
  9
$MAXACTVP
 70
    48
  9
$PINSBASE
 10
0.0
 20
0.0
 30
0.0
  9
$PLIMCHECK
 70
     0
  9
$PEXTMIN
 10
0.0
 20
0.0
 30
0.0
  9
$PEXTMAX
 10
0.0
 20
0.0
 30
0.0
  9
$PLIMMIN
 10
0.0
 20
0.0
  9
$PLIMMAX
 10
12.0
 20
9.0
  9
$UNITMODE
 70
     0
  9
$VISRETAIN
 70
     1
  9
$PLINEGEN
 70
     0
  9
$PSLTSCALE
 70
     1
  9
$TREEDEPTH
 70
  3020
  9
$PICKSTYLE
 70
     1
  9
$CMLSTYLE
  2
STANDARD
  9
$CMLJUST
 70
     0
  9
$CMLSCALE
 40
1.0
  9
$PROXYGRAPHICS
 70
     1
  9
$MEASUREMENT
 70
     0
  0
ENDSEC
  0
SECTION
  2
CLASSES
  0
CLASS
  1
DICTIONARYVAR
  2
AcDbDictionaryVar
  3
AutoCAD 2000
 90
        0
280
     0
281
     0
  0
CLASS
  1
ACDBDICTIONARYWDFLT
  2
AcDbDictionaryWithDefault
  3
AutoCAD 2000
 90
        0
280
     0
281
     0
  0
CLASS
  1
ACDBPLACEHOLDER
  2
AcDbPlaceHolder
  3
AutoCAD 2000
 90
        0
280
     0
281
     0
  0
CLASS
  1
LAYOUT
  2
AcDbLayout
  3
AutoCAD 2000
 90
        0
280
     0
281
     0
  0
CLASS
  1
LONG_TRANSACTION
  2
AcDbLongTransaction
  3
AutoCAD 2000
 90
        0
280
     0
281
     0
  0
CLASS
  1
LWPOLYLINE
  2
AcDbPolyline
  3
AutoCAD 2000
 90
        0
280
     0
281
     1
  0
CLASS
  1
HATCH
  2
AcDbHatch
  3
AutoCAD 2000
 90
        0
280
     0
281
     1
  0
CLASS
  1
XRECORD
  2
AcDbXrecord
  3
AutoCAD 2000
 90
        0
280
     0
281
     0
  0
ENDSEC
  0
SECTION
  2
TABLES
  0
TABLE
  2
VPORT
  5
6E
330
0
100
AcDbSymbolTable
 70
     2
  0
VPORT
  5
1E6F
330
6E
100
AcDbSymbolTableRecord
100
AcDbViewportTableRecord
  2
*ACTIVE
 70
     0
 10
0.0
 20
0.0
 11
1.0
 21
1.0
 12
256.8322249157182
 22
209.7902851399066
 13
0.0
 23
0.0
 14
10.0
 24
10.0
 15
10.0
 25
10.0
 16
0.0
 26
0.0
 36
1.0
 17
0.0
 27
0.0
 37
0.0
 40
379.8796794108093
 41
1.566970091027307
 42
50.0
 43
0.0
 44
0.0
 50
0.0
 51
0.0
 71
     0
 72
   100
 73
     1
 74
     3
 75
     0
 76
     0
 77
     0
 78
     0
  0
ENDTAB
  0
TABLE
  2
LTYPE
  5
69
330
0
100
AcDbSymbolTable
 70
     3
  0
LTYPE
  5
6A
330
69
100
AcDbSymbolTableRecord
100
AcDbLinetypeTableRecord
  2
BYBLOCK
 70
     0
  3

 72
    65
 73
     0
 40
0.0
  0
LTYPE
  5
6B
330
69
100
AcDbSymbolTableRecord
100
AcDbLinetypeTableRecord
  2
BYLAYER
 70
     0
  3

 72
    65
 73
     0
 40
0.0
  0
LTYPE
  5
8
330
69
100
AcDbSymbolTableRecord
100
AcDbLinetypeTableRecord
  2
CONTINUOUS
 70
     0
  3
Solid line
 72
    65
 73
     0
 40
0.0
  0
LTYPE
  5
27C
330
69
100
AcDbSymbolTableRecord
100
AcDbLinetypeTableRecord
  2
SEKKEI_A2_
 70
     0
  3
center(A2)  ____ _ ____ _ ____ _ ____ _ ____ _ 
 72
    65
 73
     4
 40
14.28749999999999
 49
9.525
 74
     0
 49
-1.587499999999999
 74
     0
 49
1.587499999999999
 74
     0
 49
-1.587499999999999
 74
     0
  0
LTYPE
  5
2B4
330
69
100
AcDbSymbolTableRecord
100
AcDbLinetypeTableRecord
  2
HIDDEN2
 70
     0
  3
Hidden (.5x) _ _ _ _ _ _ _ _ _ _ _ _ _ _ _ _ _
 72
    65
 73
     2
 40
4.762499999999999
 49
3.174999999999999
 74
     0
 49
-1.587499999999999
 74
     0
  0
ENDTAB
  0
TABLE
  2
LAYER
  5
66
330
0
100
AcDbSymbolTable
 70
     9
  0
LAYER
  5
5E
330
66
100
AcDbSymbolTableRecord
100
AcDbLayerTableRecord
  2
0
 70
     0
 62
     7
  6
CONTINUOUS
  0
LAYER
  5
3E
330
66
100
AcDbSymbolTableRecord
100
AcDbLayerTableRecord
  2
CENTER
 70
     0
 62
     3
  6
SEKKEI_A2_
  0
LAYER
  5
2B5
330
66
100
AcDbSymbolTableRecord
100
AcDbLayerTableRecord
  2
HIDS
 70
     0
 62
     1
  6
HIDDEN2
  0
LAYER
  5
2BA
330
66
100
AcDbSymbolTableRecord
100
AcDbLayerTableRecord
  2
HOJO
 70
     0
 62
     4
  6
CONTINUOUS
  0
LAYER
  5
3FA
330
66
100
AcDbSymbolTableRecord
100
AcDbLayerTableRecord
  2
TITLE
 70
     0
 62
     4
  6
CONTINUOUS
  0
ENDTAB
  0
TABLE
  2
STYLE
  5
67
330
0
100
AcDbSymbolTable
 70
     1
  0
STYLE
  5
16
330
67
100
AcDbSymbolTableRecord
100
AcDbTextStyleTableRecord
  2
STANDARD
 70
     0
 40
0.0
 41
1.0
 50
0.0
 71
     0
 42
2.0
  3
simplex.shx
  4
extfont.shx
  0
ENDTAB
  0
TABLE
  2
VIEW
  5
6C
330
0
100
AcDbSymbolTable
 70
     0
  0
ENDTAB
  0
TABLE
  2
UCS
  5
6D
330
0
100
AcDbSymbolTable
 70
     0
  0
ENDTAB
  0
TABLE
  2
APPID
  5
70
330
0
100
AcDbSymbolTable
 70
     1
  0
APPID
  5
71
330
70
100
AcDbSymbolTableRecord
100
AcDbRegAppTableRecord
  2
ACAD
 70
     0
  0
ENDTAB
  0
TABLE
  2
DIMSTYLE
  5
72
330
0
100
AcDbSymbolTable
 70
     1
  0
DIMSTYLE
105
73
330
72
100
AcDbSymbolTableRecord
100
AcDbDimStyleTableRecord
  2
STANDARD
 70
     0
  3

  4

  5

  6

  7

 40
2.0
 41
1.8
 42
0.625
 43
3.75
 44
0.8
 45
0.0
 46
0.0
 47
0.0
 48
0.0
140
1.8
141
2.5
142
0.0
143
0.0394
144
1.0
145
0.0
146
1.0
147
0.75
 71
     0
 72
     0
 73
     0
 74
     0
 75
     0
 76
     0
 77
     1
 78
     8
170
     0
171
     4
172
     1
173
     0
174
     0
175
     0
176
     0
177
     0
178
     0
270
     8
271
     2
272
     2
273
     8
274
     4
340
16
275
     0
280
     0
281
     0
282
     0
283
     1
284
     0
285
     0
286
     0
287
     3
288
     0
  0
ENDTAB
  0
TABLE
  2
BLOCK_RECORD
  5
1
330
0
100
AcDbSymbolTable
 70
    58
  0
BLOCK_RECORD
  5
2
102
{ACAD_XDICTIONARY
360
1E91
102
}
330
1
100
AcDbSymbolTableRecord
100
AcDbBlockTableRecord
  2
*MODEL_SPACE
  0
BLOCK_RECORD
  5
1E6A
102
{ACAD_XDICTIONARY
360
1E93
102
}
330
1
100
AcDbSymbolTableRecord
100
AcDbBlockTableRecord
  2
*PAPER_SPACE
  0
ENDTAB
  0
ENDSEC
  0
SECTION
  2
BLOCKS
  0
BLOCK
  5
5D
330
2
100
AcDbEntity
  8
0
100
AcDbBlockBegin
  2
*MODEL_SPACE
 70
     0
 10
0.0
 20
0.0
 30
0.0
  3
*MODEL_SPACE
  1

  0
ENDBLK
  5
5F
330
2
100
AcDbEntity
  8
0
100
AcDbBlockEnd
  0
BLOCK
  5
1E6C
330
1E6A
100
AcDbEntity
 67
     1
  8
0
100
AcDbBlockBegin
  2
*PAPER_SPACE
 70
     0
 10
0.0
 20
0.0
 30
0.0
  3
*PAPER_SPACE
  1

  0
ENDBLK
  5
1E6D
330
1E6A
100
AcDbEntity
 67
     1
  8
0
100
AcDbBlockEnd
  0
ENDSEC
  0
SECTION
  2
ENTITIES
  0
LINE
  5
641
330
2
100
AcDbEntity
  8
0
100
AcDbLine
 10
177.8584634898859
 20
308.2554389015527
 30
0.0
 11
274.8570904898859
 21
308.2554389015527
 31
0.0
  0
LINE
  5
642
330
2
100
AcDbEntity
  8
0
100
AcDbLine
 10
176.0672644898859
 20
298.2554389015527
 30
0.0
 11
277.0672644898859
 21
298.2554389015527
 31
0.0
  0
LINE
  5
643
330
2
100
AcDbEntity
  8
0
100
AcDbLine
 10
272.8931464898859
 20
383.2554389015527
 30
0.0
 11
178.0155834898859
 21
383.2554389015527
 31
0.0
  0
LINE
  5
644
330
2
100
AcDbEntity
  8
CENTER
100
AcDbLine
 10
36.56726048988878
 20
346.2554389015528
 30
0.0
 11
285.8103390887379
 21
346.2554389015526
 31
0.0
  0
ARC
  5
645
330
2
100
AcDbEntity
  8
0
100
AcDbCircle
 10
266.5672644898859
 20
61.13273856589072
 30
0.0
 40
9.0
100
AcDbArc
 50
85.87983700000025
 51
180.0
  0
ARC
  5
646
330
2
100
AcDbEntity
  8
0
100
AcDbCircle
 10
252.5672644898859
 20
61.13273856589072
 30
0.0
 40
5.0
100
AcDbArc
 50
270.0
 51
0.0
  0
ARC
  5
647
330
2
100
AcDbEntity
  8
0
100
AcDbCircle
 10
266.5672644898859
 20
161.1327385658906
 30
0.0
 40
9.0
100
AcDbArc
 50
180.0
 51
274.1206969999996
  0
ARC
  5
648
330
2
100
AcDbEntity
  8
0
100
AcDbCircle
 10
252.5672644898859
 20
161.1327385658906
 30
0.0
 40
5.0
100
AcDbArc
 50
0.0
 51
90.0
  0
ARC
  5
649
330
2
100
AcDbEntity
  8
0
100
AcDbCircle
 10
226.5672644898859
 20
111.1327385658906
 30
0.0
 40
50.5
100
AcDbArc
 50
198.1038060000001
 51
341.8962099999999
  0
ARC
  5
64A
330
2
100
AcDbEntity
  8
0
100
AcDbCircle
 10
226.5672644898859
 20
111.1327385658906
 30
0.0
 40
50.5
100
AcDbArc
 50
18.10380000000027
 51
161.8961939999998
  0
LINE
  5
64B
330
2
100
AcDbEntity
  8
0
100
AcDbLine
 10
186.5672644898859
 20
52.13273856589072
 30
0.0
 11
266.5672644898859
 21
52.13273856589072
 31
0.0
  0
LINE
  5
64C
330
2
100
AcDbEntity
  8
0
100
AcDbLine
 10
186.5672644898859
 20
170.1327385658906
 30
0.0
 11
266.5672644898859
 21
170.1327385658906
 31
0.0
  0
LINE
  5
64D
330
2
100
AcDbEntity
  8
CENTER
100
AcDbLine
 10
193.0672644898859
 20
126.1327385658906
 30
0.0
 11
260.0672644898859
 21
126.1327385658906
 31
0.0
  0
LINE
  5
64E
330
2
100
AcDbEntity
  8
0
100
AcDbLine
 10
103.5672574898859
 20
66.02342856589071
 30
0.0
 11
174.5672644898859
 21
66.02342856589071
 31
0.0
  0
LINE
  5
64F
330
2
100
AcDbEntity
  8
0
100
AcDbLine
 10
103.5672574898859
 20
134.8420355658907
 30
0.0
 11
174.0672644898859
 21
134.8420355658907
 31
0.0
  0
LINE
  5
650
330
2
100
AcDbEntity
  8
0
100
AcDbLine
 10
174.0672644898859
 20
55.43273856589071
 30
0.0
 11
103.5672574898859
 21
55.43273856589071
 31
0.0
  0
LINE
  5
651
330
2
100
AcDbEntity
  8
0
100
AcDbLine
 10
103.5672574898859
 20
145.4327415658906
 30
0.0
 11
176.4129684898859
 21
145.4327415658906
 31
0.0
  0
LINE
  5
652
330
2
100
AcDbEntity
  8
CENTER
100
AcDbLine
 10
36.56726598988552
 20
100.4327375658907
 30
0.0
 11
203.8967934898859
 21
100.4327375658907
 31
0.0
  0
LINE
  5
653
330
2
100
AcDbEntity
  8
0
100
AcDbLine
 10
103.5672574898859
 20
55.43273856589071
 30
0.0
 11
103.5672574898859
 21
145.4327415658906
 31
0.0
  0
LINE
  5
654
330
2
100
AcDbEntity
  8
0
100
AcDbLine
 10
46.56727848988589
 20
142.4327495658907
 30
0.0
 11
46.56725348988596
 21
58.43272856589071
 31
0.0
  0
LINE
  5
655
330
2
100
AcDbEntity
  8
0
100
AcDbLine
 10
94.06725748988595
 20
147.4327415658907
 30
0.0
 11
94.06725748988595
 21
53.43273856589071
 31
0.0
  0
ARC
  5
657
330
2
100
AcDbEntity
  8
0
100
AcDbCircle
 10
51.56725248988596
 20
58.43273856589071
 30
0.0
 40
5.0
100
AcDbArc
 50
180.0
 51
270.0
  0
LINE
  5
658
330
2
100
AcDbEntity
  8
0
100
AcDbLine
 10
51.56725348988596
 20
53.43273856589071
 30
0.0
 11
94.06725748988595
 21
53.43273856589071
 31
0.0
  0
LINE
  5
659
330
2
100
AcDbEntity
  8
0
100
AcDbLine
 10
94.06725748988595
 20
71.43273756589072
 30
0.0
 11
50.09225448988593
 21
71.43273756589072
 31
0.0
  0
LINE
  5
65A
330
2
100
AcDbEntity
  8
0
100
AcDbLine
 10
103.5672574898859
 20
66.02343756589071
 30
0.0
 11
94.06725748988595
 21
66.02343756589071
 31
0.0
  0
LINE
  5
65B
330
2
100
AcDbEntity
  8
0
100
AcDbLine
 10
94.06725748988595
 20
55.43273856589071
 30
0.0
 11
103.5672574898859
 21
55.43273856589071
 31
0.0
  0
LINE
  5
660
330
2
100
AcDbEntity
  8
0
100
AcDbLine
 10
51.56725348988596
 20
147.4327415658907
 30
0.0
 11
94.06725748988595
 21
147.4327415658907
 31
0.0
  0
LINE
  5
661
330
2
100
AcDbEntity
  8
0
100
AcDbLine
 10
94.06725748988595
 20
129.4327415658907
 30
0.0
 11
50.09225548988593
 21
129.4327415658907
 31
0.0
  0
ARC
  5
662
330
2
100
AcDbEntity
  8
0
100
AcDbCircle
 10
51.56727848988589
 20
142.4327725658907
 30
0.0
 40
5.0
100
AcDbArc
 50
90.0
 51
180.0
  0
LINE
  5
663
330
2
100
AcDbEntity
  8
0
100
AcDbLine
 10
98.56725748988594
 20
128.9621375658907
 30
0.0
 11
98.56725748988594
 21
124.4621375658907
 31
0.0
  0
LINE
  5
664
330
2
100
AcDbEntity
  8
0
100
AcDbLine
 10
97.06725748988596
 20
128.9621375658907
 30
0.0
 11
97.06725748988596
 21
124.4621375658907
 31
0.0
  0
LINE
  5
665
330
2
100
AcDbEntity
  8
0
100
AcDbLine
 10
95.56725748988595
 20
128.9621375658907
 30
0.0
 11
95.56725748988595
 21
123.9465355658907
 31
0.0
  0
LINE
  5
666
330
2
100
AcDbEntity
  8
HOJO
100
AcDbLine
 10
97.06725748988596
 20
124.9621375658907
 30
0.0
 11
98.56725748988594
 21
124.4621375658907
 31
0.0
  0
LINE
  5
667
330
2
100
AcDbEntity
  8
HOJO
100
AcDbLine
 10
95.56725748988595
 20
123.9621375658907
 30
0.0
 11
97.06725748988596
 21
124.4621375658907
 31
0.0
  0
ARC
  5
668
330
2
100
AcDbEntity
  8
0
100
AcDbCircle
 10
94.06725748988595
 20
128.9621375658907
 30
0.0
 40
4.5
100
AcDbArc
 50
0.0
 51
90.0
  0
LINE
  5
66A
330
2
100
AcDbEntity
  8
0
100
AcDbLine
 10
103.5672574898859
 20
134.8420355658907
 30
0.0
 11
94.06725748988595
 21
134.8420355658907
 31
0.0
  0
LINE
  5
66B
330
2
100
AcDbEntity
  8
0
100
AcDbLine
 10
94.06725748988595
 20
145.4327415658906
 30
0.0
 11
103.5672574898859
 21
145.4327415658906
 31
0.0
  0
ARC
  5
66C
330
2
100
AcDbEntity
  8
0
100
AcDbCircle
 10
94.06725748988595
 20
128.9621375658907
 30
0.0
 40
1.5
100
AcDbArc
 50
0.0
 51
90.0
  0
ARC
  5
66D
330
2
100
AcDbEntity
  8
0
100
AcDbCircle
 10
94.06725748988595
 20
128.9621375658907
 30
0.0
 40
3.0
100
AcDbArc
 50
0.0
 51
90.0
  0
CIRCLE
  5
673
330
2
100
AcDbEntity
  8
0
100
AcDbCircle
 10
226.5672644898859
 20
126.1327385658906
 30
0.0
 40
23.5
  0
LINE
  5
674
330
2
100
AcDbEntity
  8
0
100
AcDbLine
 10
176.0672644898859
 20
140.6327385658906
 30
0.0
 11
176.0672644898859
 21
81.63272756589071
 31
0.0
  0
LINE
  5
675
330
2
100
AcDbEntity
  8
0
100
AcDbLine
 10
178.5672644898859
 20
126.8249305658907
 30
0.0
 11
178.5672644898859
 21
95.44021856589072
 31
0.0
  0
LINE
  5
676
330
2
100
AcDbEntity
  8
CENTER
100
AcDbLine
 10
226.5672644898859
 20
180.1327385658906
 30
0.0
 11
226.5672644898859
 21
42.13273856589069
 31
0.0
  0
ARC
  5
677
330
2
100
AcDbEntity
  8
0
100
AcDbCircle
 10
186.5672644898859
 20
61.13273856589072
 30
0.0
 40
9.0
100
AcDbArc
 50
184.120102
 51
270.0
  0
ARC
  5
678
330
2
100
AcDbEntity
  8
0
100
AcDbCircle
 10
186.5672644898859
 20
61.13273856589072
 30
0.0
 40
9.0
100
AcDbArc
 50
0.0
 51
94.12016299999974
  0
CIRCLE
  5
679
330
2
100
AcDbEntity
  8
0
100
AcDbCircle
 10
186.5672644898859
 20
61.13273856589072
 30
0.0
 40
4.25
  0
LINE
  5
67B
330
2
100
AcDbEntity
  8
0
100
AcDbLine
 10
177.5904584898859
 20
60.48617756589071
 30
0.0
 11
176.0672644898859
 21
81.63273856589071
 31
0.0
  0
LINE
  5
67C
330
2
100
AcDbEntity
  8
0
100
AcDbLine
 10
180.5742684898859
 20
74.73731856589072
 30
0.0
 11
178.5671584898859
 21
95.44070256589071
 31
0.0
  0
LINE
  5
67D
330
2
100
AcDbEntity
  8
0
100
AcDbLine
 10
176.0672644898859
 20
57.43273856589071
 30
0.0
 11
176.0672644898859
 21
65.43276856589071
 31
0.0
  0
ARC
  5
67E
330
2
100
AcDbEntity
  8
0
100
AcDbCircle
 10
174.0672644898859
 20
57.43273856589071
 30
0.0
 40
2.0
100
AcDbArc
 50
270.0
 51
0.0
  0
ARC
  5
67F
330
2
100
AcDbEntity
  8
0
100
AcDbCircle
 10
181.0672644898859
 20
65.43276856589071
 30
0.0
 40
5.0
100
AcDbArc
 50
143.9947970000004
 51
180.0
  0
ARC
  5
680
330
2
100
AcDbEntity
  8
0
100
AcDbCircle
 10
185.5613594898859
 20
75.09655856589072
 30
0.0
 40
5.0
100
AcDbArc
 50
184.1204989999996
 51
274.1202090000001
  0
LINE
  5
681
330
2
100
AcDbEntity
  8
0
100
AcDbLine
 10
252.5672644898859
 20
56.13273856589072
 30
0.0
 11
200.5672644898859
 21
56.13273856589072
 31
0.0
  0
ARC
  5
683
330
2
100
AcDbEntity
  8
0
100
AcDbCircle
 10
200.5672644898859
 20
61.13273856589072
 30
0.0
 40
5.0
100
AcDbArc
 50
180.0
 51
270.0
  0
LINE
  5
684
330
2
100
AcDbEntity
  8
0
100
AcDbLine
 10
212.5672644898859
 20
62.61212756589071
 30
0.0
 11
212.5672644898859
 21
57.3381085658907
 31
0.0
  0
LINE
  5
685
330
2
100
AcDbEntity
  8
0
100
AcDbLine
 10
214.8880654898859
 20
90.53272856589073
 30
0.0
 11
214.8880654898859
 21
85.02366856589071
 31
0.0
  0
LINE
  5
686
330
2
100
AcDbEntity
  8
0
100
AcDbLine
 10
213.8172644898859
 20
91.2132475658907
 30
0.0
 11
213.8172644898859
 21
84.37359856589072
 31
0.0
  0
ARC
  5
687
330
2
100
AcDbEntity
  8
0
100
AcDbCircle
 10
217.2786604898859
 20
86.24553956589071
 30
0.0
 40
1.992186999999999
100
AcDbArc
 50
270.0002139999998
 51
0.0001089999998967
  0
LINE
  5
688
330
2
100
AcDbEntity
  8
0
100
AcDbLine
 10
213.8172644898859
 20
84.37359856589072
 30
0.0
 11
215.0470624898859
 21
83.13273856589072
 31
0.0
  0
LINE
  5
689
330
2
100
AcDbEntity
  8
0
100
AcDbLine
 10
220.1922644898859
 20
88.6859685658907
 30
0.0
 11
220.1922644898859
 21
83.13273856589072
 31
0.0
  0
LINE
  5
68A
330
2
100
AcDbEntity
  8
0
100
AcDbLine
 10
215.0470624898859
 20
83.13273856589072
 30
0.0
 11
218.3623694898859
 21
83.13273856589072
 31
0.0
  0
LINE
  5
68B
330
2
100
AcDbEntity
  8
0
100
AcDbLine
 10
219.2708624898859
 20
83.89500656589069
 30
0.0
 11
218.3623694898859
 21
83.13273856589072
 31
0.0
  0
LINE
  5
68C
330
2
100
AcDbEntity
  8
0
100
AcDbLine
 10
219.2708624898859
 20
83.13273856589072
 30
0.0
 11
220.1922644898859
 21
83.13273856589072
 31
0.0
  0
LINE
  5
68D
330
2
100
AcDbEntity
  8
0
100
AcDbLine
 10
219.2708624898859
 20
83.89500656589069
 30
0.0
 11
219.2708624898859
 21
83.13273856589072
 31
0.0
  0
LINE
  5
68E
330
2
100
AcDbEntity
  8
0
100
AcDbLine
 10
217.2786604898859
 20
84.25334756589071
 30
0.0
 11
215.6193584898859
 21
84.25334756589071
 31
0.0
  0
LINE
  5
68F
330
2
100
AcDbEntity
  8
0
100
AcDbLine
 10
214.8880654898859
 20
85.02366856589071
 30
0.0
 11
215.6193584898859
 21
84.25334756589071
 31
0.0
  0
LINE
  5
690
330
2
100
AcDbEntity
  8
0
100
AcDbLine
 10
217.6024664898859
 20
88.6859685658907
 30
0.0
 11
220.1922644898859
 21
88.6859685658907
 31
0.0
  0
LINE
  5
691
330
2
100
AcDbEntity
  8
0
100
AcDbLine
 10
217.6024664898859
 20
88.6859685658907
 30
0.0
 11
217.6024664898859
 21
87.6400705658907
 31
0.0
  0
LINE
  5
692
330
2
100
AcDbEntity
  8
0
100
AcDbLine
 10
219.2708624898859
 20
87.6400705658907
 30
0.0
 11
219.2708624898859
 21
86.24553956589071
 31
0.0
  0
LINE
  5
693
330
2
100
AcDbEntity
  8
0
100
AcDbLine
 10
219.2708624898859
 20
86.64397656589072
 30
0.0
 11
219.2708624898859
 21
87.44084756589073
 31
0.0
  0
LINE
  5
694
330
2
100
AcDbEntity
  8
0
100
AcDbLine
 10
219.2708624898859
 20
87.6400705658907
 30
0.0
 11
217.6024664898859
 21
87.6400705658907
 31
0.0
  0
LINE
  5
695
330
2
100
AcDbEntity
  8
0
100
AcDbLine
 10
214.9746594898859
 20
92.6952425658907
 30
0.0
 11
219.2612654898859
 21
92.6952425658907
 31
0.0
  0
LINE
  5
696
330
2
100
AcDbEntity
  8
0
100
AcDbLine
 10
218.6797674898859
 20
91.42522256589073
 30
0.0
 11
215.6078684898859
 21
91.42522256589073
 31
0.0
  0
LINE
  5
697
330
2
100
AcDbEntity
  8
0
100
AcDbLine
 10
214.9746594898859
 20
92.6952425658907
 30
0.0
 11
213.8172644898859
 21
91.2132475658907
 31
0.0
  0
LINE
  5
698
330
2
100
AcDbEntity
  8
0
100
AcDbLine
 10
215.6078684898859
 20
91.42522256589073
 30
0.0
 11
214.8880654898859
 21
90.53272856589073
 31
0.0
  0
LINE
  5
699
330
2
100
AcDbEntity
  8
0
100
AcDbLine
 10
219.2708624898859
 20
90.8537815658907
 30
0.0
 11
219.2708624898859
 21
90.70305456589071
 31
0.0
  0
LINE
  5
69A
330
2
100
AcDbEntity
  8
0
100
AcDbLine
 10
220.1922644898859
 20
91.6621005658907
 30
0.0
 11
220.1922644898859
 21
90.70305456589071
 31
0.0
  0
LINE
  5
69B
330
2
100
AcDbEntity
  8
0
100
AcDbLine
 10
219.2708624898859
 20
90.70305456589071
 30
0.0
 11
220.1922644898859
 21
90.70305456589071
 31
0.0
  0
LINE
  5
69C
330
2
100
AcDbEntity
  8
0
100
AcDbLine
 10
219.2612654898859
 20
92.6952425658907
 30
0.0
 11
220.1922644898859
 21
91.6621005658907
 31
0.0
  0
LINE
  5
69D
330
2
100
AcDbEntity
  8
0
100
AcDbLine
 10
219.2708624898859
 20
90.8537815658907
 30
0.0
 11
218.6676674898859
 21
91.42522256589073
 31
0.0
  0
LINE
  5
69E
330
2
100
AcDbEntity
  8
0
100
AcDbLine
 10
240.5672644898859
 20
62.61212756589071
 30
0.0
 11
240.5672644898859
 21
57.3381085658907
 31
0.0
  0
LINE
  5
69F
330
2
100
AcDbEntity
  8
0
100
AcDbLine
 10
237.8480724898859
 20
83.13273856589072
 30
0.0
 11
239.3172644898859
 21
83.13273856589072
 31
0.0
  0
LINE
  5
6A0
330
2
100
AcDbEntity
  8
0
100
AcDbLine
 10
239.0489694898859
 20
84.1288395658907
 30
0.0
 11
239.3172644898859
 21
84.1288395658907
 31
0.0
  0
ARC
  5
6A1
330
2
100
AcDbEntity
  8
0
100
AcDbCircle
 10
236.7647594898859
 20
90.14274856589072
 30
0.0
 40
2.55249
100
AcDbArc
 50
286.0181269999995
 51
90.00350999999964
  0
LINE
  5
6A2
330
2
100
AcDbEntity
  8
0
100
AcDbLine
 10
234.5110664898859
 20
91.5248325658907
 30
0.0
 11
234.5110664898859
 21
88.5985775658907
 31
0.0
  0
ARC
  5
6A3
330
2
100
AcDbEntity
  8
0
100
AcDbCircle
 10
236.7647594898859
 20
90.14274856589072
 30
0.0
 40
1.557193
100
AcDbArc
 50
277.4147259999995
 51
62.41184999999949
  0
LINE
  5
6A4
330
2
100
AcDbEntity
  8
0
100
AcDbLine
 10
233.4153634898859
 20
91.5248325658907
 30
0.0
 11
233.4153634898859
 21
84.1288395658907
 31
0.0
  0
LINE
  5
6A5
330
2
100
AcDbEntity
  8
0
100
AcDbLine
 10
227.1400644898859
 20
91.5248325658907
 30
0.0
 11
227.1400644898859
 21
84.17863656589071
 31
0.0
  0
LINE
  5
6A6
330
2
100
AcDbEntity
  8
0
100
AcDbLine
 10
225.9446604898859
 20
91.5248325658907
 30
0.0
 11
225.9446604898859
 21
84.17863656589071
 31
0.0
  0
LINE
  5
6A7
330
2
100
AcDbEntity
  8
0
100
AcDbLine
 10
227.5384714898859
 20
84.17863656589071
 30
0.0
 11
227.5384714898859
 21
83.13273856589072
 31
0.0
  0
LINE
  5
6A8
330
2
100
AcDbEntity
  8
0
100
AcDbLine
 10
225.4715614898859
 20
84.17863656589071
 30
0.0
 11
225.4715614898859
 21
83.13273856589072
 31
0.0
  0
LINE
  5
6A9
330
2
100
AcDbEntity
  8
0
100
AcDbLine
 10
225.4715614898859
 20
83.13273856589072
 30
0.0
 11
227.5384714898859
 21
83.13273856589072
 31
0.0
  0
LINE
  5
6AA
330
2
100
AcDbEntity
  8
0
100
AcDbLine
 10
225.4715614898859
 20
84.17863656589071
 30
0.0
 11
225.9446604898859
 21
84.17863656589071
 31
0.0
  0
LINE
  5
6AB
330
2
100
AcDbEntity
  8
0
100
AcDbLine
 10
227.1400644898859
 20
84.17863656589071
 30
0.0
 11
227.5384714898859
 21
84.17863656589071
 31
0.0
  0
LINE
  5
6AC
330
2
100
AcDbEntity
  8
0
100
AcDbLine
 10
232.9422644898859
 20
84.1288395658907
 30
0.0
 11
232.9422644898859
 21
83.13273856589072
 31
0.0
  0
LINE
  5
6AD
330
2
100
AcDbEntity
  8
0
100
AcDbLine
 10
234.9468734898859
 20
84.1288395658907
 30
0.0
 11
234.9468734898859
 21
83.13273856589072
 31
0.0
  0
LINE
  5
6AE
330
2
100
AcDbEntity
  8
0
100
AcDbLine
 10
237.8480724898859
 20
84.1288395658907
 30
0.0
 11
237.8480724898859
 21
83.13273856589072
 31
0.0
  0
LINE
  5
6AF
330
2
100
AcDbEntity
  8
0
100
AcDbLine
 10
234.9468734898859
 20
83.13273856589072
 30
0.0
 11
232.9422644898859
 21
83.13273856589072
 31
0.0
  0
LINE
  5
6B0
330
2
100
AcDbEntity
  8
0
100
AcDbLine
 10
234.5110664898859
 20
87.60271656589072
 30
0.0
 11
236.5515634898859
 21
87.60271656589072
 31
0.0
  0
LINE
  5
6B1
330
2
100
AcDbEntity
  8
0
100
AcDbLine
 10
234.5110664898859
 20
88.5985775658907
 30
0.0
 11
236.9657634898859
 21
88.5985775658907
 31
0.0
  0
LINE
  5
6B2
330
2
100
AcDbEntity
  8
0
100
AcDbLine
 10
234.5110664898859
 20
84.1288395658907
 30
0.0
 11
234.9468734898859
 21
84.1288395658907
 31
0.0
  0
LINE
  5
6B3
330
2
100
AcDbEntity
  8
0
100
AcDbLine
 10
232.9422644898859
 20
84.1288395658907
 30
0.0
 11
233.4153634898859
 21
84.1288395658907
 31
0.0
  0
LINE
  5
6B4
330
2
100
AcDbEntity
  8
0
100
AcDbLine
 10
234.5110664898859
 20
87.60271656589072
 30
0.0
 11
234.5110664898859
 21
84.1288395658907
 31
0.0
  0
LINE
  5
6B5
330
2
100
AcDbEntity
  8
0
100
AcDbLine
 10
237.8480724898859
 20
84.1288395658907
 30
0.0
 11
238.0466654898859
 21
84.1288395658907
 31
0.0
  0
LINE
  5
6B6
330
2
100
AcDbEntity
  8
0
100
AcDbLine
 10
236.5515634898859
 20
87.60271656589072
 30
0.0
 11
238.0466654898859
 21
84.1288395658907
 31
0.0
  0
LINE
  5
6B7
330
2
100
AcDbEntity
  8
0
100
AcDbLine
 10
237.4691664898859
 20
87.6893675658907
 30
0.0
 11
239.0489694898859
 21
84.1288395658907
 31
0.0
  0
LINE
  5
6B8
330
2
100
AcDbEntity
  8
0
100
AcDbLine
 10
223.3797644898859
 20
92.6952425658907
 30
0.0
 11
229.7547644898859
 21
92.6952425658907
 31
0.0
  0
LINE
  5
6B9
330
2
100
AcDbEntity
  8
0
100
AcDbLine
 10
225.9446604898859
 20
91.5248325658907
 30
0.0
 11
224.4297674898859
 21
91.5248325658907
 31
0.0
  0
LINE
  5
6BA
330
2
100
AcDbEntity
  8
0
100
AcDbLine
 10
224.4297674898859
 20
91.5248325658907
 30
0.0
 11
224.0873604898859
 21
90.70305456589071
 31
0.0
  0
LINE
  5
6BB
330
2
100
AcDbEntity
  8
0
100
AcDbLine
 10
223.3797644898859
 20
90.70305456589071
 30
0.0
 11
224.0873604898859
 21
90.70305456589071
 31
0.0
  0
LINE
  5
6BC
330
2
100
AcDbEntity
  8
0
100
AcDbLine
 10
223.3797644898859
 20
90.70305456589071
 30
0.0
 11
223.3797644898859
 21
92.6952425658907
 31
0.0
  0
LINE
  5
6BD
330
2
100
AcDbEntity
  8
0
100
AcDbLine
 10
227.1400644898859
 20
91.5248325658907
 30
0.0
 11
228.8010604898859
 21
91.5248325658907
 31
0.0
  0
LINE
  5
6BE
330
2
100
AcDbEntity
  8
0
100
AcDbLine
 10
228.8010604898859
 20
91.5248325658907
 30
0.0
 11
229.0897714898859
 21
90.70305456589071
 31
0.0
  0
LINE
  5
6BF
330
2
100
AcDbEntity
  8
0
100
AcDbLine
 10
229.0897714898859
 20
90.70305456589071
 30
0.0
 11
229.7547644898859
 21
90.70305456589071
 31
0.0
  0
LINE
  5
6C0
330
2
100
AcDbEntity
  8
0
100
AcDbLine
 10
229.7547644898859
 20
90.70305456589071
 30
0.0
 11
229.7547644898859
 21
92.6952425658907
 31
0.0
  0
LINE
  5
6C1
330
2
100
AcDbEntity
  8
0
100
AcDbLine
 10
234.5110664898859
 20
91.5248325658907
 30
0.0
 11
237.4859664898859
 21
91.52289456589072
 31
0.0
  0
LINE
  5
6C2
330
2
100
AcDbEntity
  8
0
100
AcDbLine
 10
232.9422644898859
 20
92.6952425658907
 30
0.0
 11
236.7647594898859
 21
92.6952425658907
 31
0.0
  0
LINE
  5
6C3
330
2
100
AcDbEntity
  8
0
100
AcDbLine
 10
232.9422644898859
 20
91.5248325658907
 30
0.0
 11
233.4153634898859
 21
91.5248325658907
 31
0.0
  0
LINE
  5
6C4
330
2
100
AcDbEntity
  8
0
100
AcDbLine
 10
232.9422644898859
 20
92.6952425658907
 30
0.0
 11
232.9422644898859
 21
91.5248325658907
 31
0.0
  0
LINE
  5
6C5
330
2
100
AcDbEntity
  8
0
100
AcDbLine
 10
239.3172644898859
 20
84.1288395658907
 30
0.0
 11
239.3172644898859
 21
83.13273856589072
 31
0.0
  0
ARC
  5
6C6
330
2
100
AcDbEntity
  8
0
100
AcDbCircle
 10
186.5672644898859
 20
161.1327385658906
 30
0.0
 40
9.0
100
AcDbArc
 50
90.0
 51
175.8798979999999
  0
ARC
  5
6C7
330
2
100
AcDbEntity
  8
0
100
AcDbCircle
 10
186.5672644898859
 20
161.1327385658906
 30
0.0
 40
9.0
100
AcDbArc
 50
265.8793329999998
 51
0.0
  0
CIRCLE
  5
6C8
330
2
100
AcDbEntity
  8
0
100
AcDbCircle
 10
186.5672644898859
 20
161.1327385658906
 30
0.0
 40
4.25
  0
LINE
  5
6CA
330
2
100
AcDbEntity
  8
0
100
AcDbLine
 10
177.5904584898859
 20
161.7793675658907
 30
0.0
 11
176.0672644898859
 21
140.6327385658906
 31
0.0
  0
ARC
  5
6CB
330
2
100
AcDbEntity
  8
0
100
AcDbCircle
 10
185.5613594898859
 20
147.1689175658907
 30
0.0
 40
5.0
100
AcDbArc
 50
85.87979900000004
 51
175.8795010000003
  0
LINE
  5
6CC
330
2
100
AcDbEntity
  8
0
100
AcDbLine
 10
180.5742684898859
 20
147.5282005658907
 30
0.0
 11
178.5672644898859
 21
126.8250985658907
 31
0.0
  0
ARC
  5
6CD
330
2
100
AcDbEntity
  8
0
100
AcDbCircle
 10
226.5672644898859
 20
126.1327385658906
 30
0.0
 40
9.0
100
AcDbArc
 50
19.47121000000005
 51
340.5288089999999
  0
LINE
  5
6CE
330
2
100
AcDbEntity
  8
0
100
AcDbLine
 10
238.0672644898859
 20
123.1327765658907
 30
0.0
 11
238.0672644898859
 21
129.1327765658907
 31
0.0
  0
LINE
  5
6CF
330
2
100
AcDbEntity
  8
0
100
AcDbLine
 10
232.0672644898859
 20
123.1327615658907
 30
0.0
 11
232.0672644898859
 21
129.1327615658906
 31
0.0
  0
LINE
  5
6D0
330
2
100
AcDbEntity
  8
0
100
AcDbLine
 10
238.0672644898859
 20
123.1327765658907
 30
0.0
 11
232.0672644898859
 21
123.1327615658907
 31
0.0
  0
LINE
  5
6D1
330
2
100
AcDbEntity
  8
0
100
AcDbLine
 10
238.0672644898859
 20
129.1327765658907
 30
0.0
 11
232.0672644898859
 21
129.1327615658906
 31
0.0
  0
LINE
  5
6D2
330
2
100
AcDbEntity
  8
0
100
AcDbLine
 10
200.5672644898859
 20
166.1327385658907
 30
0.0
 11
252.5672644898859
 21
166.1327385658907
 31
0.0
  0
ARC
  5
6D3
330
2
100
AcDbEntity
  8
0
100
AcDbCircle
 10
200.5672644898859
 20
161.1327385658906
 30
0.0
 40
5.0
100
AcDbArc
 50
90.0
 51
180.0
  0
LINE
  5
6D5
330
2
100
AcDbEntity
  8
0
100
AcDbLine
 10
212.5672644898859
 20
165.2015405658906
 30
0.0
 11
212.5672644898859
 21
159.6533455658907
 31
0.0
  0
LINE
  5
6D6
330
2
100
AcDbEntity
  8
0
100
AcDbLine
 10
240.5672644898859
 20
165.2015405658906
 30
0.0
 11
240.5672644898859
 21
159.6533605658907
 31
0.0
  0
LINE
  5
6D7
330
2
100
AcDbEntity
  8
0
100
AcDbLine
 10
174.0403944898859
 20
301.2554389015527
 30
0.0
 11
103.5672644898859
 21
301.2554389015527
 31
0.0
  0
LINE
  5
6D8
330
2
100
AcDbEntity
  8
0
100
AcDbLine
 10
103.5672644898859
 20
317.2554389015527
 30
0.0
 11
174.1841474898859
 21
317.2554389015527
 31
0.0
  0
LINE
  5
6D9
330
2
100
AcDbEntity
  8
0
100
AcDbLine
 10
103.5672644898859
 20
375.2554389015527
 30
0.0
 11
182.9098094898859
 21
375.2554389015527
 31
0.0
  0
LINE
  5
6DA
330
2
100
AcDbEntity
  8
0
100
AcDbLine
 10
173.9094584898859
 20
391.2554389015527
 30
0.0
 11
103.5672644898859
 21
391.2554389015527
 31
0.0
  0
LINE
  5
6DB
330
2
100
AcDbEntity
  8
0
100
AcDbLine
 10
46.5672754898859
 20
388.2554389015527
 30
0.0
 11
46.56724548988598
 21
304.2554229015527
 31
0.0
  0
LINE
  5
6DC
330
2
100
AcDbEntity
  8
0
100
AcDbLine
 10
94.06726448988592
 20
393.2554389015527
 30
0.0
 11
94.06726448988592
 21
353.7554389015528
 31
0.0
  0
LINE
  5
6DF
330
2
100
AcDbEntity
  8
0
100
AcDbLine
 10
51.56724548988598
 20
299.2554389015527
 30
0.0
 11
94.06726448988592
 21
299.2554389015527
 31
0.0
  0
LINE
  5
6E0
330
2
100
AcDbEntity
  8
0
100
AcDbLine
 10
94.06726448988592
 20
317.2554389015527
 30
0.0
 11
50.09223548988598
 21
317.2554389015527
 31
0.0
  0
ARC
  5
6E1
330
2
100
AcDbEntity
  8
0
100
AcDbCircle
 10
51.56724548988598
 20
304.2554389015527
 30
0.0
 40
5.0
100
AcDbArc
 50
180.0
 51
270.0
  0
LINE
  5
6E2
330
2
100
AcDbEntity
  8
0
100
AcDbLine
 10
103.5672644898859
 20
301.2554389015527
 30
0.0
 11
103.5672644898859
 21
321.2554389015527
 31
0.0
  0
LINE
  5
6E3
330
2
100
AcDbEntity
  8
HOJO
100
AcDbLine
 10
97.06726448988593
 20
302.9855869015527
 30
0.0
 11
98.56726448988593
 21
302.4855869015527
 31
0.0
  0
ARC
  5
6E4
330
2
100
AcDbEntity
  8
0
100
AcDbCircle
 10
94.06726448988592
 20
306.9855869015527
 30
0.0
 40
4.5
100
AcDbArc
 50
0.0
 51
90.0
  0
LINE
  5
6E5
330
2
100
AcDbEntity
  8
0
100
AcDbLine
 10
94.06726448988592
 20
301.2554389015527
 30
0.0
 11
103.5672644898859
 21
301.2554389015527
 31
0.0
  0
LINE
  5
6E6
330
2
100
AcDbEntity
  8
0
100
AcDbLine
 10
97.06726448988593
 20
306.9855869015527
 30
0.0
 11
97.06726448988593
 21
302.4855869015527
 31
0.0
  0
LINE
  5
6E7
330
2
100
AcDbEntity
  8
0
100
AcDbLine
 10
95.56726448988593
 20
306.9855869015527
 30
0.0
 11
95.56726448988593
 21
301.9699919015527
 31
0.0
  0
LINE
  5
6E8
330
2
100
AcDbEntity
  8
HOJO
100
AcDbLine
 10
95.56726448988593
 20
301.9855869015527
 30
0.0
 11
97.06726448988593
 21
302.4855869015527
 31
0.0
  0
ARC
  5
6E9
330
2
100
AcDbEntity
  8
0
100
AcDbCircle
 10
94.06726448988592
 20
306.9855869015527
 30
0.0
 40
3.0
100
AcDbArc
 50
0.0
 51
90.0
  0
ARC
  5
6EA
330
2
100
AcDbEntity
  8
0
100
AcDbCircle
 10
94.06726448988592
 20
306.9855869015527
 30
0.0
 40
1.5
100
AcDbArc
 50
0.0
 51
90.0
  0
LINE
  5
6EB
330
2
100
AcDbEntity
  8
0
100
AcDbLine
 10
98.56726448988593
 20
306.9855869015527
 30
0.0
 11
98.56726448988593
 21
302.4855869015527
 31
0.0
  0
LINE
  5
6ED
330
2
100
AcDbEntity
  8
0
100
AcDbLine
 10
103.5672644898859
 20
317.2554389015527
 30
0.0
 11
94.06726448988592
 21
317.2554389015527
 31
0.0
  0
ARC
  5
6F0
330
2
100
AcDbEntity
  8
0
100
AcDbCircle
 10
51.5672754898859
 20
388.2554389015527
 30
0.0
 40
5.0
100
AcDbArc
 50
90.0
 51
180.0
  0
LINE
  5
6F1
330
2
100
AcDbEntity
  8
0
100
AcDbLine
 10
94.06726448988592
 20
375.2554389015527
 30
0.0
 11
50.09223548988598
 21
375.2554389015527
 31
0.0
  0
LINE
  5
6F2
330
2
100
AcDbEntity
  8
0
100
AcDbLine
 10
103.5672644898859
 20
371.2554389015528
 30
0.0
 11
103.5672644898859
 21
391.2554389015527
 31
0.0
  0
LINE
  5
6FC
330
2
100
AcDbEntity
  8
0
100
AcDbLine
 10
103.5672644898859
 20
375.2554389015527
 30
0.0
 11
94.06726448988592
 21
375.2554389015527
 31
0.0
  0
LINE
  5
6FD
330
2
100
AcDbEntity
  8
0
100
AcDbLine
 10
94.06726448988592
 20
391.2554389015527
 30
0.0
 11
103.5672644898859
 21
391.2554389015527
 31
0.0
  0
LINE
  5
6FE
330
2
100
AcDbEntity
  8
0
100
AcDbLine
 10
51.56724548988598
 20
393.2554389015527
 30
0.0
 11
94.06726448988592
 21
393.2554389015527
 31
0.0
  0
LINE
  5
6FF
330
2
100
AcDbEntity
  8
0
100
AcDbLine
 10
182.9098094898859
 20
373.2554389015527
 30
0.0
 11
182.9098094898859
 21
309.7904269015526
 31
0.0
  0
LINE
  5
700
330
2
100
AcDbEntity
  8
0
100
AcDbLine
 10
243.5672644898859
 20
378.2554389015527
 30
0.0
 11
243.5672644898859
 21
310.2554389015527
 31
0.0
  0
LINE
  5
701
330
2
100
AcDbEntity
  8
0
100
AcDbLine
 10
209.5672644898859
 20
378.2554389015527
 30
0.0
 11
209.5672644898859
 21
310.2554389015527
 31
0.0
  0
LINE
  5
702
330
2
100
AcDbEntity
  8
0
100
AcDbLine
 10
174.8103374898859
 20
346.2554389015527
 30
0.0
 11
176.0672644898859
 21
298.2554389015527
 31
0.0
  0
LINE
  5
703
330
2
100
AcDbEntity
  8
CENTER
100
AcDbLine
 10
226.5672644898859
 20
398.2554389015528
 30
0.0
 11
226.5672644898859
 21
262.2554389015527
 31
0.0
  0
LINE
  5
704
330
2
100
AcDbEntity
  8
HIDS
100
AcDbLine
 10
182.3172644898859
 20
308.2554389015527
 30
0.0
 11
182.3172644898859
 21
298.2554389015527
 31
0.0
  0
ARC
  5
705
330
2
100
AcDbEntity
  8
0
100
AcDbCircle
 10
174.0403944898859
 20
299.2554389015527
 30
0.0
 40
2.0
100
AcDbArc
 50
1.500000000000274
 51
90.0
  0
ARC
  5
706
330
2
100
AcDbEntity
  8
0
100
AcDbCircle
 10
177.8584634898859
 20
306.2554389015527
 30
0.0
 40
2.0
100
AcDbArc
 50
90.0
 51
181.5000000000002
  0
LINE
  5
707
330
2
100
AcDbEntity
  8
CENTER
100
AcDbLine
 10
186.5672644898858
 20
293.2554389015527
 30
0.0
 11
186.5672644898859
 21
313.2554389015527
 31
0.0
  0
LINE
  5
708
330
2
100
AcDbEntity
  8
0
100
AcDbLine
 10
235.0522654898859
 20
272.2554389015527
 30
0.0
 11
235.0522654898859
 21
298.2554389015527
 31
0.0
  0
LINE
  5
709
330
2
100
AcDbEntity
  8
0
100
AcDbLine
 10
238.0672644898859
 20
272.2554389015527
 30
0.0
 11
238.0672644898859
 21
298.2554389015527
 31
0.0
  0
LINE
  5
70A
330
2
100
AcDbEntity
  8
0
100
AcDbLine
 10
217.5672644898859
 20
298.2554389015527
 30
0.0
 11
217.5672644898859
 21
272.2554389015527
 31
0.0
  0
LINE
  5
70B
330
2
100
AcDbEntity
  8
0
100
AcDbLine
 10
238.0672644898859
 20
272.2554389015527
 30
0.0
 11
217.5672644898859
 21
272.2554389015527
 31
0.0
  0
LINE
  5
70C
330
2
100
AcDbEntity
  8
0
100
AcDbLine
 10
209.4253274898859
 20
309.5154329015526
 30
0.0
 11
243.7092024898859
 21
309.5154329015526
 31
0.0
  0
LINE
  5
70D
330
2
100
AcDbEntity
  8
HIDS
100
AcDbLine
 10
190.8172644898859
 20
308.2554389015527
 30
0.0
 11
190.8172644898859
 21
298.2554389015527
 31
0.0
  0
ARC
  5
70E
330
2
100
AcDbEntity
  8
0
100
AcDbCircle
 10
207.5672644898859
 20
310.2554389015527
 30
0.0
 40
2.0
100
AcDbArc
 50
270.0
 51
0.0
  0
ARC
  5
70F
330
2
100
AcDbEntity
  8
0
100
AcDbCircle
 10
245.5672644898859
 20
310.2554389015527
 30
0.0
 40
2.0
100
AcDbArc
 50
180.0
 51
270.0
  0
ARC
  5
710
330
2
100
AcDbEntity
  8
0
100
AcDbCircle
 10
173.9094584898859
 20
389.2554389015527
 30
0.0
 40
2.0
100
AcDbArc
 50
1.500000000000274
 51
90.0
  0
LINE
  5
711
330
2
100
AcDbEntity
  8
0
100
AcDbLine
 10
175.8578534898859
 20
375.2581849015527
 30
0.0
 11
176.0162704898859
 21
381.3077759015527
 31
0.0
  0
ARC
  5
712
330
2
100
AcDbEntity
  8
0
100
AcDbCircle
 10
178.0155834898859
 20
381.2554389015527
 30
0.0
 40
2.0
100
AcDbArc
 50
90.0
 51
178.4999999999997
  0
ARC
  5
713
330
2
100
AcDbEntity
  8
0
100
AcDbCircle
 10
178.0155834898859
 20
385.2554389015527
 30
0.0
 40
2.0
100
AcDbArc
 50
181.5000000000002
 51
270.0
  0
LINE
  5
714
330
2
100
AcDbEntity
  8
0
100
AcDbLine
 10
175.9087874898859
 20
389.3077759015527
 30
0.0
 11
176.0162704898859
 21
385.2030699015527
 31
0.0
  0
LINE
  5
715
330
2
100
AcDbEntity
  8
0
100
AcDbLine
 10
249.0672644898859
 20
388.2554389015527
 30
0.0
 11
204.0672644898859
 21
388.2554389015527
 31
0.0
  0
ARC
  5
716
330
2
100
AcDbEntity
  8
0
100
AcDbCircle
 10
204.0672804898858
 20
387.2554389015527
 30
0.0
 40
1.0
100
AcDbArc
 50
90.0
 51
180.0
  0
ARC
  5
717
330
2
100
AcDbEntity
  8
0
100
AcDbCircle
 10
201.0672644898859
 20
385.2554389015527
 30
0.0
 40
2.0
100
AcDbArc
 50
270.0
 51
0.0
  0
LINE
  5
718
330
2
100
AcDbEntity
  8
0
100
AcDbLine
 10
203.0672644898859
 20
387.2554389015527
 30
0.0
 11
203.0672644898859
 21
385.2554389015527
 31
0.0
  0
ARC
  5
719
330
2
100
AcDbEntity
  8
0
100
AcDbCircle
 10
252.0672644898859
 20
385.2554389015527
 30
0.0
 40
2.0
100
AcDbArc
 50
180.0
 51
270.0
  0
ARC
  5
71A
330
2
100
AcDbEntity
  8
0
100
AcDbCircle
 10
249.0672644898859
 20
387.2554389015527
 30
0.0
 40
1.0
100
AcDbArc
 50
0.0
 51
90.0
  0
LINE
  5
71B
330
2
100
AcDbEntity
  8
0
100
AcDbLine
 10
250.0672644898859
 20
387.2554389015527
 30
0.0
 11
250.0672644898859
 21
385.2554389015527
 31
0.0
  0
ARC
  5
71C
330
2
100
AcDbEntity
  8
0
100
AcDbCircle
 10
400.4667554898859
 20
60.43273756589072
 30
0.0
 40
7.0
100
AcDbArc
 50
225.0001069999998
 51
270.0
  0
LINE
  5
71D
330
2
100
AcDbEntity
  8
CENTER
100
AcDbLine
 10
368.5672804898859
 20
100.4327375658906
 30
0.0
 11
483.567280489886
 21
100.4327375658907
 31
0.0
  0
ARC
  5
71E
330
2
100
AcDbEntity
  8
0
100
AcDbCircle
 10
400.5672804898859
 20
58.43273856589071
 30
0.0
 40
3.0
100
AcDbArc
 50
208.8119050000002
 51
270.0
  0
LINE
  5
71F
330
2
100
AcDbEntity
  8
0
100
AcDbLine
 10
461.8817634898859
 20
81.63273856589071
 30
0.0
 11
391.5672804898859
 21
81.63273856589071
 31
0.0
  0
LINE
  5
720
330
2
100
AcDbEntity
  8
0
100
AcDbLine
 10
461.8817634898859
 20
140.6327385658906
 30
0.0
 11
393.7330514898859
 21
140.6327385658906
 31
0.0
  0
LINE
  5
721
330
2
100
AcDbEntity
  8
0
100
AcDbLine
 10
392.0903514898859
 20
56.8848485658907
 30
0.0
 11
460.6196784898859
 21
58.08128856589071
 31
0.0
  0
LINE
  5
722
330
2
100
AcDbEntity
  8
0
100
AcDbLine
 10
460.6195564898858
 20
164.1841755658907
 30
0.0
 11
390.5323684898859
 21
165.4072675658907
 31
0.0
  0
LINE
  5
723
330
2
100
AcDbEntity
  8
CENTER
100
AcDbLine
 10
342.5672804898859
 20
126.1327385658907
 30
0.0
 11
483.567280489886
 21
126.1327385658906
 31
0.0
  0
LINE
  5
724
330
2
100
AcDbEntity
  8
0
100
AcDbLine
 10
378.5672804898859
 20
52.13273856589072
 30
0.0
 11
378.5672804898859
 21
117.1327385658907
 31
0.0
  0
LINE
  5
725
330
2
100
AcDbEntity
  8
0
100
AcDbLine
 10
388.5672804898859
 20
168.1327385658907
 30
0.0
 11
388.5672804898859
 21
97.7452375658907
 31
0.0
  0
ARC
  5
727
330
2
100
AcDbEntity
  8
0
100
AcDbCircle
 10
385.5672804898859
 20
103.6327345658907
 30
0.0
 40
1.0
100
AcDbArc
 50
180.0
 51
270.0
  0
LINE
  5
728
330
2
100
AcDbEntity
  8
0
100
AcDbLine
 10
274.5672644898859
 20
126.8250985658907
 30
0.0
 11
274.5672644898859
 21
95.44070256589071
 31
0.0
  0
LINE
  5
729
330
2
100
AcDbEntity
  8
0
100
AcDbLine
 10
277.0672644898859
 20
81.63273856589071
 30
0.0
 11
277.0672644898859
 21
140.6327385658906
 31
0.0
  0
ARC
  5
72A
330
2
100
AcDbEntity
  8
0
100
AcDbCircle
 10
266.5672644898859
 20
61.13273856589072
 30
0.0
 40
9.0
100
AcDbArc
 50
270.0
 51
355.879913
  0
LINE
  5
72B
330
2
100
AcDbEntity
  8
0
100
AcDbLine
 10
272.5601694898859
 20
74.73731856589072
 30
0.0
 11
274.5673714898859
 21
95.44070256589071
 31
0.0
  0
LINE
  5
72C
330
2
100
AcDbEntity
  8
0
100
AcDbLine
 10
275.543964489886
 20
60.48617756589071
 30
0.0
 11
277.0672644898859
 21
81.63273856589071
 31
0.0
  0
CIRCLE
  5
72D
330
2
100
AcDbEntity
  8
0
100
AcDbCircle
 10
266.5672644898859
 20
61.13273856589072
 30
0.0
 40
4.25
  0
ARC
  5
730
330
2
100
AcDbEntity
  8
0
100
AcDbCircle
 10
267.5731704898859
 20
75.09655856589072
 30
0.0
 40
5.0
100
AcDbArc
 50
265.8797909999997
 51
355.8794859999999
  0
ARC
  5
731
330
2
100
AcDbEntity
  8
0
100
AcDbCircle
 10
387.0326734898859
 20
54.13274856589071
 30
0.0
 40
2.0
100
AcDbArc
 50
270.0
 51
344.9999999999996
  0
ARC
  5
732
330
2
100
AcDbEntity
  8
0
100
AcDbCircle
 10
386.5672804898859
 20
54.13273856589071
 30
0.0
 40
2.0
100
AcDbArc
 50
270.0
 51
0.0
  0
LINE
  5
733
330
2
100
AcDbEntity
  8
0
100
AcDbLine
 10
387.0326734898859
 20
52.13273856589072
 30
0.0
 11
378.5672804898859
 21
52.13273856589072
 31
0.0
  0
LINE
  5
734
330
2
100
AcDbEntity
  8
0
100
AcDbLine
 10
388.5672804898859
 20
54.85795856589071
 30
0.0
 11
388.5672804898859
 21
78.63274956589072
 31
0.0
  0
LINE
  5
735
330
2
100
AcDbEntity
  8
HIDS
100
AcDbLine
 10
378.5672804898859
 20
56.88273856589072
 30
0.0
 11
388.5672804898859
 21
56.88273856589072
 31
0.0
  0
LINE
  5
736
330
2
100
AcDbEntity
  8
HIDS
100
AcDbLine
 10
378.5672804898859
 20
65.38273856589071
 30
0.0
 11
388.5672804898859
 21
65.38273856589071
 31
0.0
  0
LINE
  5
737
330
2
100
AcDbEntity
  8
CENTER
100
AcDbLine
 10
373.5672804898858
 20
61.13273856589071
 30
0.0
 11
393.5672804898858
 21
61.13273856589071
 31
0.0
  0
ARC
  5
738
330
2
100
AcDbEntity
  8
0
100
AcDbCircle
 10
392.1426584898859
 20
53.88531856589072
 30
0.0
 40
3.0
100
AcDbArc
 50
91.00052599999987
 51
165.0001069999997
  0
ARC
  5
739
330
2
100
AcDbEntity
  8
0
100
AcDbCircle
 10
390.5672804898859
 20
54.85796856589072
 30
0.0
 40
2.0
100
AcDbArc
 50
91.00063300000034
 51
180.0
  0
LINE
  5
73A
330
2
100
AcDbEntity
  8
0
100
AcDbLine
 10
389.2449534898858
 20
54.66176856589071
 30
0.0
 11
388.9644664898859
 21
53.6151085658907
 31
0.0
  0
LINE
  5
73B
330
2
100
AcDbEntity
  8
0
100
AcDbLine
 10
388.5672804898859
 20
54.85795856589071
 30
0.0
 11
388.5672804898859
 21
54.13273856589071
 31
0.0
  0
LINE
  5
73C
330
2
100
AcDbEntity
  8
0
100
AcDbLine
 10
392.0903514898859
 20
56.8848485658907
 30
0.0
 11
390.5323684898859
 21
56.85765856589071
 31
0.0
  0
LINE
  5
73D
330
2
100
AcDbEntity
  8
0
100
AcDbLine
 10
395.5169564898859
 20
55.48297856589072
 30
0.0
 11
394.0803724898859
 21
56.91958856589071
 31
0.0
  0
ARC
  5
73F
330
2
100
AcDbEntity
  8
0
100
AcDbCircle
 10
391.5672804898859
 20
78.6327575658907
 30
0.0
 40
3.0
100
AcDbArc
 50
90.0
 51
180.0
  0
LINE
  5
742
330
2
100
AcDbEntity
  8
0
100
AcDbLine
 10
388.5672804898859
 20
102.6327345658907
 30
0.0
 11
385.5672804898859
 21
102.6327345658907
 31
0.0
  0
ARC
  5
743
330
2
100
AcDbEntity
  8
0
100
AcDbCircle
 10
267.5731704898859
 20
147.1689175658907
 30
0.0
 40
5.0
100
AcDbArc
 50
4.12054400000038
 51
94.12020099999995
  0
LINE
  5
744
330
2
100
AcDbEntity
  8
0
100
AcDbLine
 10
275.543964489886
 20
161.7793675658907
 30
0.0
 11
277.0672644898859
 21
140.6327385658906
 31
0.0
  0
LINE
  5
745
330
2
100
AcDbEntity
  8
0
100
AcDbLine
 10
272.5601694898859
 20
147.5282005658907
 30
0.0
 11
274.5672644898859
 21
126.8250985658907
 31
0.0
  0
ARC
  5
746
330
2
100
AcDbEntity
  8
0
100
AcDbCircle
 10
266.5672644898859
 20
161.1327385658906
 30
0.0
 40
9.0
100
AcDbArc
 50
4.120065000000226
 51
90.0
  0
LINE
  5
747
330
2
100
AcDbEntity
  8
CENTER
100
AcDbLine
 10
266.5672644898859
 20
154.3327355658906
 30
0.0
 11
266.5672644898859
 21
167.9327415658907
 31
0.0
  0
CIRCLE
  5
748
330
2
100
AcDbEntity
  8
0
100
AcDbCircle
 10
266.5672644898859
 20
161.1327385658906
 30
0.0
 40
4.25
  0
LINE
  5
749
330
2
100
AcDbEntity
  8
CENTER
100
AcDbLine
 10
259.7672614898859
 20
161.1327385658906
 30
0.0
 11
273.3672674898859
 21
161.1327385658906
 31
0.0
  0
LINE
  5
74A
330
2
100
AcDbEntity
  8
0
100
AcDbLine
 10
378.5672804898859
 20
170.1327385658906
 30
0.0
 11
378.5672804898859
 21
135.1327385658906
 31
0.0
  0
LINE
  5
74C
330
2
100
AcDbEntity
  8
0
100
AcDbLine
 10
376.5672804898859
 20
123.1327385658906
 30
0.0
 11
352.5672804898859
 21
123.1327385658906
 31
0.0
  0
LINE
  5
74D
330
2
100
AcDbEntity
  8
0
100
AcDbLine
 10
376.5672804898859
 20
129.1327385658906
 30
0.0
 11
352.5672804898859
 21
129.1327385658906
 31
0.0
  0
LINE
  5
74E
330
2
100
AcDbEntity
  8
0
100
AcDbLine
 10
382.5672804898859
 20
117.1327385658907
 30
0.0
 11
352.5672804898859
 21
117.1327385658907
 31
0.0
  0
LINE
  5
74F
330
2
100
AcDbEntity
  8
0
100
AcDbLine
 10
382.5672804898859
 20
135.1327385658906
 30
0.0
 11
352.5672804898859
 21
135.1327385658906
 31
0.0
  0
LINE
  5
750
330
2
100
AcDbEntity
  8
0
100
AcDbLine
 10
352.5672804898859
 20
117.1327385658907
 30
0.0
 11
352.5672804898859
 21
135.1327385658906
 31
0.0
  0
ARC
  5
751
330
2
100
AcDbEntity
  8
0
100
AcDbCircle
 10
376.5672804898859
 20
126.1327385658906
 30
0.0
 40
3.0
100
AcDbArc
 50
270.0
 51
90.0
  0
LINE
  5
752
330
2
100
AcDbEntity
  8
0
100
AcDbLine
 10
382.5672804898859
 20
136.1327385658906
 30
0.0
 11
382.5672804898859
 21
116.1327385658907
 31
0.0
  0
LINE
  5
754
330
2
100
AcDbEntity
  8
0
100
AcDbLine
 10
384.5672804898859
 20
148.6327305658907
 30
0.0
 11
384.5672804898859
 21
103.6327305658907
 31
0.0
  0
LINE
  5
758
330
2
100
AcDbEntity
  8
0
100
AcDbLine
 10
384.5672804898859
 20
116.1327385658907
 30
0.0
 11
382.5672804898859
 21
116.1327385658907
 31
0.0
  0
LINE
  5
75B
330
2
100
AcDbEntity
  8
0
100
AcDbLine
 10
384.5672804898859
 20
136.1327385658906
 30
0.0
 11
382.5672804898859
 21
136.1327385658906
 31
0.0
  0
ARC
  5
760
330
2
100
AcDbEntity
  8
0
100
AcDbCircle
 10
385.5672804898859
 20
148.6327305658907
 30
0.0
 40
1.0
100
AcDbArc
 50
90.0
 51
180.0
  0
LINE
  5
761
330
2
100
AcDbEntity
  8
0
100
AcDbLine
 10
388.5672804898859
 20
149.6327385658906
 30
0.0
 11
385.5672804898859
 21
149.6327385658906
 31
0.0
  0
LINE
  5
763
330
2
100
AcDbEntity
  8
HIDS
100
AcDbLine
 10
378.5672804898859
 20
165.3827385658907
 30
0.0
 11
388.5672804898859
 21
165.3827385658907
 31
0.0
  0
LINE
  5
764
330
2
100
AcDbEntity
  8
HIDS
100
AcDbLine
 10
378.5672804898859
 20
156.8827385658907
 30
0.0
 11
388.5672804898859
 21
156.8827385658907
 31
0.0
  0
LINE
  5
765
330
2
100
AcDbEntity
  8
CENTER
100
AcDbLine
 10
373.5672804898859
 20
161.1327385658906
 30
0.0
 11
393.5672804898859
 21
161.1327385658906
 31
0.0
  0
LINE
  5
766
330
2
100
AcDbEntity
  8
0
100
AcDbLine
 10
387.0326734898859
 20
170.1327385658906
 30
0.0
 11
378.5672804898859
 21
170.1327385658906
 31
0.0
  0
ARC
  5
767
330
2
100
AcDbEntity
  8
0
100
AcDbCircle
 10
392.1428724898859
 20
168.3796405658907
 30
0.0
 40
3.0
100
AcDbArc
 50
195.0005040000001
 51
269.0006099999996
  0
ARC
  5
768
330
2
100
AcDbEntity
  8
0
100
AcDbCircle
 10
390.5672804898859
 20
167.4069845658906
 30
0.0
 40
2.0
100
AcDbArc
 50
180.0
 51
269.0006099999996
  0
LINE
  5
769
330
2
100
AcDbEntity
  8
0
100
AcDbLine
 10
388.9644664898859
 20
168.6503775658907
 30
0.0
 11
389.2450754898859
 21
167.6031365658907
 31
0.0
  0
ARC
  5
76A
330
2
100
AcDbEntity
  8
0
100
AcDbCircle
 10
387.0326734898859
 20
168.1327305658907
 30
0.0
 40
2.0
100
AcDbArc
 50
15.00050000000011
 51
90.0
  0
ARC
  5
76B
330
2
100
AcDbEntity
  8
0
100
AcDbCircle
 10
386.5672804898859
 20
168.1327305658907
 30
0.0
 40
2.0
100
AcDbArc
 50
0.0
 51
90.0
  0
LINE
  5
76C
330
2
100
AcDbEntity
  8
0
100
AcDbLine
 10
473.567280489886
 20
126.5332355658907
 30
0.0
 11
473.567280489886
 21
74.33222856589072
 31
0.0
  0
ARC
  5
76D
330
2
100
AcDbEntity
  8
0
100
AcDbCircle
 10
467.567280489886
 20
103.6327345658907
 30
0.0
 40
1.0
100
AcDbArc
 50
270.0
 51
0.0
  0
ARC
  5
76E
330
2
100
AcDbEntity
  8
0
100
AcDbCircle
 10
465.567280489886
 20
100.6327465658907
 30
0.0
 40
2.0
100
AcDbArc
 50
90.0
 51
180.0
  0
ARC
  5
76F
330
2
100
AcDbEntity
  8
0
100
AcDbCircle
 10
426.5672804898859
 20
100.4327375658907
 30
0.0
 40
45.0
100
AcDbArc
 50
325.3078919999996
 51
21.03944000000027
  0
LINE
  5
770
330
2
100
AcDbEntity
  8
0
100
AcDbLine
 10
463.567280489886
 20
161.1846185658907
 30
0.0
 11
463.567280489886
 21
61.08081856589071
 31
0.0
  0
LINE
  5
771
330
2
100
AcDbEntity
  8
CENTER
100
AcDbLine
 10
426.5672804898859
 20
43.4327385658907
 30
0.0
 11
426.5672804898859
 21
183.3202395658906
 31
0.0
  0
LINE
  5
772
330
2
100
AcDbEntity
  8
0
100
AcDbLine
 10
471.5169564898859
 20
69.38248856589071
 30
0.0
 11
463.567280489886
 21
61.43273756589072
 31
0.0
  0
LINE
  5
773
330
2
100
AcDbEntity
  8
0
100
AcDbLine
 10
452.6677744898859
 20
53.43273856589071
 30
0.0
 11
400.4667554898859
 21
53.43273856589071
 31
0.0
  0
LINE
  5
774
330
2
100
AcDbEntity
  8
0
100
AcDbLine
 10
400.5672804898859
 20
55.43273856589071
 30
0.0
 11
452.5672804898859
 21
55.43273856589071
 31
0.0
  0
LINE
  5
775
330
2
100
AcDbEntity
  8
0
100
AcDbLine
 10
457.617573489886
 20
55.4829885658907
 30
0.0
 11
460.208668489886
 21
58.07410856589071
 31
0.0
  0
ARC
  5
776
330
2
100
AcDbEntity
  8
0
100
AcDbCircle
 10
452.6677744898859
 20
60.43273756589072
 30
0.0
 40
7.0
100
AcDbArc
 50
270.0
 51
315.0
  0
ARC
  5
777
330
2
100
AcDbEntity
  8
0
100
AcDbCircle
 10
452.5672804898859
 20
58.43273856589071
 30
0.0
 40
3.0
100
AcDbArc
 50
270.0
 51
351.5618900000002
  0
ARC
  5
778
330
2
100
AcDbEntity
  8
0
100
AcDbCircle
 10
460.5672804898859
 20
61.08081856589071
 30
0.0
 40
3.0
100
AcDbArc
 50
271.0003130000003
 51
0.0
  0
LINE
  5
779
330
2
100
AcDbEntity
  8
0
100
AcDbLine
 10
465.567280489886
 20
102.6327345658907
 30
0.0
 11
467.567280489886
 21
102.6327345658907
 31
0.0
  0
ARC
  5
77A
330
2
100
AcDbEntity
  8
0
100
AcDbCircle
 10
466.567280489886
 20
74.33221856589071
 30
0.0
 40
7.0
100
AcDbArc
 50
315.0001180000001
 51
0.0
  0
LINE
  5
77B
330
2
100
AcDbEntity
  8
0
100
AcDbLine
 10
471.5169564898859
 20
131.4829885658907
 30
0.0
 11
468.5672804898859
 21
134.4327185658906
 31
0.0
  0
ARC
  5
77C
330
2
100
AcDbEntity
  8
0
100
AcDbCircle
 10
467.567280489886
 20
148.6327305658907
 30
0.0
 40
1.0
100
AcDbArc
 50
0.0
 51
90.0
  0
LINE
  5
77D
330
2
100
AcDbEntity
  8
0
100
AcDbLine
 10
468.5672804898859
 20
148.6327305658907
 30
0.0
 11
468.5672804898859
 21
103.6327305658907
 31
0.0
  0
ARC
  5
77E
330
2
100
AcDbEntity
  8
0
100
AcDbCircle
 10
465.567280489886
 20
151.6327385658907
 30
0.0
 40
2.0
100
AcDbArc
 50
180.0
 51
270.0
  0
LINE
  5
77F
330
2
100
AcDbEntity
  8
0
100
AcDbLine
 10
465.567280489886
 20
149.6327385658906
 30
0.0
 11
467.567280489886
 21
149.6327385658906
 31
0.0
  0
ARC
  5
780
330
2
100
AcDbEntity
  8
0
100
AcDbCircle
 10
460.5672804898859
 20
161.1846185658907
 30
0.0
 40
3.0
100
AcDbArc
 50
0.0
 51
89.00035899999958
  0
ARC
  5
781
330
2
100
AcDbEntity
  8
0
100
AcDbCircle
 10
466.567280489886
 20
126.5332205658907
 30
0.0
 40
7.0
100
AcDbArc
 50
0.0
 51
45.00022900000016
  0
LINE
  5
783
330
2
100
AcDbEntity
  8
0
100
AcDbLine
 10
274.8924604898859
 20
381.3077759015527
 30
0.0
 11
277.0672644898859
 21
298.2554389015527
 31
0.0
  0
LINE
  5
784
330
2
100
AcDbEntity
  8
CENTER
100
AcDbLine
 10
266.5672644898858
 20
293.2554389015527
 30
0.0
 11
266.5672644898859
 21
313.2554389015527
 31
0.0
  0
LINE
  5
785
330
2
100
AcDbEntity
  8
HIDS
100
AcDbLine
 10
262.3172644898859
 20
308.2554389015527
 30
0.0
 11
262.3172644898859
 21
298.2554389015527
 31
0.0
  0
LINE
  5
786
330
2
100
AcDbEntity
  8
HIDS
100
AcDbLine
 10
270.8172644898859
 20
308.2554389015527
 30
0.0
 11
270.8172644898859
 21
298.2554389015527
 31
0.0
  0
ARC
  5
787
330
2
100
AcDbEntity
  8
0
100
AcDbCircle
 10
274.8570904898859
 20
306.2554389015527
 30
0.0
 40
2.0
100
AcDbArc
 50
1.500000000000274
 51
90.0
  0
ARC
  5
788
330
2
100
AcDbEntity
  8
0
100
AcDbCircle
 10
272.8931464898859
 20
381.2554389015527
 30
0.0
 40
2.0
100
AcDbArc
 50
1.500000000000274
 51
90.0
  0
LWPOLYLINE
  5
78F
330
2
100
AcDbEntity
  8
HOJO
100
AcDbPolyline
 90
       16
 70
     0
 43
0.0
 10
378.5672804898859
 20
153.8488565658906
 10
386.0047804898859
 20
152.8702415658907
 10
391.0047804898859
 20
149.6202415658906
 10
391.7547804898859
 20
145.1827415658907
 10
393.9188734898859
 20
140.2052405658906
 10
395.3797804898859
 20
139.2452415658906
 10
394.8797804898859
 20
133.2452415658907
 10
392.8797804898859
 20
129.7452415658906
 10
394.7547804898859
 20
124.2452415658906
 10
393.5047804898859
 20
112.2452415658907
 10
394.6297804898859
 20
107.6202375658906
 10
393.5047804898859
 20
103.3702375658906
 10
390.2547804898859
 20
98.49523756589071
 10
385.7547804898859
 20
96.4952375658907
 10
381.5047804898859
 20
93.87023756589071
 10
378.5672804898859
 20
93.47328056589072
  0
LINE
  5
7A6
330
2
100
AcDbEntity
  8
CENTER
100
AcDbLine
 10
186.5672644898859
 20
154.3327355658906
 30
0.0
 11
186.5672644898859
 21
167.9327415658907
 31
0.0
  0
LINE
  5
7A7
330
2
100
AcDbEntity
  8
CENTER
100
AcDbLine
 10
179.7672614898859
 20
161.1327385658906
 30
0.0
 11
193.3672674898859
 21
161.1327385658906
 31
0.0
  0
LINE
  5
7A8
330
2
100
AcDbEntity
  8
CENTER
100
AcDbLine
 10
186.5672644898859
 20
54.33273556589071
 30
0.0
 11
186.5672644898859
 21
67.93274156589072
 31
0.0
  0
LINE
  5
7A9
330
2
100
AcDbEntity
  8
CENTER
100
AcDbLine
 10
179.7672614898859
 20
61.13273856589072
 30
0.0
 11
193.3672674898859
 21
61.13273856589072
 31
0.0
  0
LINE
  5
7AA
330
2
100
AcDbEntity
  8
CENTER
100
AcDbLine
 10
266.5672644898859
 20
54.33273556589071
 30
0.0
 11
266.5672644898859
 21
67.93274156589072
 31
0.0
  0
LINE
  5
7AB
330
2
100
AcDbEntity
  8
CENTER
100
AcDbLine
 10
259.7672614898859
 20
61.13273856589072
 30
0.0
 11
273.3672674898859
 21
61.13273856589072
 31
0.0
  0
TEXT
  5
7C1
330
2
100
AcDbEntity
  8
TITLE
100
AcDbText
 10
401.1999844789607
 20
323.0456168017856
 30
0.0
 40
5.0
  1
HFMN-18R-10~240-S90WT
 41
0.8
100
AcDbText
  0
TEXT
  5
7C2
330
2
100
AcDbEntity
  8
TITLE
100
AcDbText
 10
401.1999844789607
 20
331.0456168017856
 30
0.0
 40
5.0
  1
HFMN-18R-10~240-S90T
 41
0.8
100
AcDbText
  0
TEXT
  5
7C3
330
2
100
AcDbEntity
  8
TITLE
100
AcDbText
 10
401.1999844789607
 20
339.0456168017856
 30
0.0
 40
5.0
  1
HFMN-18R-10~240-S60WT
 41
0.8
100
AcDbText
  0
TEXT
  5
7C4
330
2
100
AcDbEntity
  8
TITLE
100
AcDbText
 10
401.1999844789607
 20
347.0456168017856
 30
0.0
 40
5.0
  1
HFMN-18R-10~240-S60T
 41
0.8
100
AcDbText
  0
TEXT
  5
7C5
330
2
100
AcDbEntity
  8
TITLE
100
AcDbText
 10
401.1999844789607
 20
355.0456168017857
 30
0.0
 40
5.0
  1
HFMN-18R-160~240-S40WT
 41
0.8
100
AcDbText
  0
TEXT
  5
7C6
330
2
100
AcDbEntity
  8
TITLE
100
AcDbText
 10
401.1999844789607
 20
363.0456168017857
 30
0.0
 40
5.0
  1
HFMN-18R-160~240-S40T
 41
0.8
100
AcDbText
  0
TEXT
  5
7C7
330
2
100
AcDbEntity
  8
TITLE
100
AcDbText
 10
308.869453102506
 20
347.0456168017856
 30
0.0
 40
5.0
  1
HFMN-18R-80~240-T60T
 41
0.8
100
AcDbText
  0
TEXT
  5
7C8
330
2
100
AcDbEntity
  8
TITLE
100
AcDbText
 10
308.869453102506
 20
323.0456168017856
 30
0.0
 40
5.0
  1
HFMN-18R-10~240-T90WT
 41
0.8
100
AcDbText
  0
TEXT
  5
7C9
330
2
100
AcDbEntity
  8
TITLE
100
AcDbText
 10
308.869453102506
 20
331.0456168017856
 30
0.0
 40
5.0
  1
HFMN-18R-10~240-T90T
 41
0.8
100
AcDbText
  0
TEXT
  5
7CA
330
2
100
AcDbEntity
  8
TITLE
100
AcDbText
 10
308.869453102506
 20
339.0456168017856
 30
0.0
 40
5.0
  1
HFMN-18R-10~240-T60WT
 41
0.8
100
AcDbText
  0
TEXT
  5
7CB
330
2
100
AcDbEntity
  8
TITLE
100
AcDbText
 10
308.869453102506
 20
355.0456168017857
 30
0.0
 40
5.0
  1
HFMN-18R-160~240-T40WT
 41
0.8
100
AcDbText
  0
TEXT
  5
7CC
330
2
100
AcDbEntity
  8
TITLE
100
AcDbText
 10
308.869453102506
 20
363.0456168017857
 30
0.0
 40
5.0
  1
HFMN-18R-160~240-T40T
 41
0.8
100
AcDbText
  0
LINE
  5
1C6E
330
2
100
AcDbEntity
  8
CENTER
100
AcDbLine
 10
119.5672574898859
 20
376.6446648456605
 30
0.0
 11
119.5672574898859
 21
315.5054389015528
 31
0.0
  0
LINE
  5
1C70
330
2
100
AcDbEntity
  8
0
100
AcDbLine
 10
144.5672574898859
 20
176.9327395658907
 30
0.0
 11
144.5672574898859
 21
148.9327415658906
 31
0.0
  0
LINE
  5
1C71
330
2
100
AcDbEntity
  8
0
100
AcDbLine
 10
92.56726548988593
 20
174.9327395658907
 30
0.0
 11
92.56725048988597
 21
158.9327415658907
 31
0.0
  0
LINE
  5
1C72
330
2
100
AcDbEntity
  8
CENTER
100
AcDbLine
 10
119.5672574898859
 20
142.2390405658907
 30
0.0
 11
119.5672574898859
 21
183.3202395658906
 31
0.0
  0
LINE
  5
1C73
330
2
100
AcDbEntity
  8
0
100
AcDbLine
 10
94.56725048988596
 20
176.9327395658907
 30
0.0
 11
94.56725048988596
 21
148.9327415658906
 31
0.0
  0
LINE
  5
1C74
330
2
100
AcDbEntity
  8
0
100
AcDbLine
 10
96.06725048988597
 20
146.9327415658906
 30
0.0
 11
142.5672574898859
 21
146.9327415658906
 31
0.0
  0
LINE
  5
1C75
330
2
100
AcDbEntity
  8
0
100
AcDbLine
 10
92.56725048988597
 20
158.9327415658907
 30
0.0
 11
144.5672574898859
 21
158.9327415658907
 31
0.0
  0
LINE
  5
1C76
330
2
100
AcDbEntity
  8
0
100
AcDbLine
 10
94.56725048988596
 20
148.9327415658906
 30
0.0
 11
144.5672574898859
 21
148.9327415658906
 31
0.0
  0
LINE
  5
1C79
330
2
100
AcDbEntity
  8
0
100
AcDbLine
 10
94.56725048988596
 20
148.9327415658906
 30
0.0
 11
96.56725048988597
 21
146.9327415658906
 31
0.0
  0
LINE
  5
1C7A
330
2
100
AcDbEntity
  8
0
100
AcDbLine
 10
96.06725048988597
 20
146.9327415658906
 30
0.0
 11
96.06725048988597
 21
145.4327415658906
 31
0.0
  0
LINE
  5
1C7B
330
2
100
AcDbEntity
  8
0
100
AcDbLine
 10
142.5672574898859
 20
146.9327415658906
 30
0.0
 11
144.5672574898859
 21
148.9327415658906
 31
0.0
  0
LINE
  5
1C7C
330
2
100
AcDbEntity
  8
0
100
AcDbLine
 10
142.0672574898859
 20
146.9327415658906
 30
0.0
 11
142.0672574898859
 21
145.4327415658906
 31
0.0
  0
LINE
  5
1C7D
330
2
100
AcDbEntity
  8
0
100
AcDbLine
 10
99.40516630591151
 20
177.9327395658907
 30
0.0
 11
143.5672574898859
 21
177.9327395658907
 31
0.0
  0
LINE
  5
1C7E
330
2
100
AcDbEntity
  8
0
100
AcDbLine
 10
102.0672509184569
 20
176.9327395658907
 30
0.0
 11
144.567264489886
 21
176.9327395658907
 31
0.0
  0
LINE
  5
1C7F
330
2
100
AcDbEntity
  8
CENTER
100
AcDbLine
 10
86.62350148988593
 20
168.4327395658907
 30
0.0
 11
148.519560453624
 21
168.4327395658907
 31
0.0
  0
LINE
  5
1C81
330
2
100
AcDbEntity
  8
0
100
AcDbLine
 10
102.0672509184569
 20
175.4327395658905
 30
0.0
 11
94.56725091845692
 21
175.4327395658906
 31
0.0
  0
ARC
  5
1C82
330
2
100
AcDbEntity
  8
0
100
AcDbCircle
 10
95.96024673629301
 20
176.4388522901369
 30
0.0
 40
1.3
100
AcDbArc
 50
105.8808500082775
 51
174.9999999999999
  0
LINE
  5
1C83
330
2
100
AcDbEntity
  8
0
100
AcDbLine
 10
95.56725091845692
 20
177.9327395658905
 30
0.0
 11
94.56725048988596
 21
176.9327395658907
 31
0.0
  0
LINE
  5
1C84
330
2
100
AcDbEntity
  8
0
100
AcDbLine
 10
94.56725048988596
 20
176.9327395658907
 30
0.0
 11
95.56725048988596
 21
177.9327395658907
 31
0.0
  0
LINE
  5
1C85
330
2
100
AcDbEntity
  8
0
100
AcDbLine
 10
89.06726548988592
 20
172.4327395658907
 30
0.0
 11
89.06726548988592
 21
164.4327395658907
 31
0.0
  0
LINE
  5
1C86
330
2
100
AcDbEntity
  8
0
100
AcDbLine
 10
89.06725048988596
 20
164.4327395658907
 30
0.0
 11
92.56725048988597
 21
162.9327395658906
 31
0.0
  0
LINE
  5
1C87
330
2
100
AcDbEntity
  8
0
100
AcDbLine
 10
94.56725748988606
 20
175.4327395658906
 30
0.0
 11
94.66519362877386
 21
176.5521547557089
 31
0.0
  0
LINE
  5
1C88
330
2
100
AcDbEntity
  8
0
100
AcDbLine
 10
93.56725048988597
 20
175.9327395658907
 30
0.0
 11
94.56725048988596
 21
175.9327395658907
 31
0.0
  0
LINE
  5
1C89
330
2
100
AcDbEntity
  8
0
100
AcDbLine
 10
89.06726548988592
 20
172.4327395658907
 30
0.0
 11
92.56726548988593
 21
173.9327395658906
 31
0.0
  0
ARC
  5
1C8A
330
2
100
AcDbEntity
  8
0
100
AcDbCircle
 10
93.56726548988593
 20
174.9327395658907
 30
0.0
 40
1.0
100
AcDbArc
 50
90.0
 51
180.0
  0
ARC
  5
1C8B
330
2
100
AcDbEntity
  8
0
100
AcDbCircle
 10
100.1742682434788
 20
176.4388522901369
 30
0.0
 40
1.3
100
AcDbArc
 50
5.000000000000026
 51
74.11914999172243
  0
LINE
  5
1C8C
330
2
100
AcDbEntity
  8
0
100
AcDbLine
 10
102.0672509184569
 20
177.4327395658905
 30
0.0
 11
101.0122348795061
 21
177.4327395658905
 31
0.0
  0
ARC
  5
1C8D
330
2
100
AcDbEntity
  8
0
100
AcDbCircle
 10
98.06725748988606
 20
169.0327395658906
 30
0.0
 40
9.0
100
AcDbArc
 50
74.11914999172243
 51
105.8808500082775
  0
SPLINE
  5
1C8E
330
2
100
AcDbEntity
  8
0
100
AcDbSpline
210
0.0
220
0.0
230
1.0
 70
     8
 71
     3
 72
    11
 73
     7
 74
     0
 42
0.0000000001
 43
0.0000000001
 40
0.0
 40
0.0
 40
0.0
 40
0.0
 40
0.4601364636755307
 40
1.04988694485363
 40
1.713742833862792
 40
2.320347933405154
 40
2.320347933405154
 40
2.320347933405154
 40
2.320347933405179
 10
97.77975748943106
 20
176.5157395658906
 30
0.0
 10
97.75733983232317
 20
176.6707630055705
 30
0.0
 10
97.7061897770899
 20
177.024477823488
 30
0.0
 10
97.27030461555626
 20
177.4492054950897
 30
0.0
 10
96.66525390054893
 20
177.6683926750555
 30
0.0
 10
96.24006927637299
 20
177.5994013754448
 30
0.0
 10
96.03751766672202
 20
177.5851811032682
 30
0.0
  0
LINE
  5
1C8F
330
2
100
AcDbEntity
  8
0
100
AcDbLine
 10
96.03751766672202
 20
177.5851811032682
 30
0.0
 11
96.01725748988599
 21
177.7961578487298
 31
0.0
  0
LINE
  5
1C90
330
2
100
AcDbEntity
  8
0
100
AcDbLine
 10
95.56725048988596
 20
177.9327395658907
 30
0.0
 11
96.72934867386061
 21
177.9327395658907
 31
0.0
  0
LINE
  5
1C91
330
2
100
AcDbEntity
  8
0
100
AcDbLine
 10
101.5672574898859
 20
175.4327395658906
 30
0.0
 11
101.4693213509981
 21
176.5521547557089
 31
0.0
  0
LINE
  5
1C92
330
2
100
AcDbEntity
  8
0
100
AcDbLine
 10
100.0969973130501
 20
177.5851811032682
 30
0.0
 11
100.1172574898861
 21
177.7961578487298
 31
0.0
  0
LINE
  5
1C93
330
2
100
AcDbEntity
  8
0
100
AcDbLine
 10
98.35475749034106
 20
176.5157395658906
 30
0.0
 11
97.77975748943106
 21
176.5157395658906
 31
0.0
  0
SPLINE
  5
1C94
330
2
100
AcDbEntity
  8
0
100
AcDbSpline
210
0.0
220
0.0
230
1.0
 70
     8
 71
     3
 72
    11
 73
     7
 74
     0
 42
0.0000000001
 43
0.0000000001
 40
0.0
 40
0.0
 40
0.0
 40
0.0
 40
0.4601364636755307
 40
1.04988694485363
 40
1.713742833862792
 40
2.320347933405154
 40
2.320347933405154
 40
2.320347933405154
 40
2.320347933405179
 10
98.35475749034106
 20
176.5157395658906
 30
0.0
 10
98.37717514744895
 20
176.6707630055705
 30
0.0
 10
98.42832520268224
 20
177.024477823488
 30
0.0
 10
98.86421036421587
 20
177.4492054950897
 30
0.0
 10
99.46926107922321
 20
177.6683926750555
 30
0.0
 10
99.89444570339912
 20
177.5994013754448
 30
0.0
 10
100.0969973130501
 20
177.5851811032682
 30
0.0
  0
LINE
  5
1C95
330
2
100
AcDbEntity
  8
0
100
AcDbLine
 10
102.0672509184569
 20
175.4327395658905
 30
0.0
 11
102.0672509184569
 21
177.4327395658906
 31
0.0
  0
LINE
  5
1C96
330
2
100
AcDbEntity
  8
0
100
AcDbLine
 10
102.5672509184569
 20
177.9327395658905
 30
0.0
 11
102.0672509184569
 21
177.4327395658905
 31
0.0
  0
LINE
  5
1C97
330
2
100
AcDbEntity
  8
0
100
AcDbLine
 10
143.567264489886
 20
177.9327395658907
 30
0.0
 11
144.567264489886
 21
176.9327395658907
 31
0.0
  0
LINE
  5
1C99
330
2
100
AcDbEntity
  8
0
100
AcDbLine
 10
451.5672654898859
 20
176.9327395658906
 30
0.0
 11
451.5672654898859
 21
164.342147158413
 31
0.0
  0
LINE
  5
1C9A
330
2
100
AcDbEntity
  8
0
100
AcDbLine
 10
401.5672804898859
 20
176.9327395658907
 30
0.0
 11
401.5672804898859
 21
165.2146972406566
 31
0.0
  0
LINE
  5
1CA3
330
2
100
AcDbEntity
  8
0
100
AcDbLine
 10
402.5672804898859
 20
177.9327395658907
 30
0.0
 11
446.7293716738597
 21
177.9327395658906
 31
0.0
  0
LINE
  5
1CA4
330
2
100
AcDbEntity
  8
0
100
AcDbLine
 10
401.5672804898859
 20
176.9327395658907
 30
0.0
 11
444.0672654898859
 21
176.9327395658907
 31
0.0
  0
LINE
  5
1CA5
330
2
100
AcDbEntity
  8
CENTER
100
AcDbLine
 10
396.5236735086774
 20
168.4327395658907
 30
0.0
 11
456.6108874710945
 21
168.4327395658907
 31
0.0
  0
LINE
  5
1CA6
330
2
100
AcDbEntity
  8
0
100
AcDbLine
 10
402.5672804898859
 20
177.9327395658907
 30
0.0
 11
401.5672804898859
 21
176.9327395658907
 31
0.0
  0
ARC
  5
1CA7
330
2
100
AcDbEntity
  8
0
100
AcDbCircle
 10
448.0672804898859
 20
169.0327395658906
 30
0.0
 40
9.0
100
AcDbArc
 50
74.11914999172243
 51
105.8808500082775
  0
SPLINE
  5
1CA8
330
2
100
AcDbEntity
  8
0
100
AcDbSpline
210
0.0
220
0.0
230
1.0
 70
     8
 71
     3
 72
    11
 73
     7
 74
     0
 42
0.0000000001
 43
0.0000000001
 40
0.0
 40
0.0
 40
0.0
 40
0.0
 40
0.4601364636755307
 40
1.04988694485363
 40
1.713742833862792
 40
2.320347933405154
 40
2.320347933405154
 40
2.320347933405154
 40
2.320347933405179
 10
447.7797804894309
 20
176.5157395658907
 30
0.0
 10
447.757362832323
 20
176.6707630055705
 30
0.0
 10
447.7062127770898
 20
177.0244778234881
 30
0.0
 10
447.2703276155562
 20
177.4492054950898
 30
0.0
 10
446.6652769005488
 20
177.6683926750556
 30
0.0
 10
446.240092276373
 20
177.5994013754449
 30
0.0
 10
446.0375406667218
 20
177.5851811032683
 30
0.0
  0
LINE
  5
1CA9
330
2
100
AcDbEntity
  8
0
100
AcDbLine
 10
444.0672654898859
 20
175.4327395658906
 30
0.0
 11
451.5672654898859
 21
175.4327395658907
 31
0.0
  0
LINE
  5
1CAA
330
2
100
AcDbEntity
  8
0
100
AcDbLine
 10
446.0375406667218
 20
177.5851811032683
 30
0.0
 11
446.0172804898859
 21
177.7961578487299
 31
0.0
  0
LINE
  5
1CAB
330
2
100
AcDbEntity
  8
0
100
AcDbLine
 10
444.5672804898859
 20
175.4327395658907
 30
0.0
 11
444.6652166287738
 21
176.552154755709
 31
0.0
  0
LINE
  5
1CAC
330
2
100
AcDbEntity
  8
0
100
AcDbLine
 10
443.5672654898859
 20
177.9327395658906
 30
0.0
 11
444.0672654898859
 21
177.4327395658906
 31
0.0
  0
LINE
  5
1CAD
330
2
100
AcDbEntity
  8
0
100
AcDbLine
 10
444.0672654898859
 20
175.4327395658906
 30
0.0
 11
444.0672654898859
 21
177.4327395658907
 31
0.0
  0
LINE
  5
1CAE
330
2
100
AcDbEntity
  8
0
100
AcDbLine
 10
444.0672654898859
 20
177.4327395658906
 30
0.0
 11
445.1223031002656
 21
177.4327395658906
 31
0.0
  0
ARC
  5
1CAF
330
2
100
AcDbEntity
  8
0
100
AcDbCircle
 10
445.960269736293
 20
176.438852290137
 30
0.0
 40
1.3
100
AcDbArc
 50
105.8808500082775
 51
174.9999999999999
  0
LINE
  5
1CB0
330
2
100
AcDbEntity
  8
0
100
AcDbLine
 10
449.4051893059121
 20
177.9327395658906
 30
0.0
 11
450.567265489886
 21
177.9327395658906
 31
0.0
  0
LINE
  5
1CB1
330
2
100
AcDbEntity
  8
0
100
AcDbLine
 10
450.0970203130501
 20
177.5851811032683
 30
0.0
 11
450.1172804898859
 21
177.7961578487299
 31
0.0
  0
LINE
  5
1CB2
330
2
100
AcDbEntity
  8
0
100
AcDbLine
 10
448.354780490341
 20
176.5157395658907
 30
0.0
 11
447.7797804894309
 21
176.5157395658907
 31
0.0
  0
SPLINE
  5
1CB3
330
2
100
AcDbEntity
  8
0
100
AcDbSpline
210
0.0
220
0.0
230
1.0
 70
     8
 71
     3
 72
    11
 73
     7
 74
     0
 42
0.0000000001
 43
0.0000000001
 40
0.0
 40
0.0
 40
0.0
 40
0.0
 40
0.4601364636755307
 40
1.04988694485363
 40
1.713742833862792
 40
2.320347933405154
 40
2.320347933405154
 40
2.320347933405154
 40
2.320347933405179
 10
448.354780490341
 20
176.5157395658907
 30
0.0
 10
448.3771981474488
 20
176.6707630055705
 30
0.0
 10
448.4283482026822
 20
177.0244778234881
 30
0.0
 10
448.8642333642157
 20
177.4492054950898
 30
0.0
 10
449.4692840792231
 20
177.6683926750556
 30
0.0
 10
449.894468703399
 20
177.5994013754449
 30
0.0
 10
450.0970203130501
 20
177.5851811032683
 30
0.0
  0
LINE
  5
1CB4
330
2
100
AcDbEntity
  8
0
100
AcDbLine
 10
451.5672804898859
 20
175.4327395658907
 30
0.0
 11
451.469344350998
 21
176.552154755709
 31
0.0
  0
ARC
  5
1CB5
330
2
100
AcDbEntity
  8
0
100
AcDbCircle
 10
450.1742912434789
 20
176.438852290137
 30
0.0
 40
1.3
100
AcDbArc
 50
5.000000000000026
 51
74.11914999172243
  0
LINE
  5
1CB6
330
2
100
AcDbEntity
  8
0
100
AcDbLine
 10
450.567265489886
 20
177.9327395658906
 30
0.0
 11
451.5672654898859
 21
176.9327395658906
 31
0.0
  0
LINE
  5
1CB8
330
2
100
AcDbEntity
  8
0
100
AcDbLine
 10
96.56725048988597
 20
371.2554389015528
 30
0.0
 11
142.5671504898859
 21
371.2554389015527
 31
0.0
  0
LINE
  5
1CB9
330
2
100
AcDbEntity
  8
0
100
AcDbLine
 10
96.96725148988594
 20
369.8554299015528
 30
0.0
 11
137.067150489886
 21
369.8554299015527
 31
0.0
  0
LINE
  5
1CBA
330
2
100
AcDbEntity
  8
0
100
AcDbLine
 10
142.1673554898859
 20
322.6554329015527
 30
0.0
 11
102.0672504898859
 21
322.6554329015527
 31
0.0
  0
LINE
  5
1CBB
330
2
100
AcDbEntity
  8
0
100
AcDbLine
 10
96.56725048988597
 20
321.2554389015528
 30
0.0
 11
142.5671504898858
 21
321.2554389015528
 31
0.0
  0
ARC
  5
1CBC
330
2
100
AcDbEntity
  8
0
100
AcDbCircle
 10
93.56726548988593
 20
352.7554389015528
 30
0.0
 40
1.0
100
AcDbArc
 50
90.0
 51
180.0
  0
LINE
  5
1CBD
330
2
100
AcDbEntity
  8
0
100
AcDbLine
 10
94.56725048988596
 20
369.2554389015528
 30
0.0
 11
94.56725048988596
 21
323.2554389015528
 31
0.0
  0
LINE
  5
1CBE
330
2
100
AcDbEntity
  8
0
100
AcDbLine
 10
95.96724448988595
 20
368.8554299015527
 30
0.0
 11
95.96725148988594
 21
328.7554389015527
 31
0.0
  0
LINE
  5
1CBF
330
2
100
AcDbEntity
  8
0
100
AcDbLine
 10
98.06728048988601
 20
328.7554389015527
 30
0.0
 11
94.56728048988599
 21
328.7554389015527
 31
0.0
  0
CIRCLE
  5
1CC0
330
2
100
AcDbEntity
  8
0
100
AcDbCircle
 10
98.06728048988588
 20
324.7554389015527
 30
0.0
 40
3.500000000000028
  0
LINE
  5
1CC1
330
2
100
AcDbEntity
  8
0
100
AcDbLine
 10
94.56725048988596
 20
323.2554389015528
 30
0.0
 11
96.56725048988597
 21
321.2554389015528
 31
0.0
  0
LINE
  5
1CC2
330
2
100
AcDbEntity
  8
0
100
AcDbLine
 10
94.56725048988596
 20
323.2554389015528
 30
0.0
 11
96.56725048988597
 21
321.2554389015528
 31
0.0
  0
ARC
  5
1CC3
330
2
100
AcDbEntity
  8
0
100
AcDbCircle
 10
96.03758048988595
 20
326.7851389015527
 30
0.0
 40
1.742199999999999
100
AcDbArc
 50
269.9986903345002
 51
0.0013096654997424
  0
ARC
  5
1CC4
330
2
100
AcDbEntity
  8
0
100
AcDbCircle
 10
100.096980489886
 20
326.7851389015527
 30
0.0
 40
1.742199999999999
100
AcDbArc
 50
179.9986903345002
 51
270.0013096654932
  0
ARC
  5
1CC5
330
2
100
AcDbEntity
  8
0
100
AcDbCircle
 10
98.06728048988588
 20
324.7554389015527
 30
0.0
 40
4.0
100
AcDbArc
 50
0.0
 51
90.0
  0
ARC
  5
1CC6
330
2
100
AcDbEntity
  8
0
100
AcDbCircle
 10
96.03758048988595
 20
322.7257389015528
 30
0.0
 40
1.742199999999999
100
AcDbArc
 50
359.9986903345002
 51
90.00130966549322
  0
ARC
  5
1CC7
330
2
100
AcDbEntity
  8
0
100
AcDbCircle
 10
98.06728048988588
 20
324.7554389015527
 30
0.0
 40
2.049999999999998
100
AcDbArc
 50
180.0
 51
188.0619600839816
  0
ARC
  5
1CC8
330
2
100
AcDbEntity
  8
0
100
AcDbCircle
 10
98.06728048988588
 20
324.7554389015527
 30
0.0
 40
2.049999999999998
100
AcDbArc
 50
171.9380399160183
 51
180.0
  0
ARC
  5
1CC9
330
2
100
AcDbEntity
  8
0
100
AcDbCircle
 10
98.06728048988588
 20
324.7554389015527
 30
0.0
 40
2.049999999999998
100
AcDbArc
 50
351.9380399160183
 51
0.0
  0
ARC
  5
1CCA
330
2
100
AcDbEntity
  8
0
100
AcDbCircle
 10
100.096980489886
 20
322.7257389015528
 30
0.0
 40
1.742199999999999
100
AcDbArc
 50
89.99869033450025
 51
180.0013096654997
  0
ARC
  5
1CCB
330
2
100
AcDbEntity
  8
0
100
AcDbCircle
 10
98.06728048988588
 20
324.7554389015527
 30
0.0
 40
2.049999999999998
100
AcDbArc
 50
0.0
 51
8.061960083981649
  0
ARC
  5
1CCC
330
2
100
AcDbEntity
  8
0
100
AcDbCircle
 10
98.06728048988588
 20
324.7554389015527
 30
0.0
 40
2.049999999999998
100
AcDbArc
 50
270.0
 51
278.0619600839818
  0
ARC
  5
1CCD
330
2
100
AcDbEntity
  8
0
100
AcDbCircle
 10
98.06728048988588
 20
324.7554389015527
 30
0.0
 40
2.049999999999998
100
AcDbArc
 50
261.9380399160181
 51
270.0
  0
LINE
  5
1CCE
330
2
100
AcDbEntity
  8
0
100
AcDbLine
 10
102.0672504898859
 20
324.7554389015527
 30
0.0
 11
102.0672504898859
 21
321.2556379015528
 31
0.0
  0
ARC
  5
1CCF
330
2
100
AcDbEntity
  8
0
100
AcDbCircle
 10
98.06728048988588
 20
324.7554389015527
 30
0.0
 40
2.049999999999998
100
AcDbArc
 50
81.93803991601813
 51
90.0
  0
ARC
  5
1CD0
330
2
100
AcDbEntity
  8
0
100
AcDbCircle
 10
98.06728048988588
 20
324.7554389015527
 30
0.0
 40
2.049999999999998
100
AcDbArc
 50
90.0
 51
98.06196008398188
  0
LINE
  5
1CD1
330
2
100
AcDbEntity
  8
0
100
AcDbLine
 10
92.56725048988597
 20
340.7554389015527
 30
0.0
 11
89.06725048988596
 21
344.2554389015528
 31
0.0
  0
LINE
  5
1CD2
330
2
100
AcDbEntity
  8
0
100
AcDbLine
 10
92.56725048988597
 20
339.7554389015528
 30
0.0
 11
92.56725048988597
 21
352.7554389015528
 31
0.0
  0
LINE
  5
1CD3
330
2
100
AcDbEntity
  8
0
100
AcDbLine
 10
93.56725048988597
 20
338.7554389015527
 30
0.0
 11
94.56725048988596
 21
338.7554389015527
 31
0.0
  0
ARC
  5
1CD4
330
2
100
AcDbEntity
  8
0
100
AcDbCircle
 10
93.56725048988584
 20
339.7554389015528
 30
0.0
 40
1.0
100
AcDbArc
 50
180.0
 51
270.0
  0
LINE
  5
1CD5
330
2
100
AcDbEntity
  8
0
100
AcDbLine
 10
89.06725048988596
 20
348.2554389015528
 30
0.0
 11
92.56725048988597
 21
351.7554389015527
 31
0.0
  0
LINE
  5
1CD6
330
2
100
AcDbEntity
  8
0
100
AcDbLine
 10
89.06725048988596
 20
348.2554389015528
 30
0.0
 11
89.06725048988596
 21
344.2554389015528
 31
0.0
  0
LINE
  5
1CD7
330
2
100
AcDbEntity
  8
0
100
AcDbLine
 10
94.56725048988596
 20
369.2554389015528
 30
0.0
 11
96.56725048988597
 21
371.2554389015528
 31
0.0
  0
LINE
  5
1CD8
330
2
100
AcDbEntity
  8
0
100
AcDbLine
 10
93.56725048988597
 20
353.7554389015527
 30
0.0
 11
94.56725048988596
 21
353.7554389015527
 31
0.0
  0
LINE
  5
1CD9
330
2
100
AcDbEntity
  8
0
100
AcDbLine
 10
95.96724448988595
 20
368.8554299015527
 30
0.0
 11
96.96725148988594
 21
369.8554299015528
 31
0.0
  0
LINE
  5
1CDA
330
2
100
AcDbEntity
  8
0
100
AcDbLine
 10
144.5671504898859
 20
369.2554389015527
 30
0.0
 11
144.5671504898858
 21
323.2554389015528
 31
0.0
  0
LINE
  5
1CDB
330
2
100
AcDbEntity
  8
0
100
AcDbLine
 10
143.1673554898859
 20
323.6554329015528
 30
0.0
 11
143.1673554898859
 21
363.7554389015527
 31
0.0
  0
LINE
  5
1CDC
330
2
100
AcDbEntity
  8
0
100
AcDbLine
 10
142.1673554898859
 20
322.6554329015527
 30
0.0
 11
143.1673554898859
 21
323.6554329015528
 31
0.0
  0
LINE
  5
1CDD
330
2
100
AcDbEntity
  8
0
100
AcDbLine
 10
144.5673494898859
 20
323.2554389015528
 30
0.0
 11
142.5671504898858
 21
321.2554389015528
 31
0.0
  0
LINE
  5
1CDE
330
2
100
AcDbEntity
  8
0
100
AcDbLine
 10
144.5671504898858
 20
323.2554389015528
 30
0.0
 11
142.5671504898858
 21
321.2554389015528
 31
0.0
  0
LINE
  5
1CDF
330
2
100
AcDbEntity
  8
0
100
AcDbLine
 10
144.5671504898858
 20
323.2554389015528
 30
0.0
 11
142.5671504898858
 21
321.2554389015528
 31
0.0
  0
ARC
  5
1CE0
330
2
100
AcDbEntity
  8
0
100
AcDbCircle
 10
143.0970494898861
 20
369.7851389015527
 30
0.0
 40
1.742199999999999
100
AcDbArc
 50
179.9986903345002
 51
270.0013096654932
  0
ARC
  5
1CE1
330
2
100
AcDbEntity
  8
0
100
AcDbCircle
 10
143.0970494898861
 20
365.7257389015527
 30
0.0
 40
1.742199999999999
100
AcDbArc
 50
89.99869033450025
 51
180.0013096654997
  0
ARC
  5
1CE2
330
2
100
AcDbEntity
  8
0
100
AcDbCircle
 10
141.0673494898859
 20
367.7554389015528
 30
0.0
 40
2.049999999999998
100
AcDbArc
 50
270.0
 51
278.0619600839818
  0
LINE
  5
1CE3
330
2
100
AcDbEntity
  8
0
100
AcDbLine
 10
141.0671504898859
 20
363.7554389015527
 30
0.0
 11
144.5671504898859
 21
363.7554389015527
 31
0.0
  0
ARC
  5
1CE4
330
2
100
AcDbEntity
  8
0
100
AcDbCircle
 10
141.0673494898859
 20
367.7554389015528
 30
0.0
 40
2.049999999999998
100
AcDbArc
 50
81.93803991601813
 51
90.0
  0
CIRCLE
  5
1CE5
330
2
100
AcDbEntity
  8
0
100
AcDbCircle
 10
141.0673494898859
 20
367.7554389015528
 30
0.0
 40
3.500000000000028
  0
ARC
  5
1CE6
330
2
100
AcDbEntity
  8
0
100
AcDbCircle
 10
139.037649489886
 20
369.7851389015527
 30
0.0
 40
1.742199999999999
100
AcDbArc
 50
269.9986903345002
 51
0.0013096654997424
  0
ARC
  5
1CE7
330
2
100
AcDbEntity
  8
0
100
AcDbCircle
 10
139.037649489886
 20
365.7257389015527
 30
0.0
 40
1.742199999999999
100
AcDbArc
 50
359.9986903345002
 51
90.00130966549322
  0
ARC
  5
1CE8
330
2
100
AcDbEntity
  8
0
100
AcDbCircle
 10
141.0673494898859
 20
367.7554389015528
 30
0.0
 40
2.049999999999998
100
AcDbArc
 50
180.0
 51
188.0619600839816
  0
ARC
  5
1CE9
330
2
100
AcDbEntity
  8
0
100
AcDbCircle
 10
141.0673494898859
 20
367.7554389015528
 30
0.0
 40
2.049999999999998
100
AcDbArc
 50
171.9380399160183
 51
180.0
  0
ARC
  5
1CEA
330
2
100
AcDbEntity
  8
0
100
AcDbCircle
 10
141.0673494898859
 20
367.7554389015528
 30
0.0
 40
2.049999999999998
100
AcDbArc
 50
261.9380399160181
 51
270.0
  0
ARC
  5
1CEB
330
2
100
AcDbEntity
  8
0
100
AcDbCircle
 10
141.0673494898859
 20
367.7554389015528
 30
0.0
 40
2.049999999999998
100
AcDbArc
 50
90.0
 51
98.06196008398188
  0
LINE
  5
1CEC
330
2
100
AcDbEntity
  8
0
100
AcDbLine
 10
137.067150489886
 20
367.7554389015527
 30
0.0
 11
137.067150489886
 21
371.2554389015527
 31
0.0
  0
ARC
  5
1CED
330
2
100
AcDbEntity
  8
0
100
AcDbCircle
 10
141.0673494898859
 20
367.7554389015528
 30
0.0
 40
4.0
100
AcDbArc
 50
180.0
 51
270.0
  0
ARC
  5
1CEE
330
2
100
AcDbEntity
  8
0
100
AcDbCircle
 10
141.0673494898859
 20
367.7554389015528
 30
0.0
 40
2.049999999999998
100
AcDbArc
 50
351.9380399160183
 51
0.0
  0
ARC
  5
1CEF
330
2
100
AcDbEntity
  8
0
100
AcDbCircle
 10
141.0673494898859
 20
367.7554389015528
 30
0.0
 40
2.049999999999998
100
AcDbArc
 50
0.0
 51
8.061960083981649
  0
LINE
  5
1CF0
330
2
100
AcDbEntity
  8
0
100
AcDbLine
 10
142.5671504898859
 20
371.2554389015527
 30
0.0
 11
144.5671504898859
 21
369.2554389015527
 31
0.0
  0
LINE
  5
1CF1
330
2
100
AcDbEntity
  8
0
100
AcDbLine
 10
144.5671504898859
 20
369.2554389015527
 30
0.0
 11
142.5671504898859
 21
371.2554389015527
 31
0.0
  0
LINE
  5
1E03
330
2
100
AcDbEntity
  8
0
100
AcDbLine
 10
94.06726448988592
 20
338.7554389015527
 30
0.0
 11
94.06726448988592
 21
299.2554389015527
 31
0.0
  0
ENDSEC
  0
SECTION
  2
OBJECTS
  0
DICTIONARY
  5
7
330
0
100
AcDbDictionary
  3
ACAD_GROUP
350
75
  3
ACAD_LAYOUT
350
61
  3
ACAD_MLINESTYLE
350
76
  3
ACAD_PLOTSETTINGS
350
77
  3
ACAD_PLOTSTYLENAME
350
6
  3
ACADDIM
350
480
  3
ACDBHEADERROUNDTRIPXREC
350
1E70
  3
ACDBVARIABLEDICTIONARY
350
102
  3
DWGPROPS
350
3D2
  0
DICTIONARY
  5
1E91
330
2
100
AcDbDictionary
280
     1
  3
ACAD_LAYOUTSELFREF
360
1E92
  0
DICTIONARY
  5
1E93
330
1E6A
100
AcDbDictionary
280
     1
  3
ACAD_LAYOUTSELFREF
360
1E94
  0
DICTIONARY
  5
75
102
{ACAD_REACTORS
330
7
102
}
330
7
100
AcDbDictionary
  0
DICTIONARY
  5
61
102
{ACAD_REACTORS
330
7
102
}
330
7
100
AcDbDictionary
  0
DICTIONARY
  5
76
102
{ACAD_REACTORS
330
7
102
}
330
7
100
AcDbDictionary
  3
STANDARD
350
78
  0
DICTIONARY
  5
77
102
{ACAD_REACTORS
330
7
102
}
330
7
100
AcDbDictionary
  0
ACDBDICTIONARYWDFLT
  5
6
102
{ACAD_REACTORS
330
7
102
}
330
7
100
AcDbDictionary
281
     1
  3
Normal
350
5
100
AcDbDictionaryWithDefault
340
5
  0
XRECORD
  5
480
102
{ACAD_REACTORS
330
7
102
}
330
7
100
AcDbXrecord
 90
   990106
  3

 60
     0
 61
     0
 62
     1
 63
     3
 64
     1
 65
     0
 66
     0
 67
     3
 68
     1
 69
     0
 70
     0
 71
     0
 72
     0
 40
0.0
170
     2
340
0
  0
DICTIONARY
  5
1E70
102
{ACAD_REACTORS
330
7
102
}
330
7
100
AcDbDictionary
  3
CEPSNTYPE
350
1E7A
  3
DIMSTYLEDATA
350
1E7E
  3
FINGERPRINTGUID
350
1E7B
  3
HYPERLINKBASE
350
1E73
  3
INSUNITS
350
1E79
  3
LAYOUTDICT
350
1E75
  3
LWETCUNION
350
1E78
  3
PLOTSETDICT
350
1E76
  3
PLOTSTYLNAMDICT
350
1E77
  3
PSVPSCALE
350
1E7D
  3
PUCSBASE
350
1E81
  3
PUCSORGBACK
350
1E87
  3
PUCSORGBOTTOM
350
1E83
  3
PUCSORGFRONT
350
1E86
  3
PUCSORGLEFT
350
1E84
  3
PUCSORGRIGHT
350
1E85
  3
PUCSORGTOP
350
1E82
  3
PUCSORTHOREF
350
1E7F
  3
PUCSORTHOVIEW
350
1E80
  3
STYLESHEET
350
1E74
  3
TSTACKALIGN
350
1E71
  3
TSTACKSIZE
350
1E72
  3
UCSBASE
350
1E8A
  3
UCSORGBACK
350
1E90
  3
UCSORGBOTTOM
350
1E8C
  3
UCSORGFRONT
350
1E8F
  3
UCSORGLEFT
350
1E8D
  3
UCSORGRIGHT
350
1E8E
  3
UCSORGTOP
350
1E8B
  3
UCSORTHOREF
350
1E88
  3
UCSORTHOVIEW
350
1E89
  3
VERSIONGUID
350
1E7C
  0
DICTIONARY
  5
102
102
{ACAD_REACTORS
330
7
102
}
330
7
100
AcDbDictionary
  3
DIMASSOC
350
103
  0
XRECORD
  5
3D2
102
{ACAD_REACTORS
330
7
102
}
330
7
100
AcDbXrecord
  1
DWGPROPS COOKIE
  2

  3

  4

  6

  7

  8

  9

300
=
301
=
302
=
303
=
304
=
305
=
306
=
307
=
308
=
309
=
 40
0.5353330671296296
 41
2452052.431989363
 42
2453406.550756377
  1

 90
        0
  0
XRECORD
  5
1E92
102
{ACAD_REACTORS
330
1E91
102
}
330
1E91
100
AcDbXrecord
340
2
  0
XRECORD
  5
1E94
102
{ACAD_REACTORS
330
1E93
102
}
330
1E93
100
AcDbXrecord
340
1E6A
  0
MLINESTYLE
  5
78
102
{ACAD_REACTORS
330
76
102
}
330
76
100
AcDbMlineStyle
  2
STANDARD
 70
     0
  3

 62
     0
 51
90.0
 52
90.0
 71
     2
 49
0.5
 62
   256
  6
BYLAYER
 49
-0.5
 62
   256
  6
BYLAYER
  0
ACDBPLACEHOLDER
  5
5
102
{ACAD_REACTORS
330
6
102
}
330
6
100
AcDbPlaceHolder
280
     0
  0
XRECORD
  5
1E7A
102
{ACAD_REACTORS
330
1E70
102
}
330
1E70
100
AcDbXrecord
 90
        0
  0
XRECORD
  5
1E7E
102
{ACAD_REACTORS
330
1E70
102
}
330
1E70
100
AcDbXrecord
1000
DSTYLE
1002
{
1070
   179
 70
     2
1070
   277
 70
     6
1002
}
  0
XRECORD
  5
1E7B
102
{ACAD_REACTORS
330
1E70
102
}
330
1E70
100
AcDbXrecord
  1
{6385560B-F4B1-4644-A7C2-A3E32AC3D232}
  0
XRECORD
  5
1E73
102
{ACAD_REACTORS
330
1E70
102
}
330
1E70
100
AcDbXrecord
  1

  0
XRECORD
  5
1E79
102
{ACAD_REACTORS
330
1E70
102
}
330
1E70
100
AcDbXrecord
 90
        0
  0
XRECORD
  5
1E75
102
{ACAD_REACTORS
330
1E70
102
}
330
1E70
100
AcDbXrecord
340
61
  0
XRECORD
  5
1E78
102
{ACAD_REACTORS
330
1E70
102
}
330
1E70
100
AcDbXrecord
 90
    10781
  0
XRECORD
  5
1E76
102
{ACAD_REACTORS
330
1E70
102
}
330
1E70
100
AcDbXrecord
340
77
  0
XRECORD
  5
1E77
102
{ACAD_REACTORS
330
1E70
102
}
330
1E70
100
AcDbXrecord
340
6
  0
XRECORD
  5
1E7D
102
{ACAD_REACTORS
330
1E70
102
}
330
1E70
100
AcDbXrecord
 40
0.0
  0
XRECORD
  5
1E81
102
{ACAD_REACTORS
330
1E70
102
}
330
1E70
100
AcDbXrecord
340
0
  0
XRECORD
  5
1E87
102
{ACAD_REACTORS
330
1E70
102
}
330
1E70
100
AcDbXrecord
 10
0.0
 20
0.0
 30
0.0
  0
XRECORD
  5
1E83
102
{ACAD_REACTORS
330
1E70
102
}
330
1E70
100
AcDbXrecord
 10
0.0
 20
0.0
 30
0.0
  0
XRECORD
  5
1E86
102
{ACAD_REACTORS
330
1E70
102
}
330
1E70
100
AcDbXrecord
 10
0.0
 20
0.0
 30
0.0
  0
XRECORD
  5
1E84
102
{ACAD_REACTORS
330
1E70
102
}
330
1E70
100
AcDbXrecord
 10
0.0
 20
0.0
 30
0.0
  0
XRECORD
  5
1E85
102
{ACAD_REACTORS
330
1E70
102
}
330
1E70
100
AcDbXrecord
 10
0.0
 20
0.0
 30
0.0
  0
XRECORD
  5
1E82
102
{ACAD_REACTORS
330
1E70
102
}
330
1E70
100
AcDbXrecord
 10
0.0
 20
0.0
 30
0.0
  0
XRECORD
  5
1E7F
102
{ACAD_REACTORS
330
1E70
102
}
330
1E70
100
AcDbXrecord
340
0
  0
XRECORD
  5
1E80
102
{ACAD_REACTORS
330
1E70
102
}
330
1E70
100
AcDbXrecord
 70
     0
  0
XRECORD
  5
1E74
102
{ACAD_REACTORS
330
1E70
102
}
330
1E70
100
AcDbXrecord
  1
Sekkei.ctb
  0
XRECORD
  5
1E71
102
{ACAD_REACTORS
330
1E70
102
}
330
1E70
100
AcDbXrecord
 90
        1
  0
XRECORD
  5
1E72
102
{ACAD_REACTORS
330
1E70
102
}
330
1E70
100
AcDbXrecord
 90
       70
  0
XRECORD
  5
1E8A
102
{ACAD_REACTORS
330
1E70
102
}
330
1E70
100
AcDbXrecord
340
0
  0
XRECORD
  5
1E90
102
{ACAD_REACTORS
330
1E70
102
}
330
1E70
100
AcDbXrecord
 10
0.0
 20
0.0
 30
0.0
  0
XRECORD
  5
1E8C
102
{ACAD_REACTORS
330
1E70
102
}
330
1E70
100
AcDbXrecord
 10
0.0
 20
0.0
 30
0.0
  0
XRECORD
  5
1E8F
102
{ACAD_REACTORS
330
1E70
102
}
330
1E70
100
AcDbXrecord
 10
0.0
 20
0.0
 30
0.0
  0
XRECORD
  5
1E8D
102
{ACAD_REACTORS
330
1E70
102
}
330
1E70
100
AcDbXrecord
 10
0.0
 20
0.0
 30
0.0
  0
XRECORD
  5
1E8E
102
{ACAD_REACTORS
330
1E70
102
}
330
1E70
100
AcDbXrecord
 10
0.0
 20
0.0
 30
0.0
  0
XRECORD
  5
1E8B
102
{ACAD_REACTORS
330
1E70
102
}
330
1E70
100
AcDbXrecord
 10
0.0
 20
0.0
 30
0.0
  0
XRECORD
  5
1E88
102
{ACAD_REACTORS
330
1E70
102
}
330
1E70
100
AcDbXrecord
340
0
  0
XRECORD
  5
1E89
102
{ACAD_REACTORS
330
1E70
102
}
330
1E70
100
AcDbXrecord
 70
     0
  0
XRECORD
  5
1E7C
102
{ACAD_REACTORS
330
1E70
102
}
330
1E70
100
AcDbXrecord
  1
{4DD49CB9-3762-4986-B647-6DC15E13B6E1}
  0
DICTIONARYVAR
  5
103
102
{ACAD_REACTORS
330
102
102
}
330
102
100
DictionaryVariables
280
     0
  1
1
  0
ENDSEC
  0
EOF
