  0
SECTION
  2
HEADER
  9
$CLAYER
  8
1
  9
$LTSCALE
 40
3.0
  0
ENDSEC
  0
SECTION
  2
TABLES
  0
TABLE
  2
LTYPE
 70
     4
  0
LTYPE
  2
CONTINUOUS
  3
solid line
 70
    64
 72
    65
 73
     0
 40
0.0
  0
LTYPE
  2
DASHED
  3
__ __ __ __ __ __ __ __ __ __ __ __ __ __ __
 70
    64
 72
    65
 73
     2
 40
0.75
 49
0.5
 49
-0.25
  0
LTYPE
  2
CENTER
  3
____ _ ____ _ ____ _ ____ _ ____ _ ____ _ ____
 70
    64
 72
    65
 73
     4
 40
2.0
 49
1.25
 49
-0.25
 49
0.25
 49
-0.25
  0
LTYPE
  2
PHANTOM
  3
_____ _ _ _____ _ _ _____ _ _ _____ _ _ ____
 70
    64
 72
    65
 73
     6
 40
2.5
 49
1.25
 49
-0.25
 49
0.25
 49
-0.25
 49
0.25
 49
-0.25
  0
ENDTAB
  0
TABLE
  2
LAYER
 70
     1
  0
LAYER
  2
0
 70
    64
 62
     7
  6
CONTINUOUS
  0
ENDTAB
  0
TABLE
  2
STYLE
 70
     1
  0
STYLE
  2
STANDARD
 70
     0
 40
0.000000
 41
1.000000
 50
0.000000
 71
     0
 42
3.000000
  3
txt
  4
BIGFONT
  0
ENDTAB
  0
ENDSEC
  0
SECTION
  2
BLOCKS
  0
ENDSEC
  0
SECTION
  2
ENTITIES
  0
LINE
  8
0
  6
CONTINUOUS
 10
54.546242
 20
101.647499
 11
64.046242
 21
101.647499
  0
LINE
  8
0
  6
CONTINUOUS
 10
64.046242
 20
91.056793
 11
54.546242
 21
91.056793
  0
LINE
  8
0
  6
CONTINUOUS
 10
54.546242
 20
11.647496
 11
64.046242
 21
11.647496
  0
LINE
  8
0
  6
CONTINUOUS
 10
64.046242
 20
22.238195
 11
54.546242
 21
22.238195
  0
LINE
  8
0
  6
CONTINUOUS
 10
54.546242
 20
103.647499
 11
54.546242
 21
9.647496
  0
LINE
  8
0
  6
CONTINUOUS
 10
54.546242
 20
85.647499
 11
10.571240
 21
85.647499
  0
LINE
  8
0
  6
CONTINUOUS
 10
54.546242
 20
27.647495
 11
10.571239
 21
27.647495
  0
LINE
  8
0
  6
CONTINUOUS
 10
64.546242
 20
103.147499
 11
64.546242
 21
101.647499
  0
LINE
  8
0
  6
CONTINUOUS
 10
57.546242
 20
103.147499
 11
57.546242
 21
101.647499
  0
LINE
  8
0
  6
CONTINUOUS
 10
57.546242
 20
103.147499
 11
64.546242
 21
103.147499
  0
LINE
  8
0
  6
CONTINUOUS
 10
61.946239
 20
116.147499
 11
61.946239
 21
103.147499
  0
LINE
  8
0
  6
CONTINUOUS
 10
60.146240
 20
116.772499
 11
60.146240
 21
103.147499
  0
LINE
  8
0
  6
CONTINUOUS
 10
58.346241
 20
114.709999
 11
58.346241
 21
103.147499
  0
LINE
  8
0
  6
CONTINUOUS
 10
63.746239
 20
115.522499
 11
63.746239
 21
103.147499
  0
LINE
  8
0
  6
CONTINUOUS
 10
60.146240
 20
116.772499
 11
61.946239
 21
116.147499
  0
LINE
  8
0
  6
CONTINUOUS
 10
58.346241
 20
114.709999
 11
60.146240
 21
115.334999
  0
LINE
  8
0
  6
CONTINUOUS
 10
63.746239
 20
115.522499
 11
61.947250
 21
115.074783
  0
LINE
  8
0
  6
CONTINUOUS
 10
12.046238
 20
103.647499
 11
54.546242
 21
103.647499
  0
LINE
  8
0
  6
CONTINUOUS
 10
12.046238
 20
9.647496
 11
54.546242
 21
9.647496
  0
ARC
  8
0
  6
CONTINUOUS
 10
12.046263
 20
98.647530
 40
5.000000
 50
90.000000
 51
180.000000
  0
ARC
  8
0
  6
CONTINUOUS
 10
12.046237
 20
14.647496
 40
5.000000
 50
180.000000
 51
270.000000
  0
LINE
  8
0
  6
CONTINUOUS
 10
7.046263
 20
98.647507
 11
7.046238
 21
14.647486
  0
LINE
  8
0
  6
CONTINUOUS
 10
64.046242
 20
11.647496
 11
64.046242
 21
101.647499
  0
LINE
  8
0
  6
CENTER
 10
-5.024688
 20
56.647495
 11
164.375778
 21
56.647495
  0
LINE
  8
0
  6
CONTINUOUS
 10
237.546249
 20
37.847496
 11
237.546249
 21
96.847496
  0
LINE
  8
0
  6
CONTINUOUS
 10
64.046242
 20
101.647499
 11
136.891953
 21
101.647499
  0
LINE
  8
0
  6
CONTINUOUS
 10
134.546249
 20
11.647496
 11
64.046242
 21
11.647496
  0
LINE
  8
0
  6
CENTER
 10
151.557190
 20
82.347496
 11
222.348907
 21
82.347496
  0
LINE
  8
0
  6
CENTER
 10
187.046249
 20
134.897491
 11
187.046249
 21
-1.092804
  0
LINE
  8
0
  6
CONTINUOUS
 10
147.046249
 20
126.347496
 11
227.046249
 21
126.347496
  0
LINE
  8
0
  6
CONTINUOUS
 10
147.046249
 20
8.347496
 11
227.046249
 21
8.347496
  0
LINE
  8
0
  6
CENTER
 10
220.046249
 20
117.347496
 11
233.921249
 21
117.347496
  0
LINE
  8
0
  6
CENTER
 10
227.046249
 20
110.647499
 11
227.046249
 21
124.147499
  0
CIRCLE
  8
0
  6
CONTINUOUS
 10
227.046249
 20
117.347496
 40
4.250000
  0
LINE
  8
0
  6
CENTER
 10
220.046249
 20
17.347496
 11
233.921249
 21
17.347496
  0
LINE
  8
0
  6
CENTER
 10
227.046249
 20
24.047497
 11
227.046249
 21
10.547496
  0
CIRCLE
  8
0
  6
CONTINUOUS
 10
227.046249
 20
17.347496
 40
4.250000
  0
LINE
  8
0
  6
CENTER
 10
154.046249
 20
117.347496
 11
140.171249
 21
117.347496
  0
LINE
  8
0
  6
CENTER
 10
147.046249
 20
110.647499
 11
147.046249
 21
124.147499
  0
CIRCLE
  8
0
  6
CONTINUOUS
 10
147.046249
 20
117.347496
 40
4.250000
  0
LINE
  8
0
  6
CENTER
 10
154.046249
 20
17.347496
 11
140.171249
 21
17.347496
  0
LINE
  8
0
  6
CENTER
 10
147.046249
 20
24.047497
 11
147.046249
 21
10.547496
  0
CIRCLE
  8
0
  6
CONTINUOUS
 10
147.046249
 20
17.347496
 40
4.250000
  0
LINE
  8
0
  6
CONTINUOUS
 10
236.022949
 20
117.994125
 11
237.546249
 21
96.847496
  0
LINE
  8
0
  6
CONTINUOUS
 10
236.022949
 20
16.700935
 11
237.546249
 21
37.847496
  0
LINE
  8
0
  6
CONTINUOUS
 10
161.046249
 20
122.347496
 11
213.046249
 21
122.347496
  0
LINE
  8
0
  6
CONTINUOUS
 10
213.046249
 20
12.347496
 11
161.046249
 21
12.347496
  0
LINE
  8
0
  6
CONTINUOUS
 10
139.046249
 20
83.039688
 11
139.046249
 21
51.654976
  0
ARC
  8
0
  6
CONTINUOUS
 10
187.046249
 20
67.347496
 40
50.500000
 50
18.103800
 51
161.896194
  0
ARC
  8
0
  6
CONTINUOUS
 10
187.046249
 20
67.347496
 40
50.500000
 50
198.103806
 51
341.896210
  0
LINE
  8
0
  6
CONTINUOUS
 10
235.046249
 20
83.039856
 11
235.046249
 21
51.655460
  0
ARC
  8
0
  6
CONTINUOUS
 10
213.046249
 20
117.347496
 40
5.000000
 50
0.000000
 51
90.000000
  0
ARC
  8
0
  6
CONTINUOUS
 10
228.052155
 20
103.383675
 40
5.000000
 50
4.120544
 51
94.120201
  0
ARC
  8
0
  6
CONTINUOUS
 10
227.046249
 20
117.347496
 40
9.000000
 50
180.000000
 51
274.120697
  0
ARC
  8
0
  6
CONTINUOUS
 10
227.046249
 20
117.347496
 40
9.000000
 50
4.120065
 51
90.000000
  0
ARC
  8
0
  6
CONTINUOUS
 10
213.046249
 20
17.347496
 40
5.000000
 50
-90.000000
 51
0.000000
  0
ARC
  8
0
  6
CONTINUOUS
 10
228.052155
 20
31.311316
 40
5.000000
 50
265.879791
 51
355.879486
  0
ARC
  8
0
  6
CONTINUOUS
 10
227.046249
 20
17.347496
 40
9.000000
 50
270.000000
 51
355.879913
  0
ARC
  8
0
  6
CONTINUOUS
 10
227.046249
 20
17.347496
 40
9.000000
 50
85.879837
 51
180.000000
  0
LINE
  8
0
  6
CONTINUOUS
 10
233.039154
 20
103.742958
 11
235.046249
 21
83.039856
  0
LINE
  8
0
  6
CONTINUOUS
 10
233.039154
 20
30.952076
 11
235.046356
 21
51.655460
  0
ARC
  8
0
  6
CONTINUOUS
 10
161.046249
 20
117.347496
 40
5.000000
 50
90.000000
 51
180.000000
  0
ARC
  8
0
  6
CONTINUOUS
 10
147.046249
 20
117.347496
 40
9.000000
 50
-94.120667
 51
0.000000
  0
ARC
  8
0
  6
CONTINUOUS
 10
146.040344
 20
103.383675
 40
5.000000
 50
85.879799
 51
175.879501
  0
LINE
  8
0
  6
CONTINUOUS
 10
141.053253
 20
103.742958
 11
139.046249
 21
83.039856
  0
ARC
  8
0
  6
CONTINUOUS
 10
146.040344
 20
31.311316
 40
5.000000
 50
-175.879501
 51
-85.879791
  0
ARC
  8
0
  6
CONTINUOUS
 10
147.046249
 20
17.347496
 40
9.000000
 50
0.000000
 51
94.120163
  0
ARC
  8
0
  6
CONTINUOUS
 10
161.046249
 20
17.347496
 40
5.000000
 50
180.000000
 51
270.000000
  0
LINE
  8
0
  6
CONTINUOUS
 10
141.053253
 20
30.952076
 11
139.046143
 21
51.655460
  0
ARC
  8
0
  6
CONTINUOUS
 10
147.046249
 20
117.347496
 40
9.000000
 50
90.000000
 51
175.879898
  0
LINE
  8
0
  6
CONTINUOUS
 10
138.069443
 20
117.994125
 11
136.546249
 21
96.847496
  0
LINE
  8
0
  6
CONTINUOUS
 10
138.069443
 20
16.700935
 11
136.546249
 21
37.847496
  0
ARC
  8
0
  6
CONTINUOUS
 10
147.046249
 20
17.347496
 40
9.000000
 50
-175.879898
 51
-90.000000
  0
ARC
  8
0
  6
CONTINUOUS
 10
141.546249
 20
21.647526
 40
5.000000
 50
143.994797
 51
180.000000
  0
ARC
  8
0
  6
CONTINUOUS
 10
134.546249
 20
13.647496
 40
2.000000
 50
-90.000000
 51
0.000000
  0
LINE
  8
0
  6
CONTINUOUS
 10
136.546249
 20
13.647496
 11
136.546249
 21
21.647526
  0
LINE
  8
0
  6
CONTINUOUS
 10
136.546249
 20
96.847496
 11
136.546249
 21
37.847485
  0
LINE
  8
0
  6
CONTINUOUS
 10
64.046242
 20
91.056793
 11
134.546249
 21
91.056793
  0
LINE
  8
0
  6
CONTINUOUS
 10
64.046242
 20
22.238186
 11
135.046249
 21
22.238186
  0
CIRCLE
  8
0
  6
CONTINUOUS
 10
187.046249
 20
82.347496
 40
23.500000
  0
LINE
  8
0
  6
CONTINUOUS
 10
180.671249
 20
44.900726
 11
180.671249
 21
39.347496
  0
LINE
  8
0
  6
CONTINUOUS
 10
183.858749
 20
46.917812
 11
183.858749
 21
48.910000
  0
LINE
  8
0
  6
CONTINUOUS
 10
190.233749
 20
46.917812
 11
190.233749
 21
48.910000
  0
LINE
  8
0
  6
CONTINUOUS
 10
186.423645
 20
47.739590
 11
186.423645
 21
40.393394
  0
LINE
  8
0
  6
CONTINUOUS
 10
187.619049
 20
47.739590
 11
187.619049
 21
40.393394
  0
LINE
  8
0
  6
CONTINUOUS
 10
193.894348
 20
47.739590
 11
193.894348
 21
40.343597
  0
LINE
  8
0
  6
CONTINUOUS
 10
194.990051
 20
43.817474
 11
194.990051
 21
40.343597
  0
LINE
  8
0
  6
CONTINUOUS
 10
179.158752
 20
47.639980
 11
176.086853
 21
47.639980
  0
LINE
  8
0
  6
CONTINUOUS
 10
176.086853
 20
47.639980
 11
175.367050
 21
46.747486
  0
LINE
  8
0
  6
CONTINUOUS
 10
175.453644
 20
48.910000
 11
174.296249
 21
47.428005
  0
LINE
  8
0
  6
CONTINUOUS
 10
175.367050
 20
41.238426
 11
176.098343
 21
40.468105
  0
LINE
  8
0
  6
CONTINUOUS
 10
174.296249
 20
40.588356
 11
175.526047
 21
39.347496
  0
LINE
  8
0
  6
CONTINUOUS
 10
174.296249
 20
47.428005
 11
174.296249
 21
40.588356
  0
LINE
  8
0
  6
CONTINUOUS
 10
175.367050
 20
46.747486
 11
175.367050
 21
41.238426
  0
LINE
  8
0
  6
CONTINUOUS
 10
179.749847
 20
47.068539
 11
179.146652
 21
47.639980
  0
LINE
  8
0
  6
CONTINUOUS
 10
179.740250
 20
48.910000
 11
180.671249
 21
47.876858
  0
LINE
  8
0
  6
CONTINUOUS
 10
179.749847
 20
46.917812
 11
180.671249
 21
46.917812
  0
LINE
  8
0
  6
CONTINUOUS
 10
175.453644
 20
48.910000
 11
179.740250
 21
48.910000
  0
LINE
  8
0
  6
CONTINUOUS
 10
179.749847
 20
43.854828
 11
178.081451
 21
43.854828
  0
LINE
  8
0
  6
CONTINUOUS
 10
179.749847
 20
42.858734
 11
179.749847
 21
43.655605
  0
LINE
  8
0
  6
CONTINUOUS
 10
177.757645
 20
40.468105
 11
176.098343
 21
40.468105
  0
ARC
  8
0
  6
CONTINUOUS
 10
177.757645
 20
42.460297
 40
1.992187
 50
-89.999786
 51
0.000109
  0
LINE
  8
0
  6
CONTINUOUS
 10
179.749847
 20
40.109764
 11
179.749847
 21
39.347496
  0
LINE
  8
0
  6
CONTINUOUS
 10
180.671249
 20
47.876858
 11
180.671249
 21
46.917812
  0
LINE
  8
0
  6
CONTINUOUS
 10
179.749847
 20
43.854828
 11
179.749847
 21
42.460297
  0
LINE
  8
0
  6
CONTINUOUS
 10
178.081451
 20
44.900726
 11
178.081451
 21
43.854828
  0
LINE
  8
0
  6
CONTINUOUS
 10
179.749847
 20
39.347496
 11
180.671249
 21
39.347496
  0
LINE
  8
0
  6
CONTINUOUS
 10
179.749847
 20
40.109764
 11
178.841354
 21
39.347496
  0
LINE
  8
0
  6
CONTINUOUS
 10
187.619049
 20
40.393394
 11
188.017456
 21
40.393394
  0
LINE
  8
0
  6
CONTINUOUS
 10
185.950546
 20
40.393394
 11
185.950546
 21
39.347496
  0
LINE
  8
0
  6
CONTINUOUS
 10
188.017456
 20
40.393394
 11
188.017456
 21
39.347496
  0
LINE
  8
0
  6
CONTINUOUS
 10
189.568756
 20
46.917812
 11
190.233749
 21
46.917812
  0
LINE
  8
0
  6
CONTINUOUS
 10
183.858749
 20
46.917812
 11
184.566345
 21
46.917812
  0
LINE
  8
0
  6
CONTINUOUS
 10
183.858749
 20
48.910000
 11
190.233749
 21
48.910000
  0
LINE
  8
0
  6
CONTINUOUS
 10
185.950546
 20
39.347496
 11
188.017456
 21
39.347496
  0
LINE
  8
0
  6
CONTINUOUS
 10
185.950546
 20
40.393394
 11
186.423645
 21
40.393394
  0
ARC
  8
0
  6
CONTINUOUS
 10
197.243744
 20
46.357506
 40
2.552490
 50
-73.981873
 51
90.003510
  0
ARC
  8
0
  6
CONTINUOUS
 10
197.243744
 20
46.357506
 40
1.557193
 50
-82.585274
 51
62.411850
  0
LINE
  8
0
  6
CONTINUOUS
 10
193.421249
 20
48.910000
 11
197.243744
 21
48.910000
  0
LINE
  8
0
  6
CONTINUOUS
 10
193.421249
 20
48.910000
 11
193.421249
 21
47.739590
  0
LINE
  8
0
  6
CONTINUOUS
 10
194.990051
 20
47.739590
 11
194.990051
 21
44.813335
  0
LINE
  8
0
  6
CONTINUOUS
 10
197.948151
 20
43.904125
 11
199.527954
 21
40.343597
  0
LINE
  8
0
  6
CONTINUOUS
 10
197.030548
 20
43.817474
 11
198.525650
 21
40.343597
  0
LINE
  8
0
  6
CONTINUOUS
 10
193.421249
 20
40.343597
 11
193.894348
 21
40.343597
  0
LINE
  8
0
  6
CONTINUOUS
 10
194.990051
 20
40.343597
 11
195.425858
 21
40.343597
  0
LINE
  8
0
  6
CONTINUOUS
 10
195.425858
 20
39.347496
 11
193.421249
 21
39.347496
  0
LINE
  8
0
  6
CONTINUOUS
 10
198.327057
 20
40.343597
 11
198.525650
 21
40.343597
  0
LINE
  8
0
  6
CONTINUOUS
 10
199.527954
 20
40.343597
 11
199.796249
 21
40.343597
  0
LINE
  8
0
  6
CONTINUOUS
 10
198.327057
 20
39.347496
 11
199.796249
 21
39.347496
  0
LINE
  8
0
  6
CONTINUOUS
 10
199.796249
 20
40.343597
 11
199.796249
 21
39.347496
  0
LINE
  8
0
  6
CONTINUOUS
 10
198.327057
 20
40.343597
 11
198.327057
 21
39.347496
  0
LINE
  8
0
  6
CONTINUOUS
 10
195.425858
 20
40.343597
 11
195.425858
 21
39.347496
  0
LINE
  8
0
  6
CONTINUOUS
 10
193.421249
 20
40.343597
 11
193.421249
 21
39.347496
  0
LINE
  8
0
  6
CONTINUOUS
 10
184.908752
 20
47.739590
 11
184.566345
 21
46.917812
  0
LINE
  8
0
  6
CONTINUOUS
 10
189.280045
 20
47.739590
 11
189.568756
 21
46.917812
  0
LINE
  8
0
  6
CONTINUOUS
 10
187.619049
 20
47.739590
 11
189.280045
 21
47.739590
  0
LINE
  8
0
  6
CONTINUOUS
 10
186.423645
 20
47.739590
 11
184.908752
 21
47.739590
  0
LINE
  8
0
  6
CONTINUOUS
 10
193.421249
 20
47.739590
 11
193.894348
 21
47.739590
  0
LINE
  8
0
  6
CONTINUOUS
 10
194.990051
 20
47.739590
 11
197.964951
 21
47.737652
  0
LINE
  8
0
  6
CONTINUOUS
 10
179.749847
 20
47.068539
 11
179.749847
 21
46.917812
  0
LINE
  8
0
  6
CONTINUOUS
 10
175.526047
 20
39.347496
 11
178.841354
 21
39.347496
  0
LINE
  8
0
  6
CONTINUOUS
 10
194.990051
 20
44.813335
 11
197.444748
 21
44.813335
  0
LINE
  8
0
  6
CONTINUOUS
 10
194.990051
 20
43.817474
 11
197.030548
 21
43.817474
  0
LINE
  8
0
  6
CONTINUOUS
 10
178.081451
 20
44.900726
 11
180.671249
 21
44.900726
  0
LINE
  8
0
  6
CONTINUOUS
 10
173.046249
 20
121.416298
 11
173.046249
 21
115.868103
  0
LINE
  8
0
  6
CONTINUOUS
 10
201.046249
 20
121.416298
 11
201.046249
 21
115.868118
  0
LINE
  8
0
  6
CONTINUOUS
 10
173.046249
 20
18.826885
 11
173.046249
 21
13.552866
  0
LINE
  8
0
  6
CONTINUOUS
 10
201.046249
 20
18.826885
 11
201.046249
 21
13.552866
  0
LINE
  8
0
  6
CENTER
 10
387.046265
 20
1.647496
 11
387.046265
 21
132.147491
  0
LINE
  8
0
  6
CONTINUOUS
 10
345.046265
 20
104.847488
 11
345.046265
 21
59.847488
  0
LINE
  8
0
  6
CONTINUOUS
 10
424.046265
 20
117.399376
 11
424.046265
 21
17.295576
  0
LINE
  8
0
  6
CENTER
 10
305.546265
 20
82.347496
 11
443.296265
 21
82.347496
  0
LINE
  8
0
  6
CONTINUOUS
 10
349.046265
 20
105.847496
 11
346.046265
 21
105.847496
  0
LINE
  8
0
  6
CONTINUOUS
 10
349.046265
 20
58.847492
 11
346.046265
 21
58.847492
  0
LINE
  8
0
  6
CONTINUOUS
 10
347.511658
 20
126.347496
 11
339.046265
 21
126.347496
  0
LINE
  8
0
  6
CONTINUOUS
 10
347.511658
 20
8.347496
 11
339.046265
 21
8.347496
  0
LINE
  8
0
  6
CONTINUOUS
 10
421.098541
 20
120.398933
 11
351.011353
 21
121.622025
  0
LINE
  8
0
  6
CONTINUOUS
 10
352.569336
 20
13.099606
 11
421.098663
 21
14.296046
  0
LINE
  8
0
  6
CONTINUOUS
 10
422.360748
 20
96.847496
 11
354.212036
 21
96.847496
  0
LINE
  8
0
  6
CONTINUOUS
 10
422.360748
 20
37.847496
 11
352.046265
 21
37.847496
  0
ARC
  8
0
  6
CONTINUOUS
 10
421.046265
 20
117.399376
 40
3.000000
 50
0.000000
 51
89.000359
  0
ARC
  8
0
  6
CONTINUOUS
 10
421.046265
 20
17.295576
 40
3.000000
 50
-88.999687
 51
0.000000
  0
ARC
  8
0
  6
CONTINUOUS
 10
352.046265
 20
34.847515
 40
3.000000
 50
90.000000
 51
180.000000
  0
LINE
  8
0
  6
CENTER
 10
333.983765
 20
17.347496
 11
353.733765
 21
17.347496
  0
LINE
  8
0
  6
CENTER
 10
335.733765
 20
117.347496
 11
352.733765
 21
117.347496
  0
LINE
  8
0
  6
DASHED
 10
339.046265
 20
113.097496
 11
349.046265
 21
113.097496
  0
LINE
  8
0
  6
DASHED
 10
339.046265
 20
121.597496
 11
349.046265
 21
121.597496
  0
LINE
  8
0
  6
DASHED
 10
339.046265
 20
21.597496
 11
349.046265
 21
21.597496
  0
LINE
  8
0
  6
DASHED
 10
339.046265
 20
13.097496
 11
349.046265
 21
13.097496
  0
LINE
  8
0
  6
CONTINUOUS
 10
361.046265
 20
11.647496
 11
413.046265
 21
11.647496
  0
ARC
  8
0
  6
CONTINUOUS
 10
413.046265
 20
14.647496
 40
3.000000
 50
270.000000
 51
351.561890
  0
ARC
  8
0
  6
CONTINUOUS
 10
361.046265
 20
14.647496
 40
3.000000
 50
208.811905
 51
270.000000
  0
ARC
  8
0
  6
CONTINUOUS
 10
346.046265
 20
59.847492
 40
1.000000
 50
180.000000
 51
270.000000
  0
ARC
  8
0
  6
CONTINUOUS
 10
346.046265
 20
104.847488
 40
1.000000
 50
90.000000
 51
180.000000
  0
ARC
  8
0
  6
CONTINUOUS
 10
387.046265
 20
56.647495
 40
45.000000
 50
-34.692108
 51
21.039440
  0
LINE
  8
0
  6
CONTINUOUS
 10
429.046265
 20
104.847488
 11
429.046265
 21
59.847488
  0
LINE
  8
0
  6
CONTINUOUS
 10
426.046265
 20
105.847496
 11
428.046265
 21
105.847496
  0
LINE
  8
0
  6
CONTINUOUS
 10
426.046265
 20
58.847492
 11
428.046265
 21
58.847492
  0
ARC
  8
0
  6
CONTINUOUS
 10
426.046265
 20
107.847496
 40
2.000000
 50
180.000000
 51
270.000000
  0
ARC
  8
0
  6
CONTINUOUS
 10
426.046265
 20
56.847504
 40
2.000000
 50
90.000000
 51
180.000000
  0
ARC
  8
0
  6
CONTINUOUS
 10
428.046265
 20
59.847492
 40
1.000000
 50
-90.000000
 51
0.000000
  0
ARC
  8
0
  6
CONTINUOUS
 10
428.046265
 20
104.847488
 40
1.000000
 50
0.000000
 51
90.000000
  0
LINE
  8
0
  6
CONTINUOUS
 10
339.046265
 20
110.063614
 11
346.483765
 21
109.084999
  0
LINE
  8
0
  6
CONTINUOUS
 10
346.483765
 20
109.084999
 11
351.483765
 21
105.834999
  0
LINE
  8
0
  6
CONTINUOUS
 10
354.397858
 20
96.419998
 11
355.858765
 21
95.459999
  0
LINE
  8
0
  6
CONTINUOUS
 10
355.858765
 20
95.459999
 11
355.358765
 21
89.459999
  0
LINE
  8
0
  6
CONTINUOUS
 10
355.358765
 20
89.459999
 11
353.358765
 21
85.959999
  0
LINE
  8
0
  6
CONTINUOUS
 10
353.358765
 20
85.959999
 11
355.233765
 21
80.459999
  0
LINE
  8
0
  6
CONTINUOUS
 10
355.233765
 20
80.459999
 11
354.608765
 21
74.709999
  0
LINE
  8
0
  6
CONTINUOUS
 10
354.608765
 20
74.709999
 11
353.983765
 21
68.459999
  0
LINE
  8
0
  6
CONTINUOUS
 10
353.983765
 20
68.459999
 11
355.108765
 21
63.834995
  0
LINE
  8
0
  6
CONTINUOUS
 10
355.108765
 20
63.834995
 11
353.983765
 21
59.584995
  0
LINE
  8
0
  6
CONTINUOUS
 10
353.983765
 20
59.584995
 11
350.733765
 21
54.709995
  0
LINE
  8
0
  6
CONTINUOUS
 10
350.733765
 20
54.709995
 11
346.233765
 21
52.709995
  0
LINE
  8
0
  6
CONTINUOUS
 10
346.233765
 20
52.709995
 11
341.983765
 21
50.084995
  0
LINE
  8
0
  6
CONTINUOUS
 10
341.983765
 20
50.084995
 11
339.046265
 21
49.688038
  0
LINE
  8
0
  6
CONTINUOUS
 10
351.483765
 20
105.834999
 11
352.233765
 21
101.397499
  0
LINE
  8
0
  6
CONTINUOUS
 10
352.233765
 20
101.397499
 11
354.397858
 21
96.419998
  0
LINE
  8
0
  6
CONTINUOUS
 10
349.046265
 20
124.347496
 11
349.046265
 21
53.959995
  0
LINE
  8
0
  6
CONTINUOUS
 10
349.046265
 20
11.072716
 11
349.046265
 21
10.347496
  0
LINE
  8
0
  6
CONTINUOUS
 10
339.046265
 20
126.347496
 11
339.046265
 21
91.347496
  0
LINE
  8
0
  6
CONTINUOUS
 10
339.046265
 20
8.347496
 11
339.046265
 21
73.347496
  0
LINE
  8
0
  6
CENTER
 10
333.796265
 20
56.647495
 11
443.296265
 21
56.647495
  0
ARC
  8
0
  6
CONTINUOUS
 10
347.046265
 20
124.347488
 40
2.000000
 50
0.000000
 51
90.000000
  0
ARC
  8
0
  6
CONTINUOUS
 10
347.511658
 20
124.347488
 40
2.000000
 50
15.000500
 51
90.000000
  0
ARC
  8
0
  6
CONTINUOUS
 10
351.046265
 20
123.621742
 40
2.000000
 50
180.000000
 51
269.000610
  0
ARC
  8
0
  6
CONTINUOUS
 10
352.621857
 20
124.594398
 40
3.000000
 50
195.000504
 51
269.000610
  0
LINE
  8
0
  6
CONTINUOUS
 10
349.443451
 20
124.865135
 11
349.724060
 21
123.817894
  0
LINE
  8
0
  6
CONTINUOUS
 10
349.723938
 20
10.876526
 11
349.443451
 21
9.829866
  0
ARC
  8
0
  6
CONTINUOUS
 10
347.046265
 20
10.347496
 40
2.000000
 50
-90.000000
 51
0.000000
  0
ARC
  8
0
  6
CONTINUOUS
 10
347.511658
 20
10.347506
 40
2.000000
 50
270.000000
 51
345.000000
  0
LINE
  8
0
  6
CONTINUOUS
 10
349.046265
 20
11.072716
 11
349.046265
 21
34.847507
  0
ARC
  8
0
  6
CONTINUOUS
 10
351.046265
 20
11.072726
 40
2.000000
 50
91.000633
 51
180.000000
  0
LINE
  8
0
  6
CONTINUOUS
 10
352.569336
 20
13.099606
 11
351.011353
 21
13.072416
  0
ARC
  8
0
  6
CONTINUOUS
 10
352.621643
 20
10.100076
 40
3.000000
 50
91.000526
 51
165.000107
  0
LINE
  8
0
  6
CONTINUOUS
 10
434.046265
 20
82.747993
 11
434.046265
 21
30.546986
  0
LINE
  8
0
  6
CONTINUOUS
 10
413.146759
 20
9.647496
 11
360.945740
 21
9.647496
  0
LINE
  8
0
  6
CONTINUOUS
 10
431.995941
 20
87.697746
 11
429.046265
 21
90.647476
  0
LINE
  8
0
  6
CONTINUOUS
 10
355.995941
 20
11.697736
 11
354.559357
 21
13.134346
  0
ARC
  8
0
  6
CONTINUOUS
 10
360.945740
 20
16.647495
 40
7.000000
 50
225.000107
 51
270.000000
  0
ARC
  8
0
  6
CONTINUOUS
 10
413.146759
 20
16.647495
 40
7.000000
 50
270.000000
 51
315.000000
  0
ARC
  8
0
  6
CONTINUOUS
 10
427.046265
 20
30.546976
 40
7.000000
 50
-44.999882
 51
0.000000
  0
ARC
  8
0
  6
CONTINUOUS
 10
427.046265
 20
82.747978
 40
7.000000
 50
0.000000
 51
45.000229
  0
LINE
  8
0
  6
CONTINUOUS
 10
431.995941
 20
25.597246
 11
424.046265
 21
17.647495
  0
LINE
  8
0
  6
CONTINUOUS
 10
418.096558
 20
11.697746
 11
420.687653
 21
14.288866
  0
LINE
  8
0
  6
CONTINUOUS
 10
313.046265
 20
73.347496
 11
313.046265
 21
91.347496
  0
LINE
  8
0
  6
CONTINUOUS
 10
343.046265
 20
91.347496
 11
313.046265
 21
91.347496
  0
LINE
  8
0
  6
CONTINUOUS
 10
343.046265
 20
73.347496
 11
313.046265
 21
73.347496
  0
LINE
  8
0
  6
CONTINUOUS
 10
343.046265
 20
92.347496
 11
343.046265
 21
72.347496
  0
LINE
  8
0
  6
CONTINUOUS
 10
345.046265
 20
92.347496
 11
343.046265
 21
92.347496
  0
LINE
  8
0
  6
CONTINUOUS
 10
345.046265
 20
72.347496
 11
343.046265
 21
72.347496
  0
ARC
  8
0
  6
CONTINUOUS
 10
337.046265
 20
82.347496
 40
3.000000
 50
-90.000000
 51
90.000000
  0
LINE
  8
0
  6
CONTINUOUS
 10
337.046265
 20
85.347496
 11
313.046265
 21
85.347496
  0
LINE
  8
0
  6
CONTINUOUS
 10
337.046265
 20
79.347496
 11
313.046265
 21
79.347496
  0
LINE
  8
0
  6
CONTINUOUS
 10
192.546249
 20
79.347519
 11
192.546249
 21
85.347519
  0
LINE
  8
0
  6
CONTINUOUS
 10
198.546249
 20
79.347534
 11
198.546249
 21
85.347534
  0
LINE
  8
0
  6
CONTINUOUS
 10
198.546249
 20
79.347534
 11
192.546249
 21
79.347519
  0
LINE
  8
0
  6
CONTINUOUS
 10
198.546249
 20
85.347534
 11
192.546249
 21
85.347519
  0
ARC
  8
0
  6
CONTINUOUS
 10
187.046249
 20
82.347496
 40
9.000000
 50
19.471210
 51
340.528809
  0
LINE
  8
0
  6
CENTER
 10
187.046249
 20
320.245941
 11
187.046249
 21
184.783432
  0
LINE
  8
0
  6
CENTER
 10
-8.526562
 20
265.076569
 11
251.187500
 21
265.076569
  0
LINE
  8
0
  6
CONTINUOUS
 10
233.372131
 20
302.076569
 11
138.494568
 21
302.076569
  0
LINE
  8
0
  6
CONTINUOUS
 10
136.336838
 20
294.079315
 11
136.495255
 21
300.128906
  0
LINE
  8
0
  6
CONTINUOUS
 10
134.388443
 20
310.076569
 11
64.046249
 21
310.076569
  0
LINE
  8
0
  6
CONTINUOUS
 10
64.046249
 20
294.076569
 11
143.388794
 21
294.076569
  0
LINE
  8
0
  6
CONTINUOUS
 10
64.046249
 20
236.076569
 11
134.663132
 21
236.076569
  0
LINE
  8
0
  6
CONTINUOUS
 10
134.519379
 20
220.076569
 11
64.046249
 21
220.076569
  0
LINE
  8
0
  6
CONTINUOUS
 10
135.289322
 20
265.076569
 11
136.546249
 21
217.076569
  0
LINE
  8
0
  6
CONTINUOUS
 10
170.046249
 20
297.076569
 11
170.046249
 21
229.076569
  0
LINE
  8
0
  6
CONTINUOUS
 10
204.046249
 20
297.076569
 11
204.046249
 21
229.076569
  0
LINE
  8
0
  6
CONTINUOUS
 10
143.388794
 20
292.076569
 11
143.388794
 21
228.611557
  0
LINE
  8
0
  6
CONTINUOUS
 10
209.546249
 20
307.076569
 11
164.546249
 21
307.076569
  0
LINE
  8
0
  6
CONTINUOUS
 10
163.546249
 20
306.076569
 11
163.546249
 21
304.076569
  0
LINE
  8
0
  6
CONTINUOUS
 10
210.546249
 20
306.076569
 11
210.546249
 21
304.076569
  0
ARC
  8
0
  6
CONTINUOUS
 10
161.546249
 20
304.076569
 40
2.000000
 50
-90.000000
 51
0.000000
  0
ARC
  8
0
  6
CONTINUOUS
 10
212.546249
 20
304.076569
 40
2.000000
 50
180.000000
 51
270.000000
  0
ARC
  8
0
  6
CONTINUOUS
 10
164.546265
 20
306.076569
 40
1.000000
 50
90.000000
 51
180.000000
  0
ARC
  8
0
  6
CONTINUOUS
 10
209.546249
 20
306.076569
 40
1.000000
 50
0.000000
 51
90.000000
  0
LINE
  8
0
  6
CONTINUOUS
 10
198.546249
 20
191.076569
 11
178.046249
 21
191.076569
  0
LINE
  8
0
  6
CONTINUOUS
 10
178.046249
 20
217.076569
 11
178.046249
 21
191.076569
  0
LINE
  8
0
  6
CONTINUOUS
 10
198.546249
 20
191.076569
 11
198.546249
 21
217.076569
  0
LINE
  8
0
  6
CONTINUOUS
 10
195.531250
 20
191.076569
 11
195.531250
 21
217.076569
  0
LINE
  8
0
  6
CONTINUOUS
 10
136.546249
 20
217.076569
 11
237.546249
 21
217.076569
  0
LINE
  8
0
  6
CONTINUOUS
 10
235.371445
 20
300.128906
 11
237.546249
 21
217.076569
  0
LINE
  8
0
  6
CONTINUOUS
 10
138.337448
 20
227.076569
 11
235.336075
 21
227.076569
  0
ARC
  8
0
  6
CONTINUOUS
 10
235.336075
 20
225.076569
 40
2.000000
 50
1.500000
 51
90.000000
  0
ARC
  8
0
  6
CONTINUOUS
 10
233.372131
 20
300.076569
 40
2.000000
 50
1.500000
 51
90.000000
  0
ARC
  8
0
  6
CONTINUOUS
 10
206.046249
 20
229.076569
 40
2.000000
 50
180.000000
 51
270.000000
  0
ARC
  8
0
  6
CONTINUOUS
 10
168.046249
 20
229.076569
 40
2.000000
 50
-90.000000
 51
0.000000
  0
LINE
  8
0
  6
CONTINUOUS
 10
169.904312
 20
228.336563
 11
204.188187
 21
228.336563
  0
ARC
  8
0
  6
CONTINUOUS
 10
138.337448
 20
225.076569
 40
2.000000
 50
90.000000
 51
181.500000
  0
ARC
  8
0
  6
CONTINUOUS
 10
134.519379
 20
218.076569
 40
2.000000
 50
1.500000
 51
90.000000
  0
LINE
  8
0
  6
CONTINUOUS
 10
136.387772
 20
308.128906
 11
136.495255
 21
304.024200
  0
ARC
  8
0
  6
CONTINUOUS
 10
134.388443
 20
308.076569
 40
2.000000
 50
1.500000
 51
90.000000
  0
ARC
  8
0
  6
CONTINUOUS
 10
138.494568
 20
304.076569
 40
2.000000
 50
181.500000
 51
270.000000
  0
ARC
  8
0
  6
CONTINUOUS
 10
138.494568
 20
300.076569
 40
2.000000
 50
90.000000
 51
178.500000
  0
LINE
  8
0
  6
CENTER
 10
227.046249
 20
209.387970
 11
227.046249
 21
233.250626
  0
LINE
  8
0
  6
DASHED
 10
231.296249
 20
227.076569
 11
231.296249
 21
217.076569
  0
LINE
  8
0
  6
DASHED
 10
222.796249
 20
227.076569
 11
222.796249
 21
217.076569
  0
LINE
  8
0
  6
CENTER
 10
147.046249
 20
209.387970
 11
147.046249
 21
233.250626
  0
LINE
  8
0
  6
DASHED
 10
142.796249
 20
227.076569
 11
142.796249
 21
217.076569
  0
LINE
  8
0
  6
DASHED
 10
151.296249
 20
227.076569
 11
151.296249
 21
217.076569
  0
LINE
  8
0
  6
CONTINUOUS
 10
54.546249
 20
310.076569
 11
64.046249
 21
310.076569
  0
LINE
  8
0
  6
CONTINUOUS
 10
64.046249
 20
294.076569
 11
54.546249
 21
294.076569
  0
LINE
  8
0
  6
CONTINUOUS
 10
54.546249
 20
220.076569
 11
64.046249
 21
220.076569
  0
LINE
  8
0
  6
CONTINUOUS
 10
64.046249
 20
220.076569
 11
64.046249
 21
258.210541
  0
LINE
  8
0
  6
CONTINUOUS
 10
64.046249
 20
236.076569
 11
54.546249
 21
236.076569
  0
LINE
  8
0
  6
CONTINUOUS
 10
57.546249
 20
259.076569
 11
57.546249
 21
271.076569
  0
LINE
  8
0
  6
CONTINUOUS
 10
64.546249
 20
259.076569
 11
64.546249
 21
271.076569
  0
LINE
  8
0
  6
CONTINUOUS
 10
58.546249
 20
272.076569
 11
63.546249
 21
272.076569
  0
LINE
  8
0
  6
CONTINUOUS
 10
63.546249
 20
258.076569
 11
58.546249
 21
258.076569
  0
ARC
  8
0
  6
CONTINUOUS
 10
63.546249
 20
271.076569
 40
1.000000
 50
0.000000
 51
90.000000
  0
ARC
  8
0
  6
CONTINUOUS
 10
58.546249
 20
271.076569
 40
1.000000
 50
90.000000
 51
180.000000
  0
ARC
  8
0
  6
CONTINUOUS
 10
58.546249
 20
259.076569
 40
1.000000
 50
180.000000
 51
270.000000
  0
ARC
  8
0
  6
CONTINUOUS
 10
63.546249
 20
259.076569
 40
1.000000
 50
-90.000000
 51
0.000000
  0
LINE
  8
0
  6
CONTINUOUS
 10
62.046249
 20
261.576569
 11
62.046249
 21
268.576569
  0
LINE
  8
0
  6
CONTINUOUS
 10
60.046249
 20
261.576569
 11
60.046249
 21
268.576569
  0
ARC
  8
0
  6
CONTINUOUS
 10
61.046249
 20
268.576569
 40
1.000000
 50
90.000000
 51
180.000000
  0
ARC
  8
0
  6
CONTINUOUS
 10
61.046249
 20
268.576569
 40
1.000000
 50
0.000000
 51
90.000000
  0
ARC
  8
0
  6
CONTINUOUS
 10
61.046249
 20
261.576569
 40
1.000000
 50
180.000000
 51
270.000000
  0
ARC
  8
0
  6
CONTINUOUS
 10
61.046249
 20
261.576569
 40
1.000000
 50
-90.000000
 51
0.000000
  0
LINE
  8
0
  6
CONTINUOUS
 10
64.046249
 20
271.942596
 11
64.046249
 21
310.076569
  0
LINE
  8
0
  6
CONTINUOUS
 10
54.546249
 20
312.076569
 11
54.546249
 21
218.076569
  0
LINE
  8
0
  6
CONTINUOUS
 10
54.546249
 20
294.076569
 11
10.571220
 21
294.076569
  0
LINE
  8
0
  6
CONTINUOUS
 10
54.546249
 20
236.076569
 11
10.571220
 21
236.076569
  0
LINE
  8
0
  6
CONTINUOUS
 10
12.046230
 20
312.076569
 11
54.546249
 21
312.076569
  0
LINE
  8
0
  6
CONTINUOUS
 10
12.046230
 20
218.076569
 11
54.546249
 21
218.076569
  0
ARC
  8
0
  6
CONTINUOUS
 10
12.046260
 20
307.076569
 40
5.000000
 50
90.000000
 51
180.000000
  0
ARC
  8
0
  6
CONTINUOUS
 10
12.046230
 20
223.076569
 40
5.000000
 50
180.000000
 51
270.000000
  0
LINE
  8
0
  6
CONTINUOUS
 10
7.046260
 20
307.076569
 11
7.046230
 21
223.076553
  0
ARC
  8
0
  6
CONTINUOUS
 10
54.546249
 20
225.806717
 40
4.500000
 50
0.000000
 51
90.000000
  0
ARC
  8
0
  6
CONTINUOUS
 10
54.546249
 20
225.806717
 40
3.000000
 50
0.000000
 51
90.000000
  0
ARC
  8
0
  6
CONTINUOUS
 10
54.546249
 20
225.806717
 40
1.500000
 50
0.000000
 51
90.000000
  0
LINE
  8
0
  6
CONTINUOUS
 10
56.046249
 20
225.806717
 11
56.046249
 21
220.791122
  0
LINE
  8
0
  6
CONTINUOUS
 10
57.546249
 20
225.806717
 11
57.546249
 21
221.306717
  0
LINE
  8
0
  6
CONTINUOUS
 10
59.046249
 20
225.806717
 11
59.046249
 21
221.306717
  0
LINE
  8
0
  6
CONTINUOUS
 10
56.046249
 20
220.806717
 11
57.546249
 21
221.306717
  0
LINE
  8
0
  6
CONTINUOUS
 10
57.546249
 20
221.806717
 11
59.046249
 21
221.306717
  0
ARC
  8
0
  6
CONTINUOUS
 10
54.546242
 20
85.176895
 40
4.500000
 50
0.000000
 51
90.000000
  0
ARC
  8
0
  6
CONTINUOUS
 10
54.546242
 20
85.176895
 40
3.000000
 50
0.000000
 51
90.000000
  0
ARC
  8
0
  6
CONTINUOUS
 10
54.546242
 20
85.176895
 40
1.500000
 50
0.000000
 51
90.000000
  0
LINE
  8
0
  6
CONTINUOUS
 10
56.046242
 20
85.176895
 11
56.046242
 21
80.161293
  0
LINE
  8
0
  6
CONTINUOUS
 10
57.546242
 20
85.176895
 11
57.546242
 21
80.676895
  0
LINE
  8
0
  6
CONTINUOUS
 10
59.046242
 20
85.176895
 11
59.046242
 21
80.676895
  0
LINE
  8
0
  6
CONTINUOUS
 10
56.046242
 20
80.176895
 11
57.546242
 21
80.676895
  0
LINE
  8
0
  6
CONTINUOUS
 10
57.546242
 20
81.176895
 11
59.046242
 21
80.676895
  0
TEXT
  8
0
 10
-8.000000
 20
-1.000000
 40
4.000000
 41
1.000000
  1
HFMN-18R-80~240-T60
 50
0.000000
  0
ENDSEC
  0
EOF
