  0
SECTION
  2
HEADER
  9
$ACADVER
  1
AC1014
  9
$ACADMAINTVER
 70
     9
  9
$DWGCODEPAGE
  3
ANSI_932
  9
$INSBASE
 10
0.0
 20
0.0
 30
0.0
  9
$EXTMIN
 10
39.05840587005036
 20
41.49747438122855
 30
0.0
  9
$EXTMAX
 10
513.0584198700476
 20
422.2265473812285
 30
0.0
  9
$LIMMIN
 10
0.0
 20
0.0
  9
$LIMMAX
 10
297.0
 20
210.0
  9
$ORTHOMODE
 70
     1
  9
$REGENMODE
 70
     1
  9
$FILLMODE
 70
     1
  9
$QTEXTMODE
 70
     0
  9
$MIRRTEXT
 70
     0
  9
$DRAGMODE
 70
     2
  9
$LTSCALE
 40
2.0
  9
$OSMODE
 70
    37
  9
$ATTMODE
 70
     1
  9
$TEXTSIZE
 40
2.0
  9
$TRACEWID
 40
1.0
  9
$TEXTSTYLE
  7
STANDARD
  9
$CLAYER
  8
0
  9
$CELTYPE
  6
BYLAYER
  9
$CECOLOR
 62
   256
  9
$CELTSCALE
 40
1.0
  9
$DELOBJ
 70
     1
  9
$DISPSILH
 70
     0
  9
$DIMSCALE
 40
2.0
  9
$DIMASZ
 40
1.8
  9
$DIMEXO
 40
0.625
  9
$DIMDLI
 40
3.75
  9
$DIMRND
 40
0.0
  9
$DIMDLE
 40
0.0
  9
$DIMEXE
 40
0.8
  9
$DIMTP
 40
0.0
  9
$DIMTM
 40
0.0
  9
$DIMTXT
 40
1.8
  9
$DIMCEN
 40
2.5
  9
$DIMTSZ
 40
0.0
  9
$DIMTOL
 70
     0
  9
$DIMLIM
 70
     0
  9
$DIMTIH
 70
     0
  9
$DIMTOH
 70
     0
  9
$DIMSE1
 70
     0
  9
$DIMSE2
 70
     0
  9
$DIMTAD
 70
     1
  9
$DIMZIN
 70
     8
  9
$DIMBLK
  1

  9
$DIMASO
 70
     1
  9
$DIMSHO
 70
     1
  9
$DIMPOST
  1

  9
$DIMAPOST
  1

  9
$DIMALT
 70
     0
  9
$DIMALTD
 70
     4
  9
$DIMALTF
 40
0.0394
  9
$DIMLFAC
 40
1.0
  9
$DIMTOFL
 70
     1
  9
$DIMTVP
 40
0.0
  9
$DIMTIX
 70
     0
  9
$DIMSOXD
 70
     0
  9
$DIMSAH
 70
     0
  9
$DIMBLK1
  1

  9
$DIMBLK2
  1

  9
$DIMSTYLE
  2
STANDARD
  9
$DIMCLRD
 70
     0
  9
$DIMCLRE
 70
     0
  9
$DIMCLRT
 70
     0
  9
$DIMTFAC
 40
1.0
  9
$DIMGAP
 40
0.75
  9
$DIMJUST
 70
     0
  9
$DIMSD1
 70
     0
  9
$DIMSD2
 70
     0
  9
$DIMTOLJ
 70
     1
  9
$DIMTZIN
 70
     0
  9
$DIMALTZ
 70
     0
  9
$DIMALTTZ
 70
     0
  9
$DIMFIT
 70
     3
  9
$DIMUPT
 70
     0
  9
$DIMUNIT
 70
     8
  9
$DIMDEC
 70
     2
  9
$DIMTDEC
 70
     2
  9
$DIMALTU
 70
     8
  9
$DIMALTTD
 70
     4
  9
$DIMTXSTY
  7
STANDARD
  9
$DIMAUNIT
 70
     0
  9
$LUNITS
 70
     2
  9
$LUPREC
 70
     3
  9
$SKETCHINC
 40
1.0
  9
$FILLETRAD
 40
10.0
  9
$AUNITS
 70
     0
  9
$AUPREC
 70
     2
  9
$MENU
  1
.
  9
$ELEVATION
 40
0.0
  9
$PELEVATION
 40
0.0
  9
$THICKNESS
 40
0.0
  9
$LIMCHECK
 70
     0
  9
$BLIPMODE
 70
     0
  9
$CHAMFERA
 40
0.0
  9
$CHAMFERB
 40
0.0
  9
$CHAMFERC
 40
20.0
  9
$CHAMFERD
 40
0.0
  9
$SKPOLY
 70
     0
  9
$TDCREATE
 40
2453754.486174583
  9
$TDUPDATE
 40
2453832.469130312
  9
$TDINDWG
 40
0.2316593981
  9
$TDUSRTIMER
 40
0.2316593981
  9
$USRTIMER
 70
     1
  9
$ANGBASE
 50
0.0
  9
$ANGDIR
 70
     0
  9
$PDMODE
 70
     0
  9
$PDSIZE
 40
-10.0
  9
$PLINEWID
 40
0.0
  9
$COORDS
 70
     0
  9
$SPLFRAME
 70
     0
  9
$SPLINETYPE
 70
     6
  9
$SPLINESEGS
 70
     8
  9
$ATTDIA
 70
     0
  9
$ATTREQ
 70
     1
  9
$HANDLING
 70
-16383
  9
$HANDSEED
  5
1E01
  9
$SURFTAB1
 70
     6
  9
$SURFTAB2
 70
     6
  9
$SURFTYPE
 70
     6
  9
$SURFU
 70
     6
  9
$SURFV
 70
     6
  9
$UCSNAME
  2

  9
$UCSORG
 10
0.0
 20
0.0
 30
0.0
  9
$UCSXDIR
 10
1.0
 20
0.0
 30
0.0
  9
$UCSYDIR
 10
0.0
 20
1.0
 30
0.0
  9
$PUCSNAME
  2

  9
$PUCSORG
 10
0.0
 20
0.0
 30
0.0
  9
$PUCSXDIR
 10
1.0
 20
0.0
 30
0.0
  9
$PUCSYDIR
 10
0.0
 20
1.0
 30
0.0
  9
$USERI1
 70
     0
  9
$USERI2
 70
     0
  9
$USERI3
 70
     0
  9
$USERI4
 70
     0
  9
$USERI5
 70
     0
  9
$USERR1
 40
0.0
  9
$USERR2
 40
0.0
  9
$USERR3
 40
0.0
  9
$USERR4
 40
0.0
  9
$USERR5
 40
0.0
  9
$WORLDVIEW
 70
     1
  9
$SHADEDGE
 70
     3
  9
$SHADEDIF
 70
    70
  9
$TILEMODE
 70
     1
  9
$MAXACTVP
 70
    48
  9
$PINSBASE
 10
0.0
 20
0.0
 30
0.0
  9
$PLIMCHECK
 70
     0
  9
$PEXTMIN
 10
0.0
 20
0.0
 30
0.0
  9
$PEXTMAX
 10
0.0
 20
0.0
 30
0.0
  9
$PLIMMIN
 10
0.0
 20
0.0
  9
$PLIMMAX
 10
12.0
 20
9.0
  9
$UNITMODE
 70
     0
  9
$VISRETAIN
 70
     1
  9
$PLINEGEN
 70
     0
  9
$PSLTSCALE
 70
     1
  9
$TREEDEPTH
 70
  3020
  9
$PICKSTYLE
 70
     1
  9
$CMLSTYLE
  2
STANDARD
  9
$CMLJUST
 70
     0
  9
$CMLSCALE
 40
1.0
  9
$PROXYGRAPHICS
 70
     1
  9
$MEASUREMENT
 70
     0
  0
ENDSEC
  0
SECTION
  2
CLASSES
  0
CLASS
  1
DICTIONARYVAR
  2
AcDbDictionaryVar
  3
AutoCAD 2000
 90
        0
280
     0
281
     0
  0
CLASS
  1
ACDBDICTIONARYWDFLT
  2
AcDbDictionaryWithDefault
  3
AutoCAD 2000
 90
        0
280
     0
281
     0
  0
CLASS
  1
ACDBPLACEHOLDER
  2
AcDbPlaceHolder
  3
AutoCAD 2000
 90
        0
280
     0
281
     0
  0
CLASS
  1
LAYOUT
  2
AcDbLayout
  3
AutoCAD 2000
 90
        0
280
     0
281
     0
  0
CLASS
  1
LONG_TRANSACTION
  2
AcDbLongTransaction
  3
AutoCAD 2000
 90
        0
280
     0
281
     0
  0
CLASS
  1
LWPOLYLINE
  2
AcDbPolyline
  3
AutoCAD 2000
 90
        0
280
     0
281
     1
  0
CLASS
  1
HATCH
  2
AcDbHatch
  3
AutoCAD 2000
 90
        0
280
     0
281
     1
  0
CLASS
  1
XRECORD
  2
AcDbXrecord
  3
AutoCAD 2000
 90
        0
280
     0
281
     0
  0
ENDSEC
  0
SECTION
  2
TABLES
  0
TABLE
  2
VPORT
  5
6E
330
0
100
AcDbSymbolTable
 70
     2
  0
VPORT
  5
1DDB
330
6E
100
AcDbSymbolTableRecord
100
AcDbViewportTableRecord
  2
*ACTIVE
 70
     0
 10
0.0
 20
0.0
 11
1.0
 21
1.0
 12
274.667188592606
 22
221.4511633859787
 13
0.0
 23
0.0
 14
10.0
 24
10.0
 15
10.0
 25
10.0
 16
0.0
 26
0.0
 36
1.0
 17
0.0
 27
0.0
 37
0.0
 40
404.6927251098946
 41
1.566970091027308
 42
50.0
 43
0.0
 44
0.0
 50
0.0
 51
0.0
 71
     0
 72
   100
 73
     1
 74
     3
 75
     0
 76
     0
 77
     0
 78
     0
  0
ENDTAB
  0
TABLE
  2
LTYPE
  5
69
330
0
100
AcDbSymbolTable
 70
     3
  0
LTYPE
  5
6A
330
69
100
AcDbSymbolTableRecord
100
AcDbLinetypeTableRecord
  2
BYBLOCK
 70
     0
  3

 72
    65
 73
     0
 40
0.0
  0
LTYPE
  5
6B
330
69
100
AcDbSymbolTableRecord
100
AcDbLinetypeTableRecord
  2
BYLAYER
 70
     0
  3

 72
    65
 73
     0
 40
0.0
  0
LTYPE
  5
8
330
69
100
AcDbSymbolTableRecord
100
AcDbLinetypeTableRecord
  2
CONTINUOUS
 70
     0
  3
Solid line
 72
    65
 73
     0
 40
0.0
  0
LTYPE
  5
27C
330
69
100
AcDbSymbolTableRecord
100
AcDbLinetypeTableRecord
  2
SEKKEI_A2_
 70
     0
  3
center(A2)  ____ _ ____ _ ____ _ ____ _ ____ _ 
 72
    65
 73
     4
 40
14.28749999999999
 49
9.525
 74
     0
 49
-1.587499999999999
 74
     0
 49
1.587499999999999
 74
     0
 49
-1.587499999999999
 74
     0
  0
LTYPE
  5
2B4
330
69
100
AcDbSymbolTableRecord
100
AcDbLinetypeTableRecord
  2
HIDDEN2
 70
     0
  3
Hidden (.5x) _ _ _ _ _ _ _ _ _ _ _ _ _ _ _ _ _
 72
    65
 73
     2
 40
4.762499999999999
 49
3.174999999999999
 74
     0
 49
-1.587499999999999
 74
     0
  0
ENDTAB
  0
TABLE
  2
LAYER
  5
66
330
0
100
AcDbSymbolTable
 70
     9
  0
LAYER
  5
5E
330
66
100
AcDbSymbolTableRecord
100
AcDbLayerTableRecord
  2
0
 70
     0
 62
     7
  6
CONTINUOUS
  0
LAYER
  5
3E
330
66
100
AcDbSymbolTableRecord
100
AcDbLayerTableRecord
  2
CENTER
 70
     0
 62
     3
  6
SEKKEI_A2_
  0
LAYER
  5
2B5
330
66
100
AcDbSymbolTableRecord
100
AcDbLayerTableRecord
  2
HIDS
 70
     0
 62
     1
  6
HIDDEN2
  0
LAYER
  5
2BA
330
66
100
AcDbSymbolTableRecord
100
AcDbLayerTableRecord
  2
HOJO
 70
     0
 62
     4
  6
CONTINUOUS
  0
LAYER
  5
3FA
330
66
100
AcDbSymbolTableRecord
100
AcDbLayerTableRecord
  2
TITLE
 70
     0
 62
     4
  6
CONTINUOUS
  0
ENDTAB
  0
TABLE
  2
STYLE
  5
67
330
0
100
AcDbSymbolTable
 70
     1
  0
STYLE
  5
16
330
67
100
AcDbSymbolTableRecord
100
AcDbTextStyleTableRecord
  2
STANDARD
 70
     0
 40
0.0
 41
1.0
 50
0.0
 71
     0
 42
2.0
  3
simplex.shx
  4
extfont.shx
  0
ENDTAB
  0
TABLE
  2
VIEW
  5
6C
330
0
100
AcDbSymbolTable
 70
     0
  0
ENDTAB
  0
TABLE
  2
UCS
  5
6D
330
0
100
AcDbSymbolTable
 70
     0
  0
ENDTAB
  0
TABLE
  2
APPID
  5
70
330
0
100
AcDbSymbolTable
 70
     1
  0
APPID
  5
71
330
70
100
AcDbSymbolTableRecord
100
AcDbRegAppTableRecord
  2
ACAD
 70
     0
  0
ENDTAB
  0
TABLE
  2
DIMSTYLE
  5
72
330
0
100
AcDbSymbolTable
 70
     1
  0
DIMSTYLE
105
73
330
72
100
AcDbSymbolTableRecord
100
AcDbDimStyleTableRecord
  2
STANDARD
 70
     0
  3

  4

  5

  6

  7

 40
2.0
 41
1.8
 42
0.625
 43
3.75
 44
0.8
 45
0.0
 46
0.0
 47
0.0
 48
0.0
140
1.8
141
2.5
142
0.0
143
0.0394
144
1.0
145
0.0
146
1.0
147
0.75
 71
     0
 72
     0
 73
     0
 74
     0
 75
     0
 76
     0
 77
     1
 78
     8
170
     0
171
     4
172
     1
173
     0
174
     0
175
     0
176
     0
177
     0
178
     0
270
     8
271
     2
272
     2
273
     8
274
     4
340
16
275
     0
280
     0
281
     0
282
     0
283
     1
284
     0
285
     0
286
     0
287
     3
288
     0
  0
ENDTAB
  0
TABLE
  2
BLOCK_RECORD
  5
1
330
0
100
AcDbSymbolTable
 70
    61
  0
BLOCK_RECORD
  5
2
102
{ACAD_XDICTIONARY
360
1DFD
102
}
330
1
100
AcDbSymbolTableRecord
100
AcDbBlockTableRecord
  2
*MODEL_SPACE
  0
BLOCK_RECORD
  5
1DD6
102
{ACAD_XDICTIONARY
360
1DFF
102
}
330
1
100
AcDbSymbolTableRecord
100
AcDbBlockTableRecord
  2
*PAPER_SPACE
  0
ENDTAB
  0
ENDSEC
  0
SECTION
  2
BLOCKS
  0
BLOCK
  5
5D
330
2
100
AcDbEntity
  8
0
100
AcDbBlockBegin
  2
*MODEL_SPACE
 70
     0
 10
0.0
 20
0.0
 30
0.0
  3
*MODEL_SPACE
  1

  0
ENDBLK
  5
5F
330
2
100
AcDbEntity
  8
0
100
AcDbBlockEnd
  0
BLOCK
  5
1DD8
330
1DD6
100
AcDbEntity
 67
     1
  8
0
100
AcDbBlockBegin
  2
*PAPER_SPACE
 70
     0
 10
0.0
 20
0.0
 30
0.0
  3
*PAPER_SPACE
  1

  0
ENDBLK
  5
1DD9
330
1DD6
100
AcDbEntity
 67
     1
  8
0
100
AcDbBlockEnd
  0
ENDSEC
  0
SECTION
  2
ENTITIES
  0
LINE
  5
64E
330
2
100
AcDbEntity
  8
0
100
AcDbLine
 10
180.3496028700475
 20
300.2265473812285
 30
0.0
 11
277.3482448700475
 21
300.2265473812285
 31
0.0
  0
LINE
  5
64F
330
2
100
AcDbEntity
  8
0
100
AcDbLine
 10
178.5584038700475
 20
290.2265473812285
 30
0.0
 11
279.5584038700475
 21
290.2265473812285
 31
0.0
  0
LINE
  5
650
330
2
100
AcDbEntity
  8
0
100
AcDbLine
 10
275.3843018700475
 20
375.2265473812285
 30
0.0
 11
180.5067228700475
 21
375.2265473812285
 31
0.0
  0
LINE
  5
651
330
2
100
AcDbEntity
  8
CENTER
100
AcDbLine
 10
39.05840587005036
 20
338.2265473812285
 30
0.0
 11
288.3014871381317
 21
338.2265473812285
 31
0.0
  0
ARC
  5
652
330
2
100
AcDbEntity
  8
0
100
AcDbCircle
 10
269.0584038700475
 20
60.49747438122856
 30
0.0
 40
9.0
100
AcDbArc
 50
270.0
 51
355.879913
  0
ARC
  5
653
330
2
100
AcDbEntity
  8
0
100
AcDbCircle
 10
270.0643088700475
 20
74.46129438122856
 30
0.0
 40
5.0
100
AcDbArc
 50
265.8797909999997
 51
355.8794859999999
  0
ARC
  5
654
330
2
100
AcDbEntity
  8
0
100
AcDbCircle
 10
269.0584038700475
 20
160.4974743812285
 30
0.0
 40
9.0
100
AcDbArc
 50
4.120065000000226
 51
90.0
  0
ARC
  5
655
330
2
100
AcDbEntity
  8
0
100
AcDbCircle
 10
270.0643088700475
 20
146.5336533812285
 30
0.0
 40
5.0
100
AcDbArc
 50
4.12054400000038
 51
94.12020099999995
  0
ARC
  5
656
330
2
100
AcDbEntity
  8
0
100
AcDbCircle
 10
229.0584038700475
 20
110.4974743812285
 30
0.0
 40
50.5
100
AcDbArc
 50
198.1038060000001
 51
341.8962099999999
  0
ARC
  5
657
330
2
100
AcDbEntity
  8
0
100
AcDbCircle
 10
229.0584038700475
 20
110.4974743812285
 30
0.0
 40
50.5
100
AcDbArc
 50
18.10380000000027
 51
161.8961939999998
  0
CIRCLE
  5
658
330
2
100
AcDbEntity
  8
0
100
AcDbCircle
 10
269.0584038700475
 20
60.49747438122856
 30
0.0
 40
4.25
  0
CIRCLE
  5
65A
330
2
100
AcDbEntity
  8
0
100
AcDbCircle
 10
269.0584038700475
 20
160.4974743812285
 30
0.0
 40
4.25
  0
LINE
  5
65B
330
2
100
AcDbEntity
  8
CENTER
100
AcDbLine
 10
262.2584008700475
 20
160.4974743812285
 30
0.0
 11
275.8584068700475
 21
160.4974743812285
 31
0.0
  0
LINE
  5
65C
330
2
100
AcDbEntity
  8
0
100
AcDbLine
 10
106.0584038700475
 20
65.38816438122854
 30
0.0
 11
177.0584038700475
 21
65.38816438122854
 31
0.0
  0
LINE
  5
65D
330
2
100
AcDbEntity
  8
0
100
AcDbLine
 10
106.0584038700475
 20
134.2067713812285
 30
0.0
 11
176.5584038700475
 21
134.2067713812285
 31
0.0
  0
LINE
  5
65E
330
2
100
AcDbEntity
  8
0
100
AcDbLine
 10
176.5584038700475
 20
54.79747438122854
 30
0.0
 11
106.0584038700475
 21
54.79747438122854
 31
0.0
  0
LINE
  5
65F
330
2
100
AcDbEntity
  8
0
100
AcDbLine
 10
106.0584038700475
 20
144.7974773812285
 30
0.0
 11
178.9041068700475
 21
144.7974773812285
 31
0.0
  0
LINE
  5
660
330
2
100
AcDbEntity
  8
CENTER
100
AcDbLine
 10
39.05841137004711
 20
99.79747338122855
 30
0.0
 11
200.9451078700475
 21
99.79747338122855
 31
0.0
  0
LINE
  5
661
330
2
100
AcDbEntity
  8
0
100
AcDbLine
 10
106.0584038700475
 20
54.79747438122854
 30
0.0
 11
106.0584038700475
 21
144.7974773812285
 31
0.0
  0
LINE
  5
662
330
2
100
AcDbEntity
  8
0
100
AcDbLine
 10
49.05842387004759
 20
141.7974853812285
 30
0.0
 11
49.05839887004754
 21
57.79746438122856
 31
0.0
  0
LINE
  5
663
330
2
100
AcDbEntity
  8
0
100
AcDbLine
 10
96.55839987004753
 20
146.7974773812285
 30
0.0
 11
96.55839987004753
 21
52.79747438122853
 31
0.0
  0
ARC
  5
664
330
2
100
AcDbEntity
  8
0
100
AcDbCircle
 10
54.05839787004754
 20
57.79747438122853
 30
0.0
 40
5.0
100
AcDbArc
 50
180.0
 51
270.0
  0
LINE
  5
665
330
2
100
AcDbEntity
  8
0
100
AcDbLine
 10
54.05839887004754
 20
52.79747438122853
 30
0.0
 11
96.55839987004753
 21
52.79747438122853
 31
0.0
  0
LINE
  5
666
330
2
100
AcDbEntity
  8
0
100
AcDbLine
 10
96.55839987004753
 20
70.79747338122854
 30
0.0
 11
52.58339987004752
 21
70.79747338122854
 31
0.0
  0
LINE
  5
667
330
2
100
AcDbEntity
  8
0
100
AcDbLine
 10
106.0584038700475
 20
65.38817338122857
 30
0.0
 11
96.55839987004753
 21
65.38817338122857
 31
0.0
  0
LINE
  5
668
330
2
100
AcDbEntity
  8
0
100
AcDbLine
 10
96.55839987004753
 20
54.79747438122854
 30
0.0
 11
106.0584038700475
 21
54.79747438122854
 31
0.0
  0
LINE
  5
669
330
2
100
AcDbEntity
  8
0
100
AcDbLine
 10
54.05839887004754
 20
146.7974773812285
 30
0.0
 11
96.55839987004753
 21
146.7974773812285
 31
0.0
  0
LINE
  5
66A
330
2
100
AcDbEntity
  8
0
100
AcDbLine
 10
96.55839987004753
 20
128.7974773812285
 30
0.0
 11
52.58340087004751
 21
128.7974773812285
 31
0.0
  0
ARC
  5
66B
330
2
100
AcDbEntity
  8
0
100
AcDbCircle
 10
54.05842387004759
 20
141.7975083812285
 30
0.0
 40
5.0
100
AcDbArc
 50
90.0
 51
180.0
  0
LINE
  5
66C
330
2
100
AcDbEntity
  8
0
100
AcDbLine
 10
106.0584038700475
 20
134.2067713812285
 30
0.0
 11
96.55839987004753
 21
134.2067713812285
 31
0.0
  0
LINE
  5
66D
330
2
100
AcDbEntity
  8
0
100
AcDbLine
 10
101.0583998700475
 20
128.3268733812285
 30
0.0
 11
101.0583998700475
 21
123.8268733812285
 31
0.0
  0
LINE
  5
66E
330
2
100
AcDbEntity
  8
0
100
AcDbLine
 10
99.55839987004754
 20
128.3268733812285
 30
0.0
 11
99.55839987004754
 21
123.8268733812285
 31
0.0
  0
LINE
  5
66F
330
2
100
AcDbEntity
  8
0
100
AcDbLine
 10
98.05839987004754
 20
128.3268733812285
 30
0.0
 11
98.05839987004754
 21
123.3112713812285
 31
0.0
  0
LINE
  5
670
330
2
100
AcDbEntity
  8
HOJO
100
AcDbLine
 10
99.55839987004754
 20
124.3268733812285
 30
0.0
 11
101.0583998700475
 21
123.8268733812285
 31
0.0
  0
LINE
  5
671
330
2
100
AcDbEntity
  8
HOJO
100
AcDbLine
 10
98.05839987004754
 20
123.3268733812285
 30
0.0
 11
99.55839987004754
 21
123.8268733812285
 31
0.0
  0
ARC
  5
672
330
2
100
AcDbEntity
  8
0
100
AcDbCircle
 10
96.55839987004753
 20
128.3268733812285
 30
0.0
 40
3.0
100
AcDbArc
 50
0.0
 51
90.0
  0
ARC
  5
673
330
2
100
AcDbEntity
  8
0
100
AcDbCircle
 10
96.55839987004753
 20
128.3268733812285
 30
0.0
 40
4.5
100
AcDbArc
 50
0.0
 51
90.0
  0
ARC
  5
674
330
2
100
AcDbEntity
  8
0
100
AcDbCircle
 10
96.55839987004753
 20
128.3268733812285
 30
0.0
 40
1.5
100
AcDbArc
 50
0.0
 51
90.0
  0
LINE
  5
677
330
2
100
AcDbEntity
  8
0
100
AcDbLine
 10
96.55839987004753
 20
144.7974773812285
 30
0.0
 11
106.0584038700475
 21
144.7974773812285
 31
0.0
  0
CIRCLE
  5
680
330
2
100
AcDbEntity
  8
0
100
AcDbCircle
 10
229.0584038700475
 20
125.4974743812285
 30
0.0
 40
23.5
  0
LINE
  5
681
330
2
100
AcDbEntity
  8
0
100
AcDbLine
 10
178.5584038700475
 20
139.9974743812285
 30
0.0
 11
178.5584038700475
 21
80.99746338122855
 31
0.0
  0
LINE
  5
682
330
2
100
AcDbEntity
  8
0
100
AcDbLine
 10
181.0584038700475
 20
126.1896663812285
 30
0.0
 11
181.0584038700475
 21
94.80495438122856
 31
0.0
  0
LINE
  5
683
330
2
100
AcDbEntity
  8
CENTER
100
AcDbLine
 10
229.0584038700475
 20
179.4974743812285
 30
0.0
 11
229.0584038700475
 21
41.49747438122855
 31
0.0
  0
ARC
  5
684
330
2
100
AcDbEntity
  8
0
100
AcDbCircle
 10
203.0584038700475
 20
60.49747438122856
 30
0.0
 40
5.0
100
AcDbArc
 50
180.0
 51
270.0
  0
ARC
  5
685
330
2
100
AcDbEntity
  8
0
100
AcDbCircle
 10
189.0584038700475
 20
60.49747438122856
 30
0.0
 40
9.0
100
AcDbArc
 50
0.0
 51
94.12016299999974
  0
LINE
  5
686
330
2
100
AcDbEntity
  8
0
100
AcDbLine
 10
189.0584038700475
 20
51.49747438122855
 30
0.0
 11
269.0584038700475
 21
51.49747438122855
 31
0.0
  0
ARC
  5
687
330
2
100
AcDbEntity
  8
0
100
AcDbCircle
 10
189.0584038700475
 20
60.49747438122856
 30
0.0
 40
9.0
100
AcDbArc
 50
184.120102
 51
270.0
  0
LINE
  5
688
330
2
100
AcDbEntity
  8
0
100
AcDbLine
 10
180.0816128700475
 20
59.85091338122856
 30
0.0
 11
178.5584038700475
 21
80.99747438122856
 31
0.0
  0
LINE
  5
689
330
2
100
AcDbEntity
  8
0
100
AcDbLine
 10
183.0654078700476
 20
74.10205438122855
 30
0.0
 11
181.0583128700475
 21
94.80543838122855
 31
0.0
  0
ARC
  5
68A
330
2
100
AcDbEntity
  8
0
100
AcDbCircle
 10
176.5584038700475
 20
56.79747438122854
 30
0.0
 40
2.0
100
AcDbArc
 50
270.0
 51
0.0
  0
ARC
  5
68B
330
2
100
AcDbEntity
  8
0
100
AcDbCircle
 10
183.5584038700475
 20
64.79750438122855
 30
0.0
 40
5.0
100
AcDbArc
 50
143.9947970000004
 51
180.0
  0
LINE
  5
68C
330
2
100
AcDbEntity
  8
0
100
AcDbLine
 10
178.5584038700475
 20
56.79747438122854
 30
0.0
 11
178.5584038700475
 21
64.79750438122855
 31
0.0
  0
CIRCLE
  5
68E
330
2
100
AcDbEntity
  8
0
100
AcDbCircle
 10
189.0584038700475
 20
60.49747438122856
 30
0.0
 40
4.25
  0
ARC
  5
690
330
2
100
AcDbEntity
  8
0
100
AcDbCircle
 10
188.0525138700475
 20
74.46129438122856
 30
0.0
 40
5.0
100
AcDbArc
 50
184.1204989999996
 51
274.1202090000001
  0
LINE
  5
691
330
2
100
AcDbEntity
  8
0
100
AcDbLine
 10
255.0584038700475
 20
55.49747438122856
 30
0.0
 11
203.0584038700475
 21
55.49747438122856
 31
0.0
  0
LINE
  5
692
330
2
100
AcDbEntity
  8
0
100
AcDbLine
 10
215.0584038700475
 20
61.97686338122855
 30
0.0
 11
215.0584038700475
 21
56.70284438122854
 31
0.0
  0
LINE
  5
693
330
2
100
AcDbEntity
  8
0
100
AcDbLine
 10
221.7620178700475
 20
87.00480638122854
 30
0.0
 11
221.7620178700475
 21
85.61027538122855
 31
0.0
  0
LINE
  5
694
330
2
100
AcDbEntity
  8
0
100
AcDbLine
 10
221.7620178700475
 20
86.00871238122854
 30
0.0
 11
221.7620178700475
 21
86.80558338122855
 31
0.0
  0
LINE
  5
695
330
2
100
AcDbEntity
  8
0
100
AcDbLine
 10
217.3792048700475
 20
89.89746438122855
 30
0.0
 11
217.3792048700475
 21
84.38840438122856
 31
0.0
  0
LINE
  5
696
330
2
100
AcDbEntity
  8
0
100
AcDbLine
 10
216.3084038700475
 20
90.57798338122854
 30
0.0
 11
216.3084038700475
 21
83.73833438122856
 31
0.0
  0
LINE
  5
697
330
2
100
AcDbEntity
  8
0
100
AcDbLine
 10
222.6834038700475
 20
88.05070438122854
 30
0.0
 11
222.6834038700475
 21
82.49747438122856
 31
0.0
  0
LINE
  5
698
330
2
100
AcDbEntity
  8
0
100
AcDbLine
 10
217.5382168700475
 20
82.49747438122856
 30
0.0
 11
220.8535088700475
 21
82.49747438122856
 31
0.0
  0
ARC
  5
699
330
2
100
AcDbEntity
  8
0
100
AcDbCircle
 10
219.7698148700475
 20
85.61027538122855
 30
0.0
 40
1.992186999999999
100
AcDbArc
 50
270.0002139999998
 51
0.0001089999998967
  0
LINE
  5
69A
330
2
100
AcDbEntity
  8
0
100
AcDbLine
 10
219.7698148700475
 20
83.61808338122855
 30
0.0
 11
218.1105128700475
 21
83.61808338122855
 31
0.0
  0
LINE
  5
69B
330
2
100
AcDbEntity
  8
0
100
AcDbLine
 10
216.3084038700475
 20
83.73833438122856
 30
0.0
 11
217.5382168700475
 21
82.49747438122856
 31
0.0
  0
LINE
  5
69C
330
2
100
AcDbEntity
  8
0
100
AcDbLine
 10
217.3792048700475
 20
84.38840438122856
 30
0.0
 11
218.1105128700475
 21
83.61808338122855
 31
0.0
  0
LINE
  5
69D
330
2
100
AcDbEntity
  8
0
100
AcDbLine
 10
221.7620178700475
 20
83.25974238122853
 30
0.0
 11
220.8535088700475
 21
82.49747438122856
 31
0.0
  0
LINE
  5
69E
330
2
100
AcDbEntity
  8
0
100
AcDbLine
 10
221.7620178700475
 20
82.49747438122856
 30
0.0
 11
222.6834038700475
 21
82.49747438122856
 31
0.0
  0
LINE
  5
69F
330
2
100
AcDbEntity
  8
0
100
AcDbLine
 10
221.7620178700475
 20
83.25974238122853
 30
0.0
 11
221.7620178700475
 21
82.49747438122856
 31
0.0
  0
LINE
  5
6A0
330
2
100
AcDbEntity
  8
0
100
AcDbLine
 10
220.0936058700475
 20
88.05070438122854
 30
0.0
 11
222.6834038700475
 21
88.05070438122854
 31
0.0
  0
LINE
  5
6A1
330
2
100
AcDbEntity
  8
0
100
AcDbLine
 10
221.7620178700475
 20
87.00480638122854
 30
0.0
 11
220.0936058700475
 21
87.00480638122854
 31
0.0
  0
LINE
  5
6A2
330
2
100
AcDbEntity
  8
0
100
AcDbLine
 10
217.4658138700475
 20
92.05997838122854
 30
0.0
 11
221.7524048700475
 21
92.05997838122854
 31
0.0
  0
LINE
  5
6A3
330
2
100
AcDbEntity
  8
0
100
AcDbLine
 10
221.1709068700475
 20
90.78995838122855
 30
0.0
 11
218.0990078700475
 21
90.78995838122855
 31
0.0
  0
LINE
  5
6A4
330
2
100
AcDbEntity
  8
0
100
AcDbLine
 10
220.0936058700475
 20
88.05070438122854
 30
0.0
 11
220.0936058700475
 21
87.00480638122854
 31
0.0
  0
LINE
  5
6A5
330
2
100
AcDbEntity
  8
0
100
AcDbLine
 10
217.4658138700475
 20
92.05997838122854
 30
0.0
 11
216.3084038700475
 21
90.57798338122854
 31
0.0
  0
LINE
  5
6A6
330
2
100
AcDbEntity
  8
0
100
AcDbLine
 10
218.0990078700475
 20
90.78995838122855
 30
0.0
 11
217.3792048700475
 21
89.89746438122855
 31
0.0
  0
LINE
  5
6A7
330
2
100
AcDbEntity
  8
0
100
AcDbLine
 10
221.7620178700475
 20
90.21851738122853
 30
0.0
 11
221.7620178700475
 21
90.06779038122855
 31
0.0
  0
LINE
  5
6A8
330
2
100
AcDbEntity
  8
0
100
AcDbLine
 10
222.6834038700475
 20
91.02683638122854
 30
0.0
 11
222.6834038700475
 21
90.06779038122855
 31
0.0
  0
LINE
  5
6A9
330
2
100
AcDbEntity
  8
0
100
AcDbLine
 10
221.7620178700475
 20
90.06779038122855
 30
0.0
 11
222.6834038700475
 21
90.06779038122855
 31
0.0
  0
LINE
  5
6AA
330
2
100
AcDbEntity
  8
0
100
AcDbLine
 10
221.7524048700475
 20
92.05997838122854
 30
0.0
 11
222.6834038700475
 21
91.02683638122854
 31
0.0
  0
LINE
  5
6AB
330
2
100
AcDbEntity
  8
0
100
AcDbLine
 10
221.7620178700475
 20
90.21851738122853
 30
0.0
 11
221.1588068700475
 21
90.78995838122855
 31
0.0
  0
LINE
  5
6AC
330
2
100
AcDbEntity
  8
0
100
AcDbLine
 10
229.6312038700475
 20
90.88956838122854
 30
0.0
 11
229.6312038700475
 21
83.54337238122855
 31
0.0
  0
LINE
  5
6AD
330
2
100
AcDbEntity
  8
0
100
AcDbLine
 10
228.4358148700476
 20
90.88956838122854
 30
0.0
 11
228.4358148700476
 21
83.54337238122855
 31
0.0
  0
LINE
  5
6AE
330
2
100
AcDbEntity
  8
0
100
AcDbLine
 10
227.9627158700475
 20
82.49747438122856
 30
0.0
 11
230.0296108700475
 21
82.49747438122856
 31
0.0
  0
LINE
  5
6AF
330
2
100
AcDbEntity
  8
0
100
AcDbLine
 10
229.6312038700475
 20
83.54337238122855
 30
0.0
 11
230.0296108700475
 21
83.54337238122855
 31
0.0
  0
LINE
  5
6B0
330
2
100
AcDbEntity
  8
0
100
AcDbLine
 10
227.9627158700475
 20
83.54337238122855
 30
0.0
 11
228.4358148700476
 21
83.54337238122855
 31
0.0
  0
LINE
  5
6B1
330
2
100
AcDbEntity
  8
0
100
AcDbLine
 10
227.9627158700475
 20
83.54337238122855
 30
0.0
 11
227.9627158700475
 21
82.49747438122856
 31
0.0
  0
LINE
  5
6B2
330
2
100
AcDbEntity
  8
0
100
AcDbLine
 10
230.0296108700475
 20
83.54337238122855
 30
0.0
 11
230.0296108700475
 21
82.49747438122856
 31
0.0
  0
LINE
  5
6B3
330
2
100
AcDbEntity
  8
0
100
AcDbLine
 10
229.6312038700475
 20
90.88956838122854
 30
0.0
 11
231.2922148700475
 21
90.88956838122854
 31
0.0
  0
LINE
  5
6B4
330
2
100
AcDbEntity
  8
0
100
AcDbLine
 10
225.8709038700475
 20
92.05997838122854
 30
0.0
 11
232.2459038700475
 21
92.05997838122854
 31
0.0
  0
LINE
  5
6B5
330
2
100
AcDbEntity
  8
0
100
AcDbLine
 10
228.4358148700476
 20
90.88956838122854
 30
0.0
 11
226.9209068700475
 21
90.88956838122854
 31
0.0
  0
LINE
  5
6B6
330
2
100
AcDbEntity
  8
0
100
AcDbLine
 10
226.9209068700475
 20
90.88956838122854
 30
0.0
 11
226.5785148700475
 21
90.06779038122855
 31
0.0
  0
LINE
  5
6B7
330
2
100
AcDbEntity
  8
0
100
AcDbLine
 10
225.8709038700475
 20
90.06779038122855
 30
0.0
 11
226.5785148700475
 21
90.06779038122855
 31
0.0
  0
LINE
  5
6B8
330
2
100
AcDbEntity
  8
0
100
AcDbLine
 10
225.8709038700475
 20
90.06779038122855
 30
0.0
 11
225.8709038700475
 21
92.05997838122854
 31
0.0
  0
LINE
  5
6B9
330
2
100
AcDbEntity
  8
0
100
AcDbLine
 10
231.2922148700475
 20
90.88956838122854
 30
0.0
 11
231.5809108700475
 21
90.06779038122855
 31
0.0
  0
LINE
  5
6BA
330
2
100
AcDbEntity
  8
0
100
AcDbLine
 10
231.5809108700475
 20
90.06779038122855
 30
0.0
 11
232.2459038700475
 21
90.06779038122855
 31
0.0
  0
LINE
  5
6BB
330
2
100
AcDbEntity
  8
0
100
AcDbLine
 10
232.2459038700475
 20
90.06779038122855
 30
0.0
 11
232.2459038700475
 21
92.05997838122854
 31
0.0
  0
LINE
  5
6BC
330
2
100
AcDbEntity
  8
0
100
AcDbLine
 10
243.0584038700475
 20
61.97686338122855
 30
0.0
 11
243.0584038700475
 21
56.70284438122854
 31
0.0
  0
ARC
  5
6BD
330
2
100
AcDbEntity
  8
0
100
AcDbCircle
 10
269.0584038700475
 20
60.49747438122856
 30
0.0
 40
9.0
100
AcDbArc
 50
85.87983700000025
 51
180.0
  0
ARC
  5
6BF
330
2
100
AcDbEntity
  8
0
100
AcDbCircle
 10
255.0584038700475
 20
60.49747438122856
 30
0.0
 40
5.0
100
AcDbArc
 50
270.0
 51
0.0
  0
LINE
  5
6C0
330
2
100
AcDbEntity
  8
0
100
AcDbLine
 10
239.0427178700475
 20
86.96745238122856
 30
0.0
 11
240.5378048700475
 21
83.49357538122854
 31
0.0
  0
LINE
  5
6C1
330
2
100
AcDbEntity
  8
0
100
AcDbLine
 10
239.9603058700475
 20
87.05410338122854
 30
0.0
 11
241.5401088700475
 21
83.49357538122854
 31
0.0
  0
LINE
  5
6C2
330
2
100
AcDbEntity
  8
0
100
AcDbLine
 10
237.0022058700475
 20
86.96745238122856
 30
0.0
 11
237.0022058700475
 21
83.49357538122854
 31
0.0
  0
LINE
  5
6C3
330
2
100
AcDbEntity
  8
0
100
AcDbLine
 10
235.9065178700475
 20
90.88956838122854
 30
0.0
 11
235.9065178700475
 21
83.49357538122854
 31
0.0
  0
LINE
  5
6C4
330
2
100
AcDbEntity
  8
0
100
AcDbLine
 10
235.4334038700475
 20
83.49357538122854
 30
0.0
 11
235.4334038700475
 21
82.49747438122856
 31
0.0
  0
LINE
  5
6C5
330
2
100
AcDbEntity
  8
0
100
AcDbLine
 10
237.4380118700475
 20
83.49357538122854
 30
0.0
 11
237.4380118700475
 21
82.49747438122856
 31
0.0
  0
LINE
  5
6C6
330
2
100
AcDbEntity
  8
0
100
AcDbLine
 10
237.4380118700475
 20
82.49747438122856
 30
0.0
 11
235.4334038700475
 21
82.49747438122856
 31
0.0
  0
LINE
  5
6C7
330
2
100
AcDbEntity
  8
0
100
AcDbLine
 10
237.0022058700475
 20
83.49357538122854
 30
0.0
 11
237.4380118700475
 21
83.49357538122854
 31
0.0
  0
LINE
  5
6C8
330
2
100
AcDbEntity
  8
0
100
AcDbLine
 10
235.4334038700475
 20
83.49357538122854
 30
0.0
 11
235.9065178700475
 21
83.49357538122854
 31
0.0
  0
LINE
  5
6C9
330
2
100
AcDbEntity
  8
0
100
AcDbLine
 10
240.3392118700474
 20
83.49357538122854
 30
0.0
 11
240.3392118700474
 21
82.49747438122856
 31
0.0
  0
LINE
  5
6CA
330
2
100
AcDbEntity
  8
0
100
AcDbLine
 10
241.8084038700475
 20
83.49357538122854
 30
0.0
 11
241.8084038700475
 21
82.49747438122856
 31
0.0
  0
LINE
  5
6CB
330
2
100
AcDbEntity
  8
0
100
AcDbLine
 10
240.3392118700474
 20
82.49747438122856
 30
0.0
 11
241.8084038700475
 21
82.49747438122856
 31
0.0
  0
LINE
  5
6CC
330
2
100
AcDbEntity
  8
0
100
AcDbLine
 10
241.5401088700475
 20
83.49357538122854
 30
0.0
 11
241.8084038700475
 21
83.49357538122854
 31
0.0
  0
LINE
  5
6CD
330
2
100
AcDbEntity
  8
0
100
AcDbLine
 10
240.3392118700474
 20
83.49357538122854
 30
0.0
 11
240.5378048700475
 21
83.49357538122854
 31
0.0
  0
LINE
  5
6CE
330
2
100
AcDbEntity
  8
0
100
AcDbLine
 10
237.0022058700475
 20
87.96331338122854
 30
0.0
 11
239.4569178700475
 21
87.96331338122854
 31
0.0
  0
LINE
  5
6CF
330
2
100
AcDbEntity
  8
0
100
AcDbLine
 10
237.0022058700475
 20
90.88956838122854
 30
0.0
 11
239.9771048700475
 21
90.88763038122854
 31
0.0
  0
LINE
  5
6D0
330
2
100
AcDbEntity
  8
0
100
AcDbLine
 10
235.4334038700475
 20
92.05997838122854
 30
0.0
 11
239.2559138700475
 21
92.05997838122854
 31
0.0
  0
LINE
  5
6D1
330
2
100
AcDbEntity
  8
0
100
AcDbLine
 10
237.0022058700475
 20
86.96745238122856
 30
0.0
 11
239.0427178700475
 21
86.96745238122856
 31
0.0
  0
LINE
  5
6D2
330
2
100
AcDbEntity
  8
0
100
AcDbLine
 10
235.4334038700475
 20
90.88956838122854
 30
0.0
 11
235.9065178700475
 21
90.88956838122854
 31
0.0
  0
LINE
  5
6D3
330
2
100
AcDbEntity
  8
0
100
AcDbLine
 10
237.0022058700475
 20
90.88956838122854
 30
0.0
 11
237.0022058700475
 21
87.96331338122854
 31
0.0
  0
LINE
  5
6D4
330
2
100
AcDbEntity
  8
0
100
AcDbLine
 10
235.4334038700475
 20
92.05997838122854
 30
0.0
 11
235.4334038700475
 21
90.88956838122854
 31
0.0
  0
ARC
  5
6D5
330
2
100
AcDbEntity
  8
0
100
AcDbCircle
 10
239.2559138700475
 20
89.50748438122856
 30
0.0
 40
1.557193
100
AcDbArc
 50
277.4147260000004
 51
62.41184999999949
  0
ARC
  5
6D6
330
2
100
AcDbEntity
  8
0
100
AcDbCircle
 10
239.2559138700475
 20
89.50748438122856
 30
0.0
 40
2.55249
100
AcDbArc
 50
286.0181269999995
 51
90.00350999999964
  0
ARC
  5
6D7
330
2
100
AcDbEntity
  8
0
100
AcDbCircle
 10
189.0584038700475
 20
160.4974743812285
 30
0.0
 40
9.0
100
AcDbArc
 50
265.8793329999998
 51
0.0
  0
ARC
  5
6D8
330
2
100
AcDbEntity
  8
0
100
AcDbCircle
 10
203.0584038700475
 20
160.4974743812285
 30
0.0
 40
5.0
100
AcDbArc
 50
90.0
 51
180.0
  0
LINE
  5
6D9
330
2
100
AcDbEntity
  8
0
100
AcDbLine
 10
189.0584038700475
 20
169.4974743812285
 30
0.0
 11
269.0584038700475
 21
169.4974743812285
 31
0.0
  0
LINE
  5
6DA
330
2
100
AcDbEntity
  8
CENTER
100
AcDbLine
 10
195.5584038700475
 20
125.4974743812285
 30
0.0
 11
262.5584038700475
 21
125.4974743812285
 31
0.0
  0
ARC
  5
6DB
330
2
100
AcDbEntity
  8
0
100
AcDbCircle
 10
189.0584038700475
 20
160.4974743812285
 30
0.0
 40
9.0
100
AcDbArc
 50
90.0
 51
175.8798979999999
  0
CIRCLE
  5
6DC
330
2
100
AcDbEntity
  8
0
100
AcDbCircle
 10
189.0584038700475
 20
160.4974743812285
 30
0.0
 40
4.25
  0
LINE
  5
6DE
330
2
100
AcDbEntity
  8
0
100
AcDbLine
 10
183.0654078700476
 20
146.8929363812285
 30
0.0
 11
181.0584038700475
 21
126.1898343812285
 31
0.0
  0
LINE
  5
6DF
330
2
100
AcDbEntity
  8
0
100
AcDbLine
 10
180.0816128700475
 20
161.1441033812285
 30
0.0
 11
178.5584038700475
 21
139.9974743812285
 31
0.0
  0
ARC
  5
6E0
330
2
100
AcDbEntity
  8
0
100
AcDbCircle
 10
188.0525138700475
 20
146.5336533812285
 30
0.0
 40
5.0
100
AcDbArc
 50
85.87979900000004
 51
175.8795010000003
  0
LINE
  5
6E2
330
2
100
AcDbEntity
  8
0
100
AcDbLine
 10
243.0584038700475
 20
164.5662763812285
 30
0.0
 11
243.0584038700475
 21
159.0180963812285
 31
0.0
  0
LINE
  5
6E3
330
2
100
AcDbEntity
  8
0
100
AcDbLine
 10
215.0584038700475
 20
164.5662763812285
 30
0.0
 11
215.0584038700475
 21
159.0180813812285
 31
0.0
  0
ARC
  5
6E4
330
2
100
AcDbEntity
  8
0
100
AcDbCircle
 10
255.0584038700475
 20
160.4974743812285
 30
0.0
 40
5.0
100
AcDbArc
 50
0.0
 51
90.0
  0
LINE
  5
6E5
330
2
100
AcDbEntity
  8
CENTER
100
AcDbLine
 10
269.0584038700475
 20
153.6974713812285
 30
0.0
 11
269.0584038700475
 21
167.2974773812285
 31
0.0
  0
ARC
  5
6E6
330
2
100
AcDbEntity
  8
0
100
AcDbCircle
 10
229.0584038700475
 20
125.4974743812285
 30
0.0
 40
9.0
100
AcDbArc
 50
19.47121000000005
 51
340.5288089999999
  0
LINE
  5
6E7
330
2
100
AcDbEntity
  8
0
100
AcDbLine
 10
240.5584038700475
 20
122.4975123812285
 30
0.0
 11
240.5584038700475
 21
128.4975123812285
 31
0.0
  0
LINE
  5
6E8
330
2
100
AcDbEntity
  8
0
100
AcDbLine
 10
234.5584038700475
 20
122.4974973812285
 30
0.0
 11
234.5584038700475
 21
128.4974973812285
 31
0.0
  0
LINE
  5
6E9
330
2
100
AcDbEntity
  8
0
100
AcDbLine
 10
240.5584038700475
 20
122.4975123812285
 30
0.0
 11
234.5584038700475
 21
122.4974973812285
 31
0.0
  0
LINE
  5
6EA
330
2
100
AcDbEntity
  8
0
100
AcDbLine
 10
240.5584038700475
 20
128.4975123812285
 30
0.0
 11
234.5584038700475
 21
128.4974973812285
 31
0.0
  0
ARC
  5
6EB
330
2
100
AcDbEntity
  8
0
100
AcDbCircle
 10
269.0584038700475
 20
160.4974743812285
 30
0.0
 40
9.0
100
AcDbArc
 50
180.0
 51
274.1206969999996
  0
LINE
  5
6EC
330
2
100
AcDbEntity
  8
0
100
AcDbLine
 10
203.0584038700475
 20
165.4974743812285
 30
0.0
 11
255.0584038700475
 21
165.4974743812285
 31
0.0
  0
LINE
  5
6ED
330
2
100
AcDbEntity
  8
0
100
AcDbLine
 10
176.5315338700475
 20
293.2265473812285
 30
0.0
 11
106.0584118700476
 21
293.2265473812285
 31
0.0
  0
LINE
  5
6EE
330
2
100
AcDbEntity
  8
0
100
AcDbLine
 10
106.0584118700476
 20
309.2265473812285
 30
0.0
 11
176.6752868700475
 21
309.2265473812285
 31
0.0
  0
LINE
  5
6EF
330
2
100
AcDbEntity
  8
0
100
AcDbLine
 10
106.0584118700476
 20
367.2265473812285
 30
0.0
 11
185.4009638700475
 21
367.2265473812285
 31
0.0
  0
LINE
  5
6F0
330
2
100
AcDbEntity
  8
0
100
AcDbLine
 10
176.4006128700475
 20
383.2265473812285
 30
0.0
 11
106.0584118700476
 21
383.2265473812285
 31
0.0
  0
LINE
  5
6F1
330
2
100
AcDbEntity
  8
0
100
AcDbLine
 10
49.05842087004748
 20
380.2265473812285
 30
0.0
 11
49.05839087004756
 21
296.2265313812285
 31
0.0
  0
LINE
  5
6F2
330
2
100
AcDbEntity
  8
0
100
AcDbLine
 10
96.55841187004762
 20
385.2265473812285
 30
0.0
 11
96.5584118700476
 21
345.7265473812285
 31
0.0
  0
LINE
  5
6F3
330
2
100
AcDbEntity
  8
0
100
AcDbLine
 10
106.0584118700476
 20
363.2265473812285
 30
0.0
 11
106.0584118700476
 21
383.2265473812285
 31
0.0
  0
ARC
  5
6F4
330
2
100
AcDbEntity
  8
0
100
AcDbCircle
 10
54.05839087004756
 20
296.2265473812285
 30
0.0
 40
5.0
100
AcDbArc
 50
180.0
 51
270.0
  0
ARC
  5
6F5
330
2
100
AcDbEntity
  8
0
100
AcDbCircle
 10
96.55841187004762
 20
298.9566953812285
 30
0.0
 40
1.5
100
AcDbArc
 50
0.0
 51
90.0
  0
ARC
  5
6F6
330
2
100
AcDbEntity
  8
0
100
AcDbCircle
 10
96.55841187004762
 20
298.9566953812285
 30
0.0
 40
3.0
100
AcDbArc
 50
0.0
 51
90.0
  0
ARC
  5
6F7
330
2
100
AcDbEntity
  8
0
100
AcDbCircle
 10
96.55841187004762
 20
298.9566953812285
 30
0.0
 40
4.5
100
AcDbArc
 50
0.0
 51
90.0
  0
LINE
  5
6F8
330
2
100
AcDbEntity
  8
0
100
AcDbLine
 10
106.0584118700476
 20
293.2265473812285
 30
0.0
 11
106.0584118700476
 21
313.2265473812285
 31
0.0
  0
LINE
  5
6F9
330
2
100
AcDbEntity
  8
0
100
AcDbLine
 10
54.05839087004756
 20
291.2265473812285
 30
0.0
 11
96.55841187004762
 21
291.2265473812285
 31
0.0
  0
LINE
  5
6FA
330
2
100
AcDbEntity
  8
0
100
AcDbLine
 10
96.55841187004762
 20
293.2265473812285
 30
0.0
 11
106.0584118700476
 21
293.2265473812285
 31
0.0
  0
LINE
  5
6FB
330
2
100
AcDbEntity
  8
HOJO
100
AcDbLine
 10
99.55841187004763
 20
294.9566953812285
 30
0.0
 11
101.0584118700476
 21
294.4566953812285
 31
0.0
  0
LINE
  5
6FC
330
2
100
AcDbEntity
  8
HOJO
100
AcDbLine
 10
98.05841187004762
 20
293.9566953812285
 30
0.0
 11
99.55841187004763
 21
294.4566953812285
 31
0.0
  0
LINE
  5
6FD
330
2
100
AcDbEntity
  8
0
100
AcDbLine
 10
99.55841187004763
 20
298.9566953812285
 30
0.0
 11
99.55841187004763
 21
294.4566953812285
 31
0.0
  0
LINE
  5
6FE
330
2
100
AcDbEntity
  8
0
100
AcDbLine
 10
98.05841187004762
 20
298.9566953812285
 30
0.0
 11
98.05841187004762
 21
293.9411003812285
 31
0.0
  0
LINE
  5
6FF
330
2
100
AcDbEntity
  8
0
100
AcDbLine
 10
101.0584118700476
 20
298.9566953812285
 30
0.0
 11
101.0584118700476
 21
294.4566953812285
 31
0.0
  0
LINE
  5
700
330
2
100
AcDbEntity
  8
0
100
AcDbLine
 10
96.55841187004762
 20
309.2265473812285
 30
0.0
 11
52.58338087004756
 21
309.2265473812285
 31
0.0
  0
LINE
  5
701
330
2
100
AcDbEntity
  8
0
100
AcDbLine
 10
106.0584118700476
 20
309.2265473812285
 30
0.0
 11
96.55841187004762
 21
309.2265473812285
 31
0.0
  0
ARC
  5
710
330
2
100
AcDbEntity
  8
0
100
AcDbCircle
 10
54.05842087004748
 20
380.2265473812285
 30
0.0
 40
5.0
100
AcDbArc
 50
90.0
 51
180.0
  0
LINE
  5
711
330
2
100
AcDbEntity
  8
0
100
AcDbLine
 10
54.05839087004756
 20
385.2265473812285
 30
0.0
 11
96.55841187004762
 21
385.2265473812285
 31
0.0
  0
LINE
  5
712
330
2
100
AcDbEntity
  8
0
100
AcDbLine
 10
96.55841187004762
 20
367.2265473812285
 30
0.0
 11
52.58338087004756
 21
367.2265473812285
 31
0.0
  0
LINE
  5
713
330
2
100
AcDbEntity
  8
0
100
AcDbLine
 10
106.0584118700476
 20
367.2265473812285
 30
0.0
 11
96.55841187004762
 21
367.2265473812285
 31
0.0
  0
LINE
  5
714
330
2
100
AcDbEntity
  8
0
100
AcDbLine
 10
96.55841187004762
 20
383.2265473812285
 30
0.0
 11
106.0584118700476
 21
383.2265473812285
 31
0.0
  0
LINE
  5
715
330
2
100
AcDbEntity
  8
0
100
AcDbLine
 10
185.4009638700475
 20
365.2265473812285
 30
0.0
 11
185.4009638700475
 21
301.7615353812285
 31
0.0
  0
LINE
  5
716
330
2
100
AcDbEntity
  8
0
100
AcDbLine
 10
246.0584038700475
 20
370.2265473812285
 30
0.0
 11
246.0584038700475
 21
302.2265473812285
 31
0.0
  0
LINE
  5
717
330
2
100
AcDbEntity
  8
0
100
AcDbLine
 10
212.0584038700475
 20
370.2265473812285
 30
0.0
 11
212.0584038700475
 21
302.2265473812285
 31
0.0
  0
LINE
  5
718
330
2
100
AcDbEntity
  8
CENTER
100
AcDbLine
 10
229.0584038700475
 20
422.2265473812285
 30
0.0
 11
229.0584038700475
 21
254.2265473812286
 31
0.0
  0
LINE
  5
719
330
2
100
AcDbEntity
  8
HIDS
100
AcDbLine
 10
193.3084038700475
 20
300.2265473812285
 30
0.0
 11
193.3084038700475
 21
290.2265473812285
 31
0.0
  0
LINE
  5
71A
330
2
100
AcDbEntity
  8
HIDS
100
AcDbLine
 10
184.8084038700475
 20
300.2265473812285
 30
0.0
 11
184.8084038700475
 21
290.2265473812285
 31
0.0
  0
LINE
  5
71B
330
2
100
AcDbEntity
  8
CENTER
100
AcDbLine
 10
189.0584038700475
 20
285.2265473812285
 30
0.0
 11
189.0584038700475
 21
305.2265473812285
 31
0.0
  0
ARC
  5
71C
330
2
100
AcDbEntity
  8
0
100
AcDbCircle
 10
180.3496028700475
 20
298.2265473812285
 30
0.0
 40
2.0
100
AcDbArc
 50
90.0
 51
181.5000000000002
  0
LINE
  5
71D
330
2
100
AcDbEntity
  8
0
100
AcDbLine
 10
177.3014918700475
 20
338.2265473812285
 30
0.0
 11
178.5584038700475
 21
290.2265473812285
 31
0.0
  0
ARC
  5
71E
330
2
100
AcDbEntity
  8
0
100
AcDbCircle
 10
176.5315338700475
 20
291.2265473812285
 30
0.0
 40
2.0
100
AcDbArc
 50
1.500000000000274
 51
90.0
  0
LINE
  5
71F
330
2
100
AcDbEntity
  8
HIDS
100
AcDbLine
 10
264.8084038700475
 20
300.2265473812285
 30
0.0
 11
264.8084038700475
 21
290.2265473812285
 31
0.0
  0
LINE
  5
720
330
2
100
AcDbEntity
  8
CENTER
100
AcDbLine
 10
269.0584038700475
 20
285.2265473812285
 30
0.0
 11
269.0584038700475
 21
305.2265473812285
 31
0.0
  0
LINE
  5
721
330
2
100
AcDbEntity
  8
0
100
AcDbLine
 10
240.5584038700475
 20
264.2265473812285
 30
0.0
 11
220.0584038700475
 21
264.2265473812285
 31
0.0
  0
LINE
  5
722
330
2
100
AcDbEntity
  8
0
100
AcDbLine
 10
220.0584038700475
 20
290.2265473812285
 30
0.0
 11
220.0584038700475
 21
264.2265473812285
 31
0.0
  0
LINE
  5
723
330
2
100
AcDbEntity
  8
0
100
AcDbLine
 10
237.5434048700475
 20
264.2265473812285
 30
0.0
 11
237.5434048700475
 21
290.2265473812285
 31
0.0
  0
LINE
  5
724
330
2
100
AcDbEntity
  8
0
100
AcDbLine
 10
240.5584038700475
 20
264.2265473812285
 30
0.0
 11
240.5584038700475
 21
290.2265473812285
 31
0.0
  0
LINE
  5
725
330
2
100
AcDbEntity
  8
0
100
AcDbLine
 10
211.9164818700475
 20
301.4865413812285
 30
0.0
 11
246.2003418700475
 21
301.4865413812285
 31
0.0
  0
ARC
  5
726
330
2
100
AcDbEntity
  8
0
100
AcDbCircle
 10
210.0584038700475
 20
302.2265473812285
 30
0.0
 40
2.0
100
AcDbArc
 50
270.0
 51
0.0
  0
ARC
  5
727
330
2
100
AcDbEntity
  8
0
100
AcDbCircle
 10
248.0584038700475
 20
302.2265473812285
 30
0.0
 40
2.0
100
AcDbArc
 50
180.0
 51
270.0
  0
LINE
  5
728
330
2
100
AcDbEntity
  8
0
100
AcDbLine
 10
178.3999268700475
 20
381.2788843812285
 30
0.0
 11
178.5074088700475
 21
377.1741783812285
 31
0.0
  0
ARC
  5
729
330
2
100
AcDbEntity
  8
0
100
AcDbCircle
 10
180.5067228700475
 20
373.2265473812285
 30
0.0
 40
2.0
100
AcDbArc
 50
90.0
 51
178.4999999999997
  0
ARC
  5
72A
330
2
100
AcDbEntity
  8
0
100
AcDbCircle
 10
180.5067228700475
 20
377.2265473812285
 30
0.0
 40
2.0
100
AcDbArc
 50
181.5000000000002
 51
270.0
  0
LINE
  5
72B
330
2
100
AcDbEntity
  8
0
100
AcDbLine
 10
178.3489928700475
 20
367.2292933812285
 30
0.0
 11
178.5074088700475
 21
373.2788843812286
 31
0.0
  0
ARC
  5
72C
330
2
100
AcDbEntity
  8
0
100
AcDbCircle
 10
176.4006128700475
 20
381.2265473812285
 30
0.0
 40
2.0
100
AcDbArc
 50
1.500000000000274
 51
90.0
  0
LINE
  5
72D
330
2
100
AcDbEntity
  8
0
100
AcDbLine
 10
237.5434048700475
 20
412.2265473812285
 30
0.0
 11
237.5434048700475
 21
385.2265473812285
 31
0.0
  0
LINE
  5
72E
330
2
100
AcDbEntity
  8
0
100
AcDbLine
 10
240.5584038700475
 20
412.2265473812285
 30
0.0
 11
240.5584038700475
 21
385.2265473812285
 31
0.0
  0
LINE
  5
72F
330
2
100
AcDbEntity
  8
0
100
AcDbLine
 10
220.0584038700475
 20
382.2265473812285
 30
0.0
 11
220.0584038700475
 21
412.2265473812285
 31
0.0
  0
LINE
  5
730
330
2
100
AcDbEntity
  8
0
100
AcDbLine
 10
219.0584038700475
 20
382.2265473812285
 30
0.0
 11
239.0584038700475
 21
382.2265473812285
 31
0.0
  0
LINE
  5
731
330
2
100
AcDbEntity
  8
0
100
AcDbLine
 10
251.5584198700475
 20
380.2265473812285
 30
0.0
 11
206.5584038700475
 21
380.2265473812285
 31
0.0
  0
LINE
  5
732
330
2
100
AcDbEntity
  8
0
100
AcDbLine
 10
219.0584038700475
 20
380.2265473812285
 30
0.0
 11
219.0584038700475
 21
382.2265473812285
 31
0.0
  0
ARC
  5
733
330
2
100
AcDbEntity
  8
0
100
AcDbCircle
 10
206.5584198700475
 20
379.2265473812285
 30
0.0
 40
1.0
100
AcDbArc
 50
90.0
 51
180.0
  0
ARC
  5
734
330
2
100
AcDbEntity
  8
0
100
AcDbCircle
 10
203.5584038700475
 20
377.2265473812285
 30
0.0
 40
2.0
100
AcDbArc
 50
270.0
 51
0.0
  0
LINE
  5
735
330
2
100
AcDbEntity
  8
0
100
AcDbLine
 10
205.5584038700475
 20
379.2265473812285
 30
0.0
 11
205.5584038700475
 21
377.2265473812285
 31
0.0
  0
LINE
  5
736
330
2
100
AcDbEntity
  8
0
100
AcDbLine
 10
239.0584038700475
 20
380.2265473812285
 30
0.0
 11
239.0584038700475
 21
382.2265473812285
 31
0.0
  0
ARC
  5
737
330
2
100
AcDbEntity
  8
0
100
AcDbCircle
 10
254.5584038700475
 20
377.2265473812285
 30
0.0
 40
2.0
100
AcDbArc
 50
180.0
 51
270.0
  0
ARC
  5
738
330
2
100
AcDbEntity
  8
0
100
AcDbCircle
 10
251.5584198700475
 20
379.2265473812285
 30
0.0
 40
1.0
100
AcDbArc
 50
0.0
 51
90.0
  0
LINE
  5
739
330
2
100
AcDbEntity
  8
0
100
AcDbLine
 10
252.5584198700475
 20
379.2265473812285
 30
0.0
 11
252.5584198700475
 21
377.2265473812285
 31
0.0
  0
LINE
  5
73A
330
2
100
AcDbEntity
  8
0
100
AcDbLine
 10
240.5584038700475
 20
385.2265473812285
 30
0.0
 11
237.5434048700475
 21
385.2265473812285
 31
0.0
  0
LINE
  5
73B
330
2
100
AcDbEntity
  8
0
100
AcDbLine
 10
238.0584038700475
 20
382.2265473812285
 30
0.0
 11
238.0584038700475
 21
385.2265473812285
 31
0.0
  0
LINE
  5
73C
330
2
100
AcDbEntity
  8
0
100
AcDbLine
 10
240.5584038700475
 20
412.2265473812285
 30
0.0
 11
220.0584038700475
 21
412.2265473812285
 31
0.0
  0
LINE
  5
73D
330
2
100
AcDbEntity
  8
0
100
AcDbLine
 10
455.1589138700474
 20
52.79747438122853
 30
0.0
 11
402.9579248700476
 21
52.79747438122853
 31
0.0
  0
LINE
  5
73E
330
2
100
AcDbEntity
  8
CENTER
100
AcDbLine
 10
371.0584198700475
 20
99.79747338122855
 30
0.0
 11
486.0584198700475
 21
99.79747338122855
 31
0.0
  0
LINE
  5
73F
330
2
100
AcDbEntity
  8
0
100
AcDbLine
 10
403.0584198700475
 20
54.79747438122854
 30
0.0
 11
455.0584198700476
 21
54.79747438122854
 31
0.0
  0
LINE
  5
740
330
2
100
AcDbEntity
  8
0
100
AcDbLine
 10
463.9274078700475
 20
80.99747438122856
 30
0.0
 11
394.0584198700475
 21
80.99747438122856
 31
0.0
  0
LINE
  5
741
330
2
100
AcDbEntity
  8
0
100
AcDbLine
 10
463.9274078700475
 20
139.9974743812285
 30
0.0
 11
396.2242218700475
 21
139.9974743812285
 31
0.0
  0
LINE
  5
742
330
2
100
AcDbEntity
  8
0
100
AcDbLine
 10
463.1108178700476
 20
57.44602438122853
 30
0.0
 11
393.0235068700475
 21
56.22239438122855
 31
0.0
  0
LINE
  5
743
330
2
100
AcDbEntity
  8
0
100
AcDbLine
 10
463.1106958700475
 20
163.5489113812285
 30
0.0
 11
393.0235068700475
 21
164.7720183812285
 31
0.0
  0
LINE
  5
744
330
2
100
AcDbEntity
  8
CENTER
100
AcDbLine
 10
345.0584198700476
 20
125.4974743812285
 30
0.0
 11
513.0584198700476
 21
125.4974743812285
 31
0.0
  0
LINE
  5
745
330
2
100
AcDbEntity
  8
0
100
AcDbLine
 10
381.0584198700475
 20
51.49747438122855
 30
0.0
 11
381.0584198700475
 21
116.4974743812285
 31
0.0
  0
LINE
  5
746
330
2
100
AcDbEntity
  8
0
100
AcDbLine
 10
391.0584198700475
 20
167.4974743812285
 30
0.0
 11
391.0584198700475
 21
97.10997338122854
 31
0.0
  0
LINE
  5
748
330
2
100
AcDbEntity
  8
0
100
AcDbLine
 10
387.0584198700475
 20
147.9974663812285
 30
0.0
 11
387.0584198700475
 21
102.9974663812285
 31
0.0
  0
LINE
  5
749
330
2
100
AcDbEntity
  8
0
100
AcDbLine
 10
277.0584038700475
 20
126.1898343812285
 30
0.0
 11
277.0584038700475
 21
94.80543838122855
 31
0.0
  0
LINE
  5
74A
330
2
100
AcDbEntity
  8
0
100
AcDbLine
 10
279.5584038700475
 20
80.99747438122856
 30
0.0
 11
279.5584038700475
 21
139.9974743812285
 31
0.0
  0
LINE
  5
74B
330
2
100
AcDbEntity
  8
0
100
AcDbLine
 10
275.0513088700475
 20
74.10205438122855
 30
0.0
 11
277.0585108700475
 21
94.80543838122855
 31
0.0
  0
LINE
  5
74C
330
2
100
AcDbEntity
  8
0
100
AcDbLine
 10
278.0351038700475
 20
59.85091338122856
 30
0.0
 11
279.5584038700475
 21
80.99747438122856
 31
0.0
  0
ARC
  5
74D
330
2
100
AcDbEntity
  8
0
100
AcDbCircle
 10
402.9579248700476
 20
59.79747338122854
 30
0.0
 40
7.0
100
AcDbArc
 50
225.0001069999998
 51
270.0
  0
ARC
  5
74E
330
2
100
AcDbEntity
  8
0
100
AcDbCircle
 10
389.5238128700475
 20
53.49747438122856
 30
0.0
 40
2.0
100
AcDbArc
 50
270.0
 51
344.9999999999996
  0
ARC
  5
74F
330
2
100
AcDbEntity
  8
0
100
AcDbCircle
 10
389.0584198700475
 20
53.49746438122855
 30
0.0
 40
2.0
100
AcDbArc
 50
270.0
 51
0.0
  0
LINE
  5
750
330
2
100
AcDbEntity
  8
0
100
AcDbLine
 10
389.5238128700475
 20
51.49747438122855
 30
0.0
 11
381.0584198700475
 21
51.49747438122855
 31
0.0
  0
LINE
  5
752
330
2
100
AcDbEntity
  8
HIDS
100
AcDbLine
 10
381.0584198700475
 20
56.24747438122856
 30
0.0
 11
391.0584198700475
 21
56.24747438122856
 31
0.0
  0
LINE
  5
753
330
2
100
AcDbEntity
  8
HIDS
100
AcDbLine
 10
381.0584198700475
 20
64.74747438122856
 30
0.0
 11
391.0584198700475
 21
64.74747438122856
 31
0.0
  0
LINE
  5
754
330
2
100
AcDbEntity
  8
CENTER
100
AcDbLine
 10
376.0584198700474
 20
60.49747438122856
 30
0.0
 11
396.0584198700475
 21
60.49747438122858
 31
0.0
  0
ARC
  5
755
330
2
100
AcDbEntity
  8
0
100
AcDbCircle
 10
394.0584198700475
 20
77.99749338122854
 30
0.0
 40
3.0
100
AcDbArc
 50
90.0
 51
180.0
  0
ARC
  5
756
330
2
100
AcDbEntity
  8
0
100
AcDbCircle
 10
403.0584198700475
 20
57.79747438122853
 30
0.0
 40
3.0
100
AcDbArc
 50
208.8119050000002
 51
270.0
  0
LINE
  5
757
330
2
100
AcDbEntity
  8
0
100
AcDbLine
 10
391.0584198700475
 20
53.49747438122856
 30
0.0
 11
391.0584198700475
 21
77.99748538122855
 31
0.0
  0
ARC
  5
758
330
2
100
AcDbEntity
  8
0
100
AcDbCircle
 10
394.6467978700475
 20
53.25028438122854
 30
0.0
 40
3.0
100
AcDbArc
 50
91.00052599999987
 51
164.3520970000002
  0
ARC
  5
759
330
2
100
AcDbEntity
  8
0
100
AcDbCircle
 10
393.0584198700475
 20
54.22270438122854
 30
0.0
 40
2.0
100
AcDbArc
 50
91.00063300000034
 51
180.0
  0
LINE
  5
75A
330
2
100
AcDbEntity
  8
0
100
AcDbLine
 10
391.4556058700475
 20
52.97983438122855
 30
0.0
 11
391.7457058700475
 21
54.06274438122856
 31
0.0
  0
LINE
  5
75B
330
2
100
AcDbEntity
  8
0
100
AcDbLine
 10
398.0080958700475
 20
54.84771438122857
 30
0.0
 11
396.5584198700475
 21
56.29746438122857
 31
0.0
  0
ARC
  5
75E
330
2
100
AcDbEntity
  8
0
100
AcDbCircle
 10
388.0584198700475
 20
102.9974703812285
 30
0.0
 40
1.0
100
AcDbArc
 50
180.0
 51
270.0
  0
LINE
  5
75F
330
2
100
AcDbEntity
  8
0
100
AcDbLine
 10
391.0584198700475
 20
101.9974703812285
 30
0.0
 11
388.0584198700475
 21
101.9974703812285
 31
0.0
  0
LINE
  5
762
330
2
100
AcDbEntity
  8
0
100
AcDbLine
 10
275.0513088700475
 20
146.8929363812285
 30
0.0
 11
277.0584038700475
 21
126.1898343812285
 31
0.0
  0
LINE
  5
763
330
2
100
AcDbEntity
  8
0
100
AcDbLine
 10
278.0351038700475
 20
161.1441033812285
 30
0.0
 11
279.5584038700475
 21
139.9974743812285
 31
0.0
  0
LINE
  5
764
330
2
100
AcDbEntity
  8
0
100
AcDbLine
 10
381.0584198700475
 20
169.4974743812285
 30
0.0
 11
381.0584198700475
 21
134.4974743812285
 31
0.0
  0
LINE
  5
765
330
2
100
AcDbEntity
  8
0
100
AcDbLine
 10
385.0584198700475
 20
116.4974743812285
 30
0.0
 11
355.0584198700475
 21
116.4974743812285
 31
0.0
  0
LINE
  5
766
330
2
100
AcDbEntity
  8
0
100
AcDbLine
 10
385.0584198700475
 20
134.4974743812285
 30
0.0
 11
355.0584198700475
 21
134.4974743812285
 31
0.0
  0
LINE
  5
768
330
2
100
AcDbEntity
  8
HIDS
100
AcDbLine
 10
381.0584198700475
 20
156.2474743812285
 30
0.0
 11
391.0584198700475
 21
156.2474743812285
 31
0.0
  0
LINE
  5
769
330
2
100
AcDbEntity
  8
CENTER
100
AcDbLine
 10
376.0584198700475
 20
160.4974743812285
 30
0.0
 11
396.0584198700475
 21
160.4974743812285
 31
0.0
  0
LINE
  5
76A
330
2
100
AcDbEntity
  8
0
100
AcDbLine
 10
355.0584198700475
 20
116.4974743812285
 30
0.0
 11
355.0584198700475
 21
134.4974743812285
 31
0.0
  0
LINE
  5
76B
330
2
100
AcDbEntity
  8
0
100
AcDbLine
 10
379.0584198700475
 20
122.4974743812285
 30
0.0
 11
355.0584198700475
 21
122.4974743812285
 31
0.0
  0
LINE
  5
76C
330
2
100
AcDbEntity
  8
0
100
AcDbLine
 10
379.0584198700475
 20
128.4974743812285
 30
0.0
 11
355.0584198700475
 21
128.4974743812285
 31
0.0
  0
ARC
  5
76D
330
2
100
AcDbEntity
  8
0
100
AcDbCircle
 10
379.0584198700475
 20
125.4974743812285
 30
0.0
 40
3.0
100
AcDbArc
 50
270.0
 51
90.0
  0
LINE
  5
76E
330
2
100
AcDbEntity
  8
0
100
AcDbLine
 10
385.0584198700475
 20
135.4974743812285
 30
0.0
 11
385.0584198700475
 21
115.4974743812285
 31
0.0
  0
LINE
  5
771
330
2
100
AcDbEntity
  8
0
100
AcDbLine
 10
387.0584198700475
 20
115.4974743812285
 30
0.0
 11
385.0584198700475
 21
115.4974743812285
 31
0.0
  0
LINE
  5
776
330
2
100
AcDbEntity
  8
0
100
AcDbLine
 10
387.0584198700475
 20
135.4974743812285
 30
0.0
 11
385.0584198700475
 21
135.4974743812285
 31
0.0
  0
ARC
  5
77A
330
2
100
AcDbEntity
  8
0
100
AcDbCircle
 10
388.0584198700475
 20
147.9974663812285
 30
0.0
 40
1.0
100
AcDbArc
 50
90.0
 51
180.0
  0
LINE
  5
77B
330
2
100
AcDbEntity
  8
0
100
AcDbLine
 10
391.0584198700475
 20
148.9974743812285
 30
0.0
 11
388.0584198700475
 21
148.9974743812285
 31
0.0
  0
LINE
  5
77C
330
2
100
AcDbEntity
  8
HIDS
100
AcDbLine
 10
381.0584198700475
 20
164.7474743812285
 30
0.0
 11
391.0584198700475
 21
164.7474743812285
 31
0.0
  0
LINE
  5
77D
330
2
100
AcDbEntity
  8
0
100
AcDbLine
 10
389.5238128700475
 20
169.4974743812285
 30
0.0
 11
381.0584198700475
 21
169.4974743812285
 31
0.0
  0
ARC
  5
77E
330
2
100
AcDbEntity
  8
0
100
AcDbCircle
 10
394.6340118700475
 20
167.7443843812285
 30
0.0
 40
3.0
100
AcDbArc
 50
195.0005040000001
 51
269.0004879999996
  0
ARC
  5
77F
330
2
100
AcDbEntity
  8
0
100
AcDbCircle
 10
393.0584198700475
 20
166.7717203812285
 30
0.0
 40
2.0
100
AcDbArc
 50
180.0
 51
269.0006099999996
  0
ARC
  5
780
330
2
100
AcDbEntity
  8
0
100
AcDbCircle
 10
389.5238128700475
 20
167.4974663812285
 30
0.0
 40
2.0
100
AcDbArc
 50
15.00029000000027
 51
90.0
  0
ARC
  5
781
330
2
100
AcDbEntity
  8
0
100
AcDbCircle
 10
389.0584198700475
 20
167.4974663812285
 30
0.0
 40
2.0
100
AcDbArc
 50
0.0
 51
90.0
  0
LINE
  5
782
330
2
100
AcDbEntity
  8
0
100
AcDbLine
 10
391.4556058700475
 20
168.0151133812285
 30
0.0
 11
391.7362148700475
 21
166.9678873812285
 31
0.0
  0
LINE
  5
783
330
2
100
AcDbEntity
  8
0
100
AcDbLine
 10
476.0584198700476
 20
73.69696438122855
 30
0.0
 11
476.0584198700476
 21
116.4974743812285
 31
0.0
  0
LINE
  5
784
330
2
100
AcDbEntity
  8
0
100
AcDbLine
 10
471.0584198700476
 20
147.9974663812285
 30
0.0
 11
471.0584198700476
 21
102.9974663812285
 31
0.0
  0
ARC
  5
785
330
2
100
AcDbEntity
  8
0
100
AcDbCircle
 10
429.0584198700475
 20
99.79747338122855
 30
0.0
 40
45.0
100
AcDbArc
 50
325.3078919999996
 51
20.42186000000034
  0
LINE
  5
786
330
2
100
AcDbEntity
  8
0
100
AcDbLine
 10
466.0584198700475
 20
160.5493543812285
 30
0.0
 11
466.0584198700475
 21
60.44555438122853
 31
0.0
  0
LINE
  5
787
330
2
100
AcDbEntity
  8
CENTER
100
AcDbLine
 10
429.0584198700475
 20
42.79747438122856
 30
0.0
 11
429.0584198700476
 21
185.4648682774553
 31
0.0
  0
ARC
  5
788
330
2
100
AcDbEntity
  8
0
100
AcDbCircle
 10
455.1589138700474
 20
59.79747338122854
 30
0.0
 40
7.0
100
AcDbArc
 50
270.0
 51
315.0000919999998
  0
ARC
  5
789
330
2
100
AcDbEntity
  8
0
100
AcDbCircle
 10
455.0584198700476
 20
57.79747438122853
 30
0.0
 40
3.0
100
AcDbArc
 50
270.0
 51
351.5618900000002
  0
ARC
  5
78A
330
2
100
AcDbEntity
  8
0
100
AcDbCircle
 10
469.0584198700475
 20
73.69695438122855
 30
0.0
 40
7.0
100
AcDbArc
 50
315.0001180000001
 51
0.0
  0
LINE
  5
78B
330
2
100
AcDbEntity
  8
0
100
AcDbLine
 10
474.0080958700475
 20
68.74722438122853
 30
0.0
 11
466.0584198700475
 21
60.79747338122854
 31
0.0
  0
ARC
  5
78C
330
2
100
AcDbEntity
  8
0
100
AcDbCircle
 10
463.0584198700476
 20
60.44555438122853
 30
0.0
 40
3.0
100
AcDbArc
 50
271.0003130000003
 51
0.0
  0
LINE
  5
78D
330
2
100
AcDbEntity
  8
0
100
AcDbLine
 10
460.1087128700474
 20
54.84772438122854
 30
0.0
 11
462.6998068700475
 21
57.43884438122853
 31
0.0
  0
ARC
  5
78E
330
2
100
AcDbEntity
  8
0
100
AcDbCircle
 10
468.0584198700476
 20
99.99748238122856
 30
0.0
 40
2.0
100
AcDbArc
 50
90.0
 51
180.0
  0
ARC
  5
78F
330
2
100
AcDbEntity
  8
0
100
AcDbCircle
 10
470.0584198700475
 20
102.9974703812285
 30
0.0
 40
1.0
100
AcDbArc
 50
270.0
 51
0.0
  0
LINE
  5
790
330
2
100
AcDbEntity
  8
0
100
AcDbLine
 10
468.0584198700476
 20
101.9974703812285
 30
0.0
 11
470.0584198700475
 21
101.9974703812285
 31
0.0
  0
LINE
  5
791
330
2
100
AcDbEntity
  8
0
100
AcDbLine
 10
479.0584198700476
 20
122.4974743812285
 30
0.0
 11
503.0584198700475
 21
122.4974743812285
 31
0.0
  0
LINE
  5
792
330
2
100
AcDbEntity
  8
0
100
AcDbLine
 10
479.0584198700476
 20
128.4974743812285
 30
0.0
 11
503.0584198700475
 21
128.4974743812285
 31
0.0
  0
LINE
  5
793
330
2
100
AcDbEntity
  8
0
100
AcDbLine
 10
473.0584198700475
 20
116.4974743812285
 30
0.0
 11
503.0584198700475
 21
116.4974743812285
 31
0.0
  0
LINE
  5
794
330
2
100
AcDbEntity
  8
0
100
AcDbLine
 10
473.0584198700475
 20
134.4974743812285
 30
0.0
 11
503.0584198700475
 21
134.4974743812285
 31
0.0
  0
ARC
  5
795
330
2
100
AcDbEntity
  8
0
100
AcDbCircle
 10
463.0584198700476
 20
160.5493543812285
 30
0.0
 40
3.0
100
AcDbArc
 50
0.0
 51
89.00035899999958
  0
LINE
  5
796
330
2
100
AcDbEntity
  8
0
100
AcDbLine
 10
473.0584198700475
 20
135.4974743812285
 30
0.0
 11
473.0584198700475
 21
115.4974743812285
 31
0.0
  0
ARC
  5
797
330
2
100
AcDbEntity
  8
0
100
AcDbCircle
 10
479.0584198700476
 20
125.4974743812285
 30
0.0
 40
3.0
100
AcDbArc
 50
90.0
 51
270.0
  0
LINE
  5
798
330
2
100
AcDbEntity
  8
0
100
AcDbLine
 10
471.0584198700476
 20
115.4974743812285
 30
0.0
 11
473.0584198700475
 21
115.4974743812285
 31
0.0
  0
LINE
  5
799
330
2
100
AcDbEntity
  8
0
100
AcDbLine
 10
471.0584198700476
 20
135.4974743812285
 30
0.0
 11
473.0584198700475
 21
135.4974743812285
 31
0.0
  0
ARC
  5
79A
330
2
100
AcDbEntity
  8
0
100
AcDbCircle
 10
468.0584198700476
 20
150.9974743812285
 30
0.0
 40
2.0
100
AcDbArc
 50
180.0
 51
270.0
  0
ARC
  5
79B
330
2
100
AcDbEntity
  8
0
100
AcDbCircle
 10
470.0584198700475
 20
147.9974663812285
 30
0.0
 40
1.0
100
AcDbArc
 50
0.0
 51
90.0
  0
LINE
  5
79C
330
2
100
AcDbEntity
  8
0
100
AcDbLine
 10
468.0584198700476
 20
148.9974743812285
 30
0.0
 11
470.0584198700475
 21
148.9974743812285
 31
0.0
  0
LINE
  5
79D
330
2
100
AcDbEntity
  8
0
100
AcDbLine
 10
503.0584198700475
 20
116.4974743812285
 30
0.0
 11
503.0584198700475
 21
134.4974743812285
 31
0.0
  0
LINE
  5
79E
330
2
100
AcDbEntity
  8
0
100
AcDbLine
 10
277.3836148700475
 20
373.2788843812286
 30
0.0
 11
279.5584038700475
 21
290.2265473812285
 31
0.0
  0
LINE
  5
79F
330
2
100
AcDbEntity
  8
HIDS
100
AcDbLine
 10
273.3084038700475
 20
300.2265473812285
 30
0.0
 11
273.3084038700475
 21
290.2265473812285
 31
0.0
  0
ARC
  5
7A0
330
2
100
AcDbEntity
  8
0
100
AcDbCircle
 10
277.3482448700475
 20
298.2265473812285
 30
0.0
 40
2.0
100
AcDbArc
 50
1.500000000000274
 51
90.0
  0
ARC
  5
7A2
330
2
100
AcDbEntity
  8
0
100
AcDbCircle
 10
275.3843018700475
 20
373.2265473812285
 30
0.0
 40
2.0
100
AcDbArc
 50
1.500000000000274
 51
90.0
  0
LWPOLYLINE
  5
8CA
330
2
100
AcDbEntity
  8
HOJO
100
AcDbPolyline
 90
       16
 70
     0
 43
0.0
 10
381.0584198700475
 20
153.2135923812285
 10
388.4959198700475
 20
152.2349773812285
 10
393.4959198700475
 20
148.9849773812285
 10
394.2459198700475
 20
144.5474773812285
 10
396.4100128700475
 20
139.5699763812285
 10
397.8709198700475
 20
138.6099773812285
 10
397.3709198700475
 20
132.6099773812285
 10
395.3709198700475
 20
129.1099773812285
 10
397.2459198700475
 20
123.6099773812285
 10
395.9959198700475
 20
111.6099773812285
 10
397.1209198700475
 20
106.9849733812285
 10
395.9959198700475
 20
102.7349733812285
 10
392.7459198700475
 20
97.85997338122854
 10
388.2459198700475
 20
95.85997338122854
 10
383.9959198700475
 20
93.23497338122853
 10
381.0584198700475
 20
92.83801638122856
  0
LINE
  5
8D3
330
2
100
AcDbEntity
  8
CENTER
100
AcDbLine
 10
182.2584008700475
 20
160.4974743812285
 30
0.0
 11
195.8584068700475
 21
160.4974743812285
 31
0.0
  0
LINE
  5
8D4
330
2
100
AcDbEntity
  8
CENTER
100
AcDbLine
 10
189.0584038700475
 20
153.6974713812285
 30
0.0
 11
189.0584038700475
 21
167.2974773812285
 31
0.0
  0
LINE
  5
8D5
330
2
100
AcDbEntity
  8
CENTER
100
AcDbLine
 10
182.2584008700475
 20
60.49747438122856
 30
0.0
 11
195.8584068700475
 21
60.49747438122856
 31
0.0
  0
LINE
  5
8D6
330
2
100
AcDbEntity
  8
CENTER
100
AcDbLine
 10
189.0584038700475
 20
53.69747138122855
 30
0.0
 11
189.0584038700475
 21
67.29747738122856
 31
0.0
  0
LINE
  5
8D7
330
2
100
AcDbEntity
  8
CENTER
100
AcDbLine
 10
262.2584008700475
 20
60.49747438122856
 30
0.0
 11
275.8584068700475
 21
60.49747438122856
 31
0.0
  0
LINE
  5
8D8
330
2
100
AcDbEntity
  8
CENTER
100
AcDbLine
 10
269.0584038700475
 20
53.69747138122855
 30
0.0
 11
269.0584038700475
 21
67.29747738122856
 31
0.0
  0
TEXT
  5
8EE
330
2
100
AcDbEntity
  8
TITLE
100
AcDbText
 10
412.323285186848
 20
315.0167252814615
 30
0.0
 40
5.0
  1
HFMN-18T-10~240-S90WT
 41
0.8
100
AcDbText
  0
TEXT
  5
8EF
330
2
100
AcDbEntity
  8
TITLE
100
AcDbText
 10
412.323285186848
 20
323.0167252814615
 30
0.0
 40
5.0
  1
HFMN-18T-10~240-S90T
 41
0.8
100
AcDbText
  0
TEXT
  5
8F0
330
2
100
AcDbEntity
  8
TITLE
100
AcDbText
 10
412.323285186848
 20
331.0167252814615
 30
0.0
 40
5.0
  1
HFMN-18T-10~240-S60WT
 41
0.8
100
AcDbText
  0
TEXT
  5
8F1
330
2
100
AcDbEntity
  8
TITLE
100
AcDbText
 10
412.323285186848
 20
339.0167252814615
 30
0.0
 40
5.0
  1
HFMN-18T-10~240-S60T
 41
0.8
100
AcDbText
  0
TEXT
  5
8F2
330
2
100
AcDbEntity
  8
TITLE
100
AcDbText
 10
412.323285186848
 20
347.0167252814615
 30
0.0
 40
5.0
  1
HFMN-18T-160~240-S40WT
 41
0.8
100
AcDbText
  0
TEXT
  5
8F3
330
2
100
AcDbEntity
  8
TITLE
100
AcDbText
 10
412.323285186848
 20
355.0167252814615
 30
0.0
 40
5.0
  1
HFMN-18T-160~240-S40T
 41
0.8
100
AcDbText
  0
TEXT
  5
8F4
330
2
100
AcDbEntity
  8
TITLE
100
AcDbText
 10
319.9927538103933
 20
339.0167252814615
 30
0.0
 40
5.0
  1
HFMN-18T-80~240-T60T
 41
0.8
100
AcDbText
  0
TEXT
  5
8F5
330
2
100
AcDbEntity
  8
TITLE
100
AcDbText
 10
319.9927538103933
 20
315.0167252814615
 30
0.0
 40
5.0
  1
HFMN-18T-10~240-T90WT
 41
0.8
100
AcDbText
  0
TEXT
  5
8F6
330
2
100
AcDbEntity
  8
TITLE
100
AcDbText
 10
319.9927538103933
 20
323.0167252814615
 30
0.0
 40
5.0
  1
HFMN-18T-10~240-T90T
 41
0.8
100
AcDbText
  0
TEXT
  5
8F7
330
2
100
AcDbEntity
  8
TITLE
100
AcDbText
 10
319.9927538103933
 20
331.0167252814615
 30
0.0
 40
5.0
  1
HFMN-18T-10~240-T60WT
 41
0.8
100
AcDbText
  0
TEXT
  5
8F8
330
2
100
AcDbEntity
  8
TITLE
100
AcDbText
 10
319.9927538103933
 20
347.0167252814615
 30
0.0
 40
5.0
  1
HFMN-18T-160~240-T40WT
 41
0.8
100
AcDbText
  0
TEXT
  5
8F9
330
2
100
AcDbEntity
  8
TITLE
100
AcDbText
 10
319.9927538103933
 20
355.0167252814615
 30
0.0
 40
5.0
  1
HFMN-18T-160~240-T40T
 41
0.8
100
AcDbText
  0
LINE
  5
1C19
330
2
100
AcDbEntity
  8
CENTER
100
AcDbLine
 10
122.0584038700475
 20
368.6157733253363
 30
0.0
 11
122.0584038700475
 21
307.4765473812285
 31
0.0
  0
LINE
  5
1C1B
330
2
100
AcDbEntity
  8
0
100
AcDbLine
 10
147.0584038700475
 20
176.2974753812285
 30
0.0
 11
147.0584038700475
 21
148.2974773812285
 31
0.0
  0
LINE
  5
1C1C
330
2
100
AcDbEntity
  8
0
100
AcDbLine
 10
95.05841187004751
 20
174.2974753812285
 30
0.0
 11
95.05839687004755
 21
158.2974773812285
 31
0.0
  0
LINE
  5
1C1D
330
2
100
AcDbEntity
  8
CENTER
100
AcDbLine
 10
122.0584038700475
 20
141.6037763812285
 30
0.0
 11
122.0584038700475
 21
182.6849753812285
 31
0.0
  0
LINE
  5
1C1E
330
2
100
AcDbEntity
  8
0
100
AcDbLine
 10
97.05839687004754
 20
176.2974753812285
 30
0.0
 11
97.05839687004754
 21
148.2974773812285
 31
0.0
  0
LINE
  5
1C1F
330
2
100
AcDbEntity
  8
0
100
AcDbLine
 10
98.55839687004754
 20
146.2974773812285
 30
0.0
 11
145.0584038700475
 21
146.2974773812285
 31
0.0
  0
LINE
  5
1C20
330
2
100
AcDbEntity
  8
0
100
AcDbLine
 10
95.05839687004755
 20
158.2974773812285
 30
0.0
 11
147.0584038700475
 21
158.2974773812285
 31
0.0
  0
LINE
  5
1C21
330
2
100
AcDbEntity
  8
0
100
AcDbLine
 10
97.05839687004754
 20
148.2974773812285
 30
0.0
 11
147.0584038700475
 21
148.2974773812285
 31
0.0
  0
LINE
  5
1C24
330
2
100
AcDbEntity
  8
0
100
AcDbLine
 10
97.05839687004754
 20
148.2974773812285
 30
0.0
 11
99.05839687004755
 21
146.2974773812285
 31
0.0
  0
LINE
  5
1C25
330
2
100
AcDbEntity
  8
0
100
AcDbLine
 10
98.55839687004754
 20
146.2974773812285
 30
0.0
 11
98.55839687004754
 21
144.7974773812285
 31
0.0
  0
LINE
  5
1C26
330
2
100
AcDbEntity
  8
0
100
AcDbLine
 10
145.0584038700475
 20
146.2974773812285
 30
0.0
 11
147.0584038700475
 21
148.2974773812285
 31
0.0
  0
LINE
  5
1C27
330
2
100
AcDbEntity
  8
0
100
AcDbLine
 10
144.5584038700475
 20
146.2974773812285
 30
0.0
 11
144.5584038700475
 21
144.7974773812285
 31
0.0
  0
LINE
  5
1C28
330
2
100
AcDbEntity
  8
0
100
AcDbLine
 10
101.896312686073
 20
177.2974753812285
 30
0.0
 11
146.0584038700475
 21
177.2974753812285
 31
0.0
  0
LINE
  5
1C29
330
2
100
AcDbEntity
  8
0
100
AcDbLine
 10
104.5583972986185
 20
176.2974753812285
 30
0.0
 11
147.0584108700476
 21
176.2974753812285
 31
0.0
  0
LINE
  5
1C2A
330
2
100
AcDbEntity
  8
CENTER
100
AcDbLine
 10
89.11464787004751
 20
167.7974753812285
 30
0.0
 11
151.0107068337856
 21
167.7974753812285
 31
0.0
  0
LINE
  5
1C2C
330
2
100
AcDbEntity
  8
0
100
AcDbLine
 10
104.5583972986185
 20
174.7974753812284
 30
0.0
 11
97.0583972986185
 21
174.7974753812284
 31
0.0
  0
ARC
  5
1C2D
330
2
100
AcDbEntity
  8
0
100
AcDbCircle
 10
98.45139311645461
 20
175.8035881054747
 30
0.0
 40
1.3
100
AcDbArc
 50
105.8808500082775
 51
174.9999999999999
  0
LINE
  5
1C2E
330
2
100
AcDbEntity
  8
0
100
AcDbLine
 10
98.05839729861851
 20
177.2974753812284
 30
0.0
 11
97.05839687004754
 21
176.2974753812285
 31
0.0
  0
LINE
  5
1C2F
330
2
100
AcDbEntity
  8
0
100
AcDbLine
 10
97.05839687004754
 20
176.2974753812285
 30
0.0
 11
98.05839687004755
 21
177.2974753812285
 31
0.0
  0
LINE
  5
1C30
330
2
100
AcDbEntity
  8
0
100
AcDbLine
 10
91.55841187004751
 20
171.7974753812285
 30
0.0
 11
91.55841187004751
 21
163.7974753812285
 31
0.0
  0
LINE
  5
1C31
330
2
100
AcDbEntity
  8
0
100
AcDbLine
 10
91.55839687004755
 20
163.7974753812285
 30
0.0
 11
95.05839687004755
 21
162.2974753812285
 31
0.0
  0
LINE
  5
1C32
330
2
100
AcDbEntity
  8
0
100
AcDbLine
 10
97.05840387004764
 20
174.7974753812284
 30
0.0
 11
97.15634000893544
 21
175.9168905710467
 31
0.0
  0
LINE
  5
1C33
330
2
100
AcDbEntity
  8
0
100
AcDbLine
 10
96.05839687004754
 20
175.2974753812285
 30
0.0
 11
97.05839687004754
 21
175.2974753812285
 31
0.0
  0
LINE
  5
1C34
330
2
100
AcDbEntity
  8
0
100
AcDbLine
 10
91.55841187004751
 20
171.7974753812285
 30
0.0
 11
95.05841187004751
 21
173.2974753812285
 31
0.0
  0
ARC
  5
1C35
330
2
100
AcDbEntity
  8
0
100
AcDbCircle
 10
96.05841187004751
 20
174.2974753812285
 30
0.0
 40
1.0
100
AcDbArc
 50
90.0
 51
180.0
  0
ARC
  5
1C36
330
2
100
AcDbEntity
  8
0
100
AcDbCircle
 10
102.6654146236404
 20
175.8035881054747
 30
0.0
 40
1.3
100
AcDbArc
 50
5.000000000000026
 51
74.11914999172243
  0
LINE
  5
1C37
330
2
100
AcDbEntity
  8
0
100
AcDbLine
 10
104.5583972986185
 20
176.7974753812284
 30
0.0
 11
103.5033812596677
 21
176.7974753812284
 31
0.0
  0
ARC
  5
1C38
330
2
100
AcDbEntity
  8
0
100
AcDbCircle
 10
100.5584038700476
 20
168.3974753812284
 30
0.0
 40
9.0
100
AcDbArc
 50
74.11914999172243
 51
105.8808500082775
  0
SPLINE
  5
1C39
330
2
100
AcDbEntity
  8
0
100
AcDbSpline
210
0.0
220
0.0
230
1.0
 70
     8
 71
     3
 72
    11
 73
     7
 74
     0
 42
0.0000000001
 43
0.0000000001
 40
0.0
 40
0.0
 40
0.0
 40
0.0
 40
0.4601364636755307
 40
1.04988694485363
 40
1.713742833862792
 40
2.320347933405154
 40
2.320347933405154
 40
2.320347933405154
 40
2.320347933405179
 10
100.2709038695926
 20
175.8804753812284
 30
0.0
 10
100.2484862124847
 20
176.0354988209083
 30
0.0
 10
100.1973361572514
 20
176.3892136388258
 30
0.0
 10
99.76145099571784
 20
176.8139413104275
 30
0.0
 10
99.15640028071051
 20
177.0331284903933
 30
0.0
 10
98.73121565653457
 20
176.9641371907827
 30
0.0
 10
98.52866404688359
 20
176.949916918606
 30
0.0
  0
LINE
  5
1C3A
330
2
100
AcDbEntity
  8
0
100
AcDbLine
 10
98.52866404688359
 20
176.949916918606
 30
0.0
 11
98.50840387004758
 21
177.1608936640676
 31
0.0
  0
LINE
  5
1C3B
330
2
100
AcDbEntity
  8
0
100
AcDbLine
 10
98.05839687004755
 20
177.2974753812285
 30
0.0
 11
99.2204950540222
 21
177.2974753812285
 31
0.0
  0
LINE
  5
1C3C
330
2
100
AcDbEntity
  8
0
100
AcDbLine
 10
104.0584038700475
 20
174.7974753812284
 30
0.0
 11
103.9604677311597
 21
175.9168905710467
 31
0.0
  0
LINE
  5
1C3D
330
2
100
AcDbEntity
  8
0
100
AcDbLine
 10
102.5881436932116
 20
176.949916918606
 30
0.0
 11
102.6084038700477
 21
177.1608936640676
 31
0.0
  0
LINE
  5
1C3E
330
2
100
AcDbEntity
  8
0
100
AcDbLine
 10
100.8459038705026
 20
175.8804753812284
 30
0.0
 11
100.2709038695926
 21
175.8804753812284
 31
0.0
  0
SPLINE
  5
1C3F
330
2
100
AcDbEntity
  8
0
100
AcDbSpline
210
0.0
220
0.0
230
1.0
 70
     8
 71
     3
 72
    11
 73
     7
 74
     0
 42
0.0000000001
 43
0.0000000001
 40
0.0
 40
0.0
 40
0.0
 40
0.0
 40
0.4601364636755307
 40
1.04988694485363
 40
1.713742833862792
 40
2.320347933405154
 40
2.320347933405154
 40
2.320347933405154
 40
2.320347933405179
 10
100.8459038705026
 20
175.8804753812284
 30
0.0
 10
100.8683215276105
 20
176.0354988209083
 30
0.0
 10
100.9194715828438
 20
176.3892136388258
 30
0.0
 10
101.3553567443774
 20
176.8139413104275
 30
0.0
 10
101.9604074593847
 20
177.0331284903933
 30
0.0
 10
102.3855920835607
 20
176.9641371907827
 30
0.0
 10
102.5881436932116
 20
176.949916918606
 30
0.0
  0
LINE
  5
1C40
330
2
100
AcDbEntity
  8
0
100
AcDbLine
 10
104.5583972986185
 20
174.7974753812284
 30
0.0
 11
104.5583972986185
 21
176.7974753812284
 31
0.0
  0
LINE
  5
1C41
330
2
100
AcDbEntity
  8
0
100
AcDbLine
 10
105.0583972986184
 20
177.2974753812284
 30
0.0
 11
104.5583972986185
 21
176.7974753812284
 31
0.0
  0
LINE
  5
1C42
330
2
100
AcDbEntity
  8
0
100
AcDbLine
 10
146.0584108700476
 20
177.2974753812285
 30
0.0
 11
147.0584108700476
 21
176.2974753812285
 31
0.0
  0
LINE
  5
1C44
330
2
100
AcDbEntity
  8
0
100
AcDbLine
 10
454.0584048700477
 20
176.2974753812285
 30
0.0
 11
454.0584048700477
 21
163.7068849088604
 31
0.0
  0
LINE
  5
1C45
330
2
100
AcDbEntity
  8
0
100
AcDbLine
 10
404.0584198700477
 20
176.2974753812285
 30
0.0
 11
404.0584198700477
 21
164.5794456796084
 31
0.0
  0
LINE
  5
1C4E
330
2
100
AcDbEntity
  8
0
100
AcDbLine
 10
405.0584198700477
 20
177.2974753812285
 30
0.0
 11
449.2205110540216
 21
177.2974753812285
 31
0.0
  0
LINE
  5
1C4F
330
2
100
AcDbEntity
  8
0
100
AcDbLine
 10
404.0584198700477
 20
176.2974753812285
 30
0.0
 11
446.5584048700477
 21
176.2974753812285
 31
0.0
  0
LINE
  5
1C50
330
2
100
AcDbEntity
  8
CENTER
100
AcDbLine
 10
399.0148128888391
 20
167.7974753812285
 30
0.0
 11
459.1020268512562
 21
167.7974753812285
 31
0.0
  0
LINE
  5
1C51
330
2
100
AcDbEntity
  8
0
100
AcDbLine
 10
405.0584198700477
 20
177.2974753812285
 30
0.0
 11
404.0584198700477
 21
176.2974753812285
 31
0.0
  0
ARC
  5
1C52
330
2
100
AcDbEntity
  8
0
100
AcDbCircle
 10
450.5584198700477
 20
168.3974753812285
 30
0.0
 40
9.0
100
AcDbArc
 50
74.11914999172243
 51
105.8808500082775
  0
SPLINE
  5
1C53
330
2
100
AcDbEntity
  8
0
100
AcDbSpline
210
0.0
220
0.0
230
1.0
 70
     8
 71
     3
 72
    11
 73
     7
 74
     0
 42
0.0000000001
 43
0.0000000001
 40
0.0
 40
0.0
 40
0.0
 40
0.0
 40
0.4601364636755307
 40
1.04988694485363
 40
1.713742833862792
 40
2.320347933405154
 40
2.320347933405154
 40
2.320347933405154
 40
2.320347933405179
 10
450.2709198695927
 20
175.8804753812285
 30
0.0
 10
450.2485022124848
 20
176.0354988209084
 30
0.0
 10
450.1973521572516
 20
176.3892136388259
 30
0.0
 10
449.7614669957179
 20
176.8139413104276
 30
0.0
 10
449.1564162807105
 20
177.0331284903935
 30
0.0
 10
448.7312316565347
 20
176.9641371907827
 30
0.0
 10
448.5286800468836
 20
176.9499169186061
 30
0.0
  0
LINE
  5
1C54
330
2
100
AcDbEntity
  8
0
100
AcDbLine
 10
446.5584048700477
 20
174.7974753812285
 30
0.0
 11
454.0584048700477
 21
174.7974753812286
 31
0.0
  0
LINE
  5
1C55
330
2
100
AcDbEntity
  8
0
100
AcDbLine
 10
448.5286800468836
 20
176.9499169186061
 30
0.0
 11
448.5084198700477
 21
177.1608936640677
 31
0.0
  0
LINE
  5
1C56
330
2
100
AcDbEntity
  8
0
100
AcDbLine
 10
447.0584198700477
 20
174.7974753812286
 30
0.0
 11
447.1563560089356
 21
175.9168905710468
 31
0.0
  0
LINE
  5
1C57
330
2
100
AcDbEntity
  8
0
100
AcDbLine
 10
446.0584048700477
 20
177.2974753812285
 30
0.0
 11
446.5584048700477
 21
176.7974753812285
 31
0.0
  0
LINE
  5
1C58
330
2
100
AcDbEntity
  8
0
100
AcDbLine
 10
446.5584048700477
 20
174.7974753812285
 30
0.0
 11
446.5584048700477
 21
176.7974753812286
 31
0.0
  0
LINE
  5
1C59
330
2
100
AcDbEntity
  8
0
100
AcDbLine
 10
446.5584048700477
 20
176.7974753812285
 30
0.0
 11
447.6134424804273
 21
176.7974753812285
 31
0.0
  0
ARC
  5
1C5A
330
2
100
AcDbEntity
  8
0
100
AcDbCircle
 10
448.4514091164547
 20
175.8035881054748
 30
0.0
 40
1.3
100
AcDbArc
 50
105.8808500082775
 51
174.9999999999999
  0
LINE
  5
1C5B
330
2
100
AcDbEntity
  8
0
100
AcDbLine
 10
451.8963286860739
 20
177.2974753812285
 30
0.0
 11
453.0584048700477
 21
177.2974753812285
 31
0.0
  0
LINE
  5
1C5C
330
2
100
AcDbEntity
  8
0
100
AcDbLine
 10
452.5881596932118
 20
176.9499169186061
 30
0.0
 11
452.6084198700478
 21
177.1608936640677
 31
0.0
  0
LINE
  5
1C5D
330
2
100
AcDbEntity
  8
0
100
AcDbLine
 10
450.8459198705028
 20
175.8804753812285
 30
0.0
 11
450.2709198695927
 21
175.8804753812285
 31
0.0
  0
SPLINE
  5
1C5E
330
2
100
AcDbEntity
  8
0
100
AcDbSpline
210
0.0
220
0.0
230
1.0
 70
     8
 71
     3
 72
    11
 73
     7
 74
     0
 42
0.0000000001
 43
0.0000000001
 40
0.0
 40
0.0
 40
0.0
 40
0.0
 40
0.4601364636755307
 40
1.04988694485363
 40
1.713742833862792
 40
2.320347933405154
 40
2.320347933405154
 40
2.320347933405154
 40
2.320347933405179
 10
450.8459198705028
 20
175.8804753812285
 30
0.0
 10
450.8683375276105
 20
176.0354988209084
 30
0.0
 10
450.9194875828439
 20
176.3892136388259
 30
0.0
 10
451.3553727443775
 20
176.8139413104276
 30
0.0
 10
451.9604234593849
 20
177.0331284903935
 30
0.0
 10
452.3856080835607
 20
176.9641371907827
 30
0.0
 10
452.5881596932118
 20
176.9499169186061
 30
0.0
  0
LINE
  5
1C5F
330
2
100
AcDbEntity
  8
0
100
AcDbLine
 10
454.0584198700477
 20
174.7974753812286
 30
0.0
 11
453.9604837311598
 21
175.9168905710468
 31
0.0
  0
ARC
  5
1C60
330
2
100
AcDbEntity
  8
0
100
AcDbCircle
 10
452.6654306236406
 20
175.8035881054748
 30
0.0
 40
1.3
100
AcDbArc
 50
5.000000000000026
 51
74.11914999172243
  0
LINE
  5
1C61
330
2
100
AcDbEntity
  8
0
100
AcDbLine
 10
453.0584048700477
 20
177.2974753812285
 30
0.0
 11
454.0584048700477
 21
176.2974753812285
 31
0.0
  0
LINE
  5
1C63
330
2
100
AcDbEntity
  8
0
100
AcDbLine
 10
99.05839687004755
 20
363.2265473812285
 30
0.0
 11
145.0582968700475
 21
363.2265473812285
 31
0.0
  0
LINE
  5
1C64
330
2
100
AcDbEntity
  8
0
100
AcDbLine
 10
99.45839787004752
 20
361.8265383812285
 30
0.0
 11
139.5582968700475
 21
361.8265383812285
 31
0.0
  0
LINE
  5
1C65
330
2
100
AcDbEntity
  8
0
100
AcDbLine
 10
144.6585018700475
 20
314.6265413812285
 30
0.0
 11
104.5583968700475
 21
314.6265413812285
 31
0.0
  0
LINE
  5
1C66
330
2
100
AcDbEntity
  8
0
100
AcDbLine
 10
99.05839687004755
 20
313.2265473812285
 30
0.0
 11
145.0582968700474
 21
313.2265473812285
 31
0.0
  0
ARC
  5
1C67
330
2
100
AcDbEntity
  8
0
100
AcDbCircle
 10
96.05841187004751
 20
344.7265473812285
 30
0.0
 40
1.0
100
AcDbArc
 50
90.0
 51
180.0
  0
LINE
  5
1C68
330
2
100
AcDbEntity
  8
0
100
AcDbLine
 10
97.05839687004754
 20
361.2265473812285
 30
0.0
 11
97.05839687004754
 21
315.2265473812285
 31
0.0
  0
LINE
  5
1C69
330
2
100
AcDbEntity
  8
0
100
AcDbLine
 10
98.45839087004755
 20
360.8265383812285
 30
0.0
 11
98.45839787004752
 21
320.7265473812285
 31
0.0
  0
LINE
  5
1C6A
330
2
100
AcDbEntity
  8
0
100
AcDbLine
 10
100.5584268700475
 20
320.7265473812285
 30
0.0
 11
97.05842687004759
 21
320.7265473812285
 31
0.0
  0
CIRCLE
  5
1C6B
330
2
100
AcDbEntity
  8
0
100
AcDbCircle
 10
100.5584268700474
 20
316.7265473812285
 30
0.0
 40
3.500000000000028
  0
LINE
  5
1C6C
330
2
100
AcDbEntity
  8
0
100
AcDbLine
 10
97.05839687004754
 20
315.2265473812285
 30
0.0
 11
99.05839687004755
 21
313.2265473812285
 31
0.0
  0
LINE
  5
1C6D
330
2
100
AcDbEntity
  8
0
100
AcDbLine
 10
97.05839687004754
 20
315.2265473812285
 30
0.0
 11
99.05839687004755
 21
313.2265473812285
 31
0.0
  0
ARC
  5
1C6E
330
2
100
AcDbEntity
  8
0
100
AcDbCircle
 10
98.52872687004754
 20
318.7562473812285
 30
0.0
 40
1.742199999999999
100
AcDbArc
 50
269.9986903345002
 51
0.0013096654997424
  0
ARC
  5
1C6F
330
2
100
AcDbEntity
  8
0
100
AcDbCircle
 10
102.5881268700476
 20
318.7562473812285
 30
0.0
 40
1.742199999999999
100
AcDbArc
 50
179.9986903345002
 51
270.0013096654932
  0
ARC
  5
1C70
330
2
100
AcDbEntity
  8
0
100
AcDbCircle
 10
100.5584268700474
 20
316.7265473812285
 30
0.0
 40
4.0
100
AcDbArc
 50
0.0
 51
90.0
  0
ARC
  5
1C71
330
2
100
AcDbEntity
  8
0
100
AcDbCircle
 10
98.52872687004754
 20
314.6968473812285
 30
0.0
 40
1.742199999999999
100
AcDbArc
 50
359.9986903345002
 51
90.00130966549322
  0
ARC
  5
1C72
330
2
100
AcDbEntity
  8
0
100
AcDbCircle
 10
100.5584268700474
 20
316.7265473812285
 30
0.0
 40
2.049999999999998
100
AcDbArc
 50
180.0
 51
188.0619600839816
  0
ARC
  5
1C73
330
2
100
AcDbEntity
  8
0
100
AcDbCircle
 10
100.5584268700474
 20
316.7265473812285
 30
0.0
 40
2.049999999999998
100
AcDbArc
 50
171.9380399160183
 51
180.0
  0
ARC
  5
1C74
330
2
100
AcDbEntity
  8
0
100
AcDbCircle
 10
100.5584268700474
 20
316.7265473812285
 30
0.0
 40
2.049999999999998
100
AcDbArc
 50
351.9380399160183
 51
0.0
  0
ARC
  5
1C75
330
2
100
AcDbEntity
  8
0
100
AcDbCircle
 10
102.5881268700476
 20
314.6968473812285
 30
0.0
 40
1.742199999999999
100
AcDbArc
 50
89.99869033450025
 51
180.0013096654997
  0
ARC
  5
1C76
330
2
100
AcDbEntity
  8
0
100
AcDbCircle
 10
100.5584268700474
 20
316.7265473812285
 30
0.0
 40
2.049999999999998
100
AcDbArc
 50
0.0
 51
8.061960083981649
  0
ARC
  5
1C77
330
2
100
AcDbEntity
  8
0
100
AcDbCircle
 10
100.5584268700474
 20
316.7265473812285
 30
0.0
 40
2.049999999999998
100
AcDbArc
 50
270.0
 51
278.0619600839818
  0
ARC
  5
1C78
330
2
100
AcDbEntity
  8
0
100
AcDbCircle
 10
100.5584268700474
 20
316.7265473812285
 30
0.0
 40
2.049999999999998
100
AcDbArc
 50
261.9380399160181
 51
270.0
  0
LINE
  5
1C79
330
2
100
AcDbEntity
  8
0
100
AcDbLine
 10
104.5583968700475
 20
316.7265473812285
 30
0.0
 11
104.5583968700475
 21
313.2267463812285
 31
0.0
  0
ARC
  5
1C7A
330
2
100
AcDbEntity
  8
0
100
AcDbCircle
 10
100.5584268700474
 20
316.7265473812285
 30
0.0
 40
2.049999999999998
100
AcDbArc
 50
81.93803991601813
 51
90.0
  0
ARC
  5
1C7B
330
2
100
AcDbEntity
  8
0
100
AcDbCircle
 10
100.5584268700474
 20
316.7265473812285
 30
0.0
 40
2.049999999999998
100
AcDbArc
 50
90.0
 51
98.06196008398188
  0
LINE
  5
1C7C
330
2
100
AcDbEntity
  8
0
100
AcDbLine
 10
95.05839687004755
 20
332.7265473812285
 30
0.0
 11
91.55839687004755
 21
336.2265473812285
 31
0.0
  0
LINE
  5
1C7D
330
2
100
AcDbEntity
  8
0
100
AcDbLine
 10
95.05839687004755
 20
331.7265473812285
 30
0.0
 11
95.05839687004755
 21
344.7265473812285
 31
0.0
  0
LINE
  5
1C7E
330
2
100
AcDbEntity
  8
0
100
AcDbLine
 10
96.05839687004754
 20
330.7265473812285
 30
0.0
 11
97.05839687004754
 21
330.7265473812285
 31
0.0
  0
ARC
  5
1C7F
330
2
100
AcDbEntity
  8
0
100
AcDbCircle
 10
96.05839687004744
 20
331.7265473812285
 30
0.0
 40
1.0
100
AcDbArc
 50
180.0
 51
270.0
  0
LINE
  5
1C80
330
2
100
AcDbEntity
  8
0
100
AcDbLine
 10
91.55839687004755
 20
340.2265473812285
 30
0.0
 11
95.05839687004755
 21
343.7265473812285
 31
0.0
  0
LINE
  5
1C81
330
2
100
AcDbEntity
  8
0
100
AcDbLine
 10
91.55839687004755
 20
340.2265473812285
 30
0.0
 11
91.55839687004755
 21
336.2265473812285
 31
0.0
  0
LINE
  5
1C82
330
2
100
AcDbEntity
  8
0
100
AcDbLine
 10
97.05839687004754
 20
361.2265473812285
 30
0.0
 11
99.05839687004755
 21
363.2265473812285
 31
0.0
  0
LINE
  5
1C83
330
2
100
AcDbEntity
  8
0
100
AcDbLine
 10
96.05839687004754
 20
345.7265473812285
 30
0.0
 11
97.05839687004754
 21
345.7265473812285
 31
0.0
  0
LINE
  5
1C84
330
2
100
AcDbEntity
  8
0
100
AcDbLine
 10
98.45839087004755
 20
360.8265383812285
 30
0.0
 11
99.45839787004752
 21
361.8265383812285
 31
0.0
  0
LINE
  5
1C85
330
2
100
AcDbEntity
  8
0
100
AcDbLine
 10
147.0582968700475
 20
361.2265473812285
 30
0.0
 11
147.0582968700474
 21
315.2265473812285
 31
0.0
  0
LINE
  5
1C86
330
2
100
AcDbEntity
  8
0
100
AcDbLine
 10
145.6585018700475
 20
315.6265413812285
 30
0.0
 11
145.6585018700475
 21
355.7265473812285
 31
0.0
  0
LINE
  5
1C87
330
2
100
AcDbEntity
  8
0
100
AcDbLine
 10
144.6585018700475
 20
314.6265413812285
 30
0.0
 11
145.6585018700475
 21
315.6265413812285
 31
0.0
  0
LINE
  5
1C88
330
2
100
AcDbEntity
  8
0
100
AcDbLine
 10
147.0584958700475
 20
315.2265473812285
 30
0.0
 11
145.0582968700474
 21
313.2265473812285
 31
0.0
  0
LINE
  5
1C89
330
2
100
AcDbEntity
  8
0
100
AcDbLine
 10
147.0582968700474
 20
315.2265473812285
 30
0.0
 11
145.0582968700474
 21
313.2265473812285
 31
0.0
  0
LINE
  5
1C8A
330
2
100
AcDbEntity
  8
0
100
AcDbLine
 10
147.0582968700474
 20
315.2265473812285
 30
0.0
 11
145.0582968700474
 21
313.2265473812285
 31
0.0
  0
ARC
  5
1C8B
330
2
100
AcDbEntity
  8
0
100
AcDbCircle
 10
145.5881958700476
 20
361.7562473812284
 30
0.0
 40
1.742199999999999
100
AcDbArc
 50
179.9986903345002
 51
270.0013096654932
  0
ARC
  5
1C8C
330
2
100
AcDbEntity
  8
0
100
AcDbCircle
 10
145.5881958700476
 20
357.6968473812285
 30
0.0
 40
1.742199999999999
100
AcDbArc
 50
89.99869033450025
 51
180.0013096654997
  0
ARC
  5
1C8D
330
2
100
AcDbEntity
  8
0
100
AcDbCircle
 10
143.5584958700475
 20
359.7265473812285
 30
0.0
 40
2.049999999999998
100
AcDbArc
 50
270.0
 51
278.0619600839818
  0
LINE
  5
1C8E
330
2
100
AcDbEntity
  8
0
100
AcDbLine
 10
143.5582968700475
 20
355.7265473812285
 30
0.0
 11
147.0582968700475
 21
355.7265473812285
 31
0.0
  0
ARC
  5
1C8F
330
2
100
AcDbEntity
  8
0
100
AcDbCircle
 10
143.5584958700475
 20
359.7265473812285
 30
0.0
 40
2.049999999999998
100
AcDbArc
 50
81.93803991601813
 51
90.0
  0
CIRCLE
  5
1C90
330
2
100
AcDbEntity
  8
0
100
AcDbCircle
 10
143.5584958700475
 20
359.7265473812285
 30
0.0
 40
3.500000000000028
  0
ARC
  5
1C91
330
2
100
AcDbEntity
  8
0
100
AcDbCircle
 10
141.5287958700475
 20
361.7562473812284
 30
0.0
 40
1.742199999999999
100
AcDbArc
 50
269.9986903345002
 51
0.0013096654997424
  0
ARC
  5
1C92
330
2
100
AcDbEntity
  8
0
100
AcDbCircle
 10
141.5287958700475
 20
357.6968473812285
 30
0.0
 40
1.742199999999999
100
AcDbArc
 50
359.9986903345002
 51
90.00130966549322
  0
ARC
  5
1C93
330
2
100
AcDbEntity
  8
0
100
AcDbCircle
 10
143.5584958700475
 20
359.7265473812285
 30
0.0
 40
2.049999999999998
100
AcDbArc
 50
180.0
 51
188.0619600839816
  0
ARC
  5
1C94
330
2
100
AcDbEntity
  8
0
100
AcDbCircle
 10
143.5584958700475
 20
359.7265473812285
 30
0.0
 40
2.049999999999998
100
AcDbArc
 50
171.9380399160183
 51
180.0
  0
ARC
  5
1C95
330
2
100
AcDbEntity
  8
0
100
AcDbCircle
 10
143.5584958700475
 20
359.7265473812285
 30
0.0
 40
2.049999999999998
100
AcDbArc
 50
261.9380399160181
 51
270.0
  0
ARC
  5
1C96
330
2
100
AcDbEntity
  8
0
100
AcDbCircle
 10
143.5584958700475
 20
359.7265473812285
 30
0.0
 40
2.049999999999998
100
AcDbArc
 50
90.0
 51
98.06196008398188
  0
LINE
  5
1C97
330
2
100
AcDbEntity
  8
0
100
AcDbLine
 10
139.5582968700475
 20
359.7265473812285
 30
0.0
 11
139.5582968700475
 21
363.2265473812285
 31
0.0
  0
ARC
  5
1C98
330
2
100
AcDbEntity
  8
0
100
AcDbCircle
 10
143.5584958700475
 20
359.7265473812285
 30
0.0
 40
4.0
100
AcDbArc
 50
180.0
 51
270.0
  0
ARC
  5
1C99
330
2
100
AcDbEntity
  8
0
100
AcDbCircle
 10
143.5584958700475
 20
359.7265473812285
 30
0.0
 40
2.049999999999998
100
AcDbArc
 50
351.9380399160183
 51
0.0
  0
ARC
  5
1C9A
330
2
100
AcDbEntity
  8
0
100
AcDbCircle
 10
143.5584958700475
 20
359.7265473812285
 30
0.0
 40
2.049999999999998
100
AcDbArc
 50
0.0
 51
8.061960083981649
  0
LINE
  5
1C9B
330
2
100
AcDbEntity
  8
0
100
AcDbLine
 10
145.0582968700475
 20
363.2265473812285
 30
0.0
 11
147.0582968700475
 21
361.2265473812285
 31
0.0
  0
LINE
  5
1C9C
330
2
100
AcDbEntity
  8
0
100
AcDbLine
 10
147.0582968700475
 20
361.2265473812285
 30
0.0
 11
145.0582968700475
 21
363.2265473812285
 31
0.0
  0
LINE
  5
1D6F
330
2
100
AcDbEntity
  8
0
100
AcDbLine
 10
96.5584118700476
 20
330.7265473812285
 30
0.0
 11
96.55841187004762
 21
291.2265473812285
 31
0.0
  0
ENDSEC
  0
SECTION
  2
OBJECTS
  0
DICTIONARY
  5
7
330
0
100
AcDbDictionary
  3
ACAD_GROUP
350
75
  3
ACAD_LAYOUT
350
61
  3
ACAD_MLINESTYLE
350
76
  3
ACAD_PLOTSETTINGS
350
77
  3
ACAD_PLOTSTYLENAME
350
6
  3
ACADDIM
350
480
  3
ACDBHEADERROUNDTRIPXREC
350
1DDC
  3
ACDBVARIABLEDICTIONARY
350
102
  3
DWGPROPS
350
3D2
  0
DICTIONARY
  5
1DFD
330
2
100
AcDbDictionary
280
     1
  3
ACAD_LAYOUTSELFREF
360
1DFE
  0
DICTIONARY
  5
1DFF
330
1DD6
100
AcDbDictionary
280
     1
  3
ACAD_LAYOUTSELFREF
360
1E00
  0
DICTIONARY
  5
75
102
{ACAD_REACTORS
330
7
102
}
330
7
100
AcDbDictionary
  0
DICTIONARY
  5
61
102
{ACAD_REACTORS
330
7
102
}
330
7
100
AcDbDictionary
  0
DICTIONARY
  5
76
102
{ACAD_REACTORS
330
7
102
}
330
7
100
AcDbDictionary
  3
STANDARD
350
78
  0
DICTIONARY
  5
77
102
{ACAD_REACTORS
330
7
102
}
330
7
100
AcDbDictionary
  0
ACDBDICTIONARYWDFLT
  5
6
102
{ACAD_REACTORS
330
7
102
}
330
7
100
AcDbDictionary
281
     1
  3
Normal
350
5
100
AcDbDictionaryWithDefault
340
5
  0
XRECORD
  5
480
102
{ACAD_REACTORS
330
7
102
}
330
7
100
AcDbXrecord
 90
   990106
  3

 60
     0
 61
     0
 62
     1
 63
     3
 64
     1
 65
     0
 66
     0
 67
     3
 68
     1
 69
     0
 70
     0
 71
     0
 72
     0
 40
0.0
170
     2
340
0
  0
DICTIONARY
  5
1DDC
102
{ACAD_REACTORS
330
7
102
}
330
7
100
AcDbDictionary
  3
CEPSNTYPE
350
1DE6
  3
DIMSTYLEDATA
350
1DEA
  3
FINGERPRINTGUID
350
1DE7
  3
HYPERLINKBASE
350
1DDF
  3
INSUNITS
350
1DE5
  3
LAYOUTDICT
350
1DE1
  3
LWETCUNION
350
1DE4
  3
PLOTSETDICT
350
1DE2
  3
PLOTSTYLNAMDICT
350
1DE3
  3
PSVPSCALE
350
1DE9
  3
PUCSBASE
350
1DED
  3
PUCSORGBACK
350
1DF3
  3
PUCSORGBOTTOM
350
1DEF
  3
PUCSORGFRONT
350
1DF2
  3
PUCSORGLEFT
350
1DF0
  3
PUCSORGRIGHT
350
1DF1
  3
PUCSORGTOP
350
1DEE
  3
PUCSORTHOREF
350
1DEB
  3
PUCSORTHOVIEW
350
1DEC
  3
STYLESHEET
350
1DE0
  3
TSTACKALIGN
350
1DDD
  3
TSTACKSIZE
350
1DDE
  3
UCSBASE
350
1DF6
  3
UCSORGBACK
350
1DFC
  3
UCSORGBOTTOM
350
1DF8
  3
UCSORGFRONT
350
1DFB
  3
UCSORGLEFT
350
1DF9
  3
UCSORGRIGHT
350
1DFA
  3
UCSORGTOP
350
1DF7
  3
UCSORTHOREF
350
1DF4
  3
UCSORTHOVIEW
350
1DF5
  3
VERSIONGUID
350
1DE8
  0
DICTIONARY
  5
102
102
{ACAD_REACTORS
330
7
102
}
330
7
100
AcDbDictionary
  3
DIMASSOC
350
103
  0
XRECORD
  5
3D2
102
{ACAD_REACTORS
330
7
102
}
330
7
100
AcDbXrecord
  1
DWGPROPS COOKIE
  2

  3

  4

  6

  7

  8

  9

300
=
301
=
302
=
303
=
304
=
305
=
306
=
307
=
308
=
309
=
 40
0.5353330671296296
 41
2452052.431989363
 42
2453406.550756377
  1

 90
        0
  0
XRECORD
  5
1DFE
102
{ACAD_REACTORS
330
1DFD
102
}
330
1DFD
100
AcDbXrecord
340
2
  0
XRECORD
  5
1E00
102
{ACAD_REACTORS
330
1DFF
102
}
330
1DFF
100
AcDbXrecord
340
1DD6
  0
MLINESTYLE
  5
78
102
{ACAD_REACTORS
330
76
102
}
330
76
100
AcDbMlineStyle
  2
STANDARD
 70
     0
  3

 62
     0
 51
90.0
 52
90.0
 71
     2
 49
0.5
 62
   256
  6
BYLAYER
 49
-0.5
 62
   256
  6
BYLAYER
  0
ACDBPLACEHOLDER
  5
5
102
{ACAD_REACTORS
330
6
102
}
330
6
100
AcDbPlaceHolder
280
     0
  0
XRECORD
  5
1DE6
102
{ACAD_REACTORS
330
1DDC
102
}
330
1DDC
100
AcDbXrecord
 90
        0
  0
XRECORD
  5
1DEA
102
{ACAD_REACTORS
330
1DDC
102
}
330
1DDC
100
AcDbXrecord
1000
DSTYLE
1002
{
1070
   179
 70
     2
1070
   277
 70
     6
1002
}
  0
XRECORD
  5
1DE7
102
{ACAD_REACTORS
330
1DDC
102
}
330
1DDC
100
AcDbXrecord
  1
{6385560B-F4B1-4644-A7C2-A3E32AC3D232}
  0
XRECORD
  5
1DDF
102
{ACAD_REACTORS
330
1DDC
102
}
330
1DDC
100
AcDbXrecord
  1

  0
XRECORD
  5
1DE5
102
{ACAD_REACTORS
330
1DDC
102
}
330
1DDC
100
AcDbXrecord
 90
        0
  0
XRECORD
  5
1DE1
102
{ACAD_REACTORS
330
1DDC
102
}
330
1DDC
100
AcDbXrecord
340
61
  0
XRECORD
  5
1DE4
102
{ACAD_REACTORS
330
1DDC
102
}
330
1DDC
100
AcDbXrecord
 90
    10781
  0
XRECORD
  5
1DE2
102
{ACAD_REACTORS
330
1DDC
102
}
330
1DDC
100
AcDbXrecord
340
77
  0
XRECORD
  5
1DE3
102
{ACAD_REACTORS
330
1DDC
102
}
330
1DDC
100
AcDbXrecord
340
6
  0
XRECORD
  5
1DE9
102
{ACAD_REACTORS
330
1DDC
102
}
330
1DDC
100
AcDbXrecord
 40
0.0
  0
XRECORD
  5
1DED
102
{ACAD_REACTORS
330
1DDC
102
}
330
1DDC
100
AcDbXrecord
340
0
  0
XRECORD
  5
1DF3
102
{ACAD_REACTORS
330
1DDC
102
}
330
1DDC
100
AcDbXrecord
 10
0.0
 20
0.0
 30
0.0
  0
XRECORD
  5
1DEF
102
{ACAD_REACTORS
330
1DDC
102
}
330
1DDC
100
AcDbXrecord
 10
0.0
 20
0.0
 30
0.0
  0
XRECORD
  5
1DF2
102
{ACAD_REACTORS
330
1DDC
102
}
330
1DDC
100
AcDbXrecord
 10
0.0
 20
0.0
 30
0.0
  0
XRECORD
  5
1DF0
102
{ACAD_REACTORS
330
1DDC
102
}
330
1DDC
100
AcDbXrecord
 10
0.0
 20
0.0
 30
0.0
  0
XRECORD
  5
1DF1
102
{ACAD_REACTORS
330
1DDC
102
}
330
1DDC
100
AcDbXrecord
 10
0.0
 20
0.0
 30
0.0
  0
XRECORD
  5
1DEE
102
{ACAD_REACTORS
330
1DDC
102
}
330
1DDC
100
AcDbXrecord
 10
0.0
 20
0.0
 30
0.0
  0
XRECORD
  5
1DEB
102
{ACAD_REACTORS
330
1DDC
102
}
330
1DDC
100
AcDbXrecord
340
0
  0
XRECORD
  5
1DEC
102
{ACAD_REACTORS
330
1DDC
102
}
330
1DDC
100
AcDbXrecord
 70
     0
  0
XRECORD
  5
1DE0
102
{ACAD_REACTORS
330
1DDC
102
}
330
1DDC
100
AcDbXrecord
  1
Sekkei.ctb
  0
XRECORD
  5
1DDD
102
{ACAD_REACTORS
330
1DDC
102
}
330
1DDC
100
AcDbXrecord
 90
        1
  0
XRECORD
  5
1DDE
102
{ACAD_REACTORS
330
1DDC
102
}
330
1DDC
100
AcDbXrecord
 90
       70
  0
XRECORD
  5
1DF6
102
{ACAD_REACTORS
330
1DDC
102
}
330
1DDC
100
AcDbXrecord
340
0
  0
XRECORD
  5
1DFC
102
{ACAD_REACTORS
330
1DDC
102
}
330
1DDC
100
AcDbXrecord
 10
0.0
 20
0.0
 30
0.0
  0
XRECORD
  5
1DF8
102
{ACAD_REACTORS
330
1DDC
102
}
330
1DDC
100
AcDbXrecord
 10
0.0
 20
0.0
 30
0.0
  0
XRECORD
  5
1DFB
102
{ACAD_REACTORS
330
1DDC
102
}
330
1DDC
100
AcDbXrecord
 10
0.0
 20
0.0
 30
0.0
  0
XRECORD
  5
1DF9
102
{ACAD_REACTORS
330
1DDC
102
}
330
1DDC
100
AcDbXrecord
 10
0.0
 20
0.0
 30
0.0
  0
XRECORD
  5
1DFA
102
{ACAD_REACTORS
330
1DDC
102
}
330
1DDC
100
AcDbXrecord
 10
0.0
 20
0.0
 30
0.0
  0
XRECORD
  5
1DF7
102
{ACAD_REACTORS
330
1DDC
102
}
330
1DDC
100
AcDbXrecord
 10
0.0
 20
0.0
 30
0.0
  0
XRECORD
  5
1DF4
102
{ACAD_REACTORS
330
1DDC
102
}
330
1DDC
100
AcDbXrecord
340
0
  0
XRECORD
  5
1DF5
102
{ACAD_REACTORS
330
1DDC
102
}
330
1DDC
100
AcDbXrecord
 70
     0
  0
XRECORD
  5
1DE8
102
{ACAD_REACTORS
330
1DDC
102
}
330
1DDC
100
AcDbXrecord
  1
{2C44F292-C737-47E9-B9C3-DB8B0D7D7712}
  0
DICTIONARYVAR
  5
103
102
{ACAD_REACTORS
330
102
102
}
330
102
100
DictionaryVariables
280
     0
  1
1
  0
ENDSEC
  0
EOF
