  0
SECTION
  2
HEADER
  9
$CLAYER
  8
1
  9
$LTSCALE
 40
3.0
  0
ENDSEC
  0
SECTION
  2
TABLES
  0
TABLE
  2
LTYPE
 70
     4
  0
LTYPE
  2
CONTINUOUS
  3
solid line
 70
    64
 72
    65
 73
     0
 40
0.0
  0
LTYPE
  2
DASHED
  3
__ __ __ __ __ __ __ __ __ __ __ __ __ __ __
 70
    64
 72
    65
 73
     2
 40
0.75
 49
0.5
 49
-0.25
  0
LTYPE
  2
CENTER
  3
____ _ ____ _ ____ _ ____ _ ____ _ ____ _ ____
 70
    64
 72
    65
 73
     4
 40
2.0
 49
1.25
 49
-0.25
 49
0.25
 49
-0.25
  0
LTYPE
  2
PHANTOM
  3
_____ _ _ _____ _ _ _____ _ _ _____ _ _ ____
 70
    64
 72
    65
 73
     6
 40
2.5
 49
1.25
 49
-0.25
 49
0.25
 49
-0.25
 49
0.25
 49
-0.25
  0
ENDTAB
  0
TABLE
  2
LAYER
 70
     1
  0
LAYER
  2
0
 70
    64
 62
     7
  6
CONTINUOUS
  0
ENDTAB
  0
TABLE
  2
STYLE
 70
     1
  0
STYLE
  2
STANDARD
 70
     0
 40
0.000000
 41
1.000000
 50
0.000000
 71
     0
 42
3.000000
  3
txt
  4
BIGFONT
  0
ENDTAB
  0
ENDSEC
  0
SECTION
  2
BLOCKS
  0
ENDSEC
  0
SECTION
  2
ENTITIES
  0
LINE
  8
0
  6
CONTINUOUS
 10
55.977489
 20
101.647499
 11
65.477493
 21
101.647499
  0
LINE
  8
0
  6
CONTINUOUS
 10
65.477493
 20
91.056793
 11
55.977489
 21
91.056793
  0
LINE
  8
0
  6
CONTINUOUS
 10
55.977489
 20
11.647496
 11
65.477493
 21
11.647496
  0
LINE
  8
0
  6
CONTINUOUS
 10
65.477493
 20
22.238195
 11
55.977489
 21
22.238195
  0
LINE
  8
0
  6
CONTINUOUS
 10
55.977489
 20
103.647499
 11
55.977489
 21
9.647496
  0
LINE
  8
0
  6
CONTINUOUS
 10
55.977489
 20
85.647499
 11
12.002490
 21
85.647499
  0
LINE
  8
0
  6
CONTINUOUS
 10
55.977489
 20
27.647495
 11
12.002489
 21
27.647495
  0
LINE
  8
0
  6
CONTINUOUS
 10
66.477493
 20
103.147499
 11
66.477493
 21
101.647499
  0
LINE
  8
0
  6
CONTINUOUS
 10
58.477489
 20
103.147499
 11
58.477489
 21
101.647499
  0
LINE
  8
0
  6
CONTINUOUS
 10
58.477489
 20
103.147499
 11
66.477493
 21
103.147499
  0
LINE
  8
0
  6
CONTINUOUS
 10
63.377491
 20
116.147499
 11
63.377491
 21
103.147499
  0
LINE
  8
0
  6
CONTINUOUS
 10
61.577492
 20
116.772499
 11
61.577492
 21
103.147499
  0
LINE
  8
0
  6
CONTINUOUS
 10
59.777489
 20
114.709999
 11
59.777489
 21
103.147499
  0
LINE
  8
0
  6
CONTINUOUS
 10
65.177490
 20
115.522499
 11
65.177490
 21
103.147499
  0
LINE
  8
0
  6
CONTINUOUS
 10
61.577492
 20
116.772499
 11
63.377491
 21
116.147499
  0
LINE
  8
0
  6
CONTINUOUS
 10
59.777489
 20
114.709999
 11
61.577492
 21
115.334999
  0
LINE
  8
0
  6
CONTINUOUS
 10
65.177490
 20
115.522499
 11
63.378502
 21
115.074783
  0
LINE
  8
0
  6
CONTINUOUS
 10
13.477488
 20
103.647499
 11
55.977489
 21
103.647499
  0
LINE
  8
0
  6
CONTINUOUS
 10
13.477488
 20
9.647496
 11
55.977489
 21
9.647496
  0
ARC
  8
0
  6
CONTINUOUS
 10
13.477513
 20
98.647530
 40
5.000000
 50
90.000000
 51
180.000000
  0
ARC
  8
0
  6
CONTINUOUS
 10
13.477487
 20
14.647496
 40
5.000000
 50
180.000000
 51
270.000000
  0
LINE
  8
0
  6
CONTINUOUS
 10
8.477513
 20
98.647507
 11
8.477488
 21
14.647486
  0
LINE
  8
0
  6
CONTINUOUS
 10
65.477493
 20
11.647496
 11
65.477493
 21
101.647499
  0
LINE
  8
0
  6
CENTER
 10
-0.949375
 20
56.647495
 11
160.364197
 21
56.647495
  0
LINE
  8
0
  6
CONTINUOUS
 10
238.977493
 20
37.847496
 11
238.977493
 21
96.847496
  0
LINE
  8
0
  6
CONTINUOUS
 10
65.477493
 20
101.647499
 11
138.323196
 21
101.647499
  0
LINE
  8
0
  6
CONTINUOUS
 10
135.977493
 20
11.647496
 11
65.477493
 21
11.647496
  0
LINE
  8
0
  6
CENTER
 10
153.527206
 20
82.347496
 11
223.056870
 21
82.347496
  0
LINE
  8
0
  6
CENTER
 10
188.477493
 20
134.897491
 11
188.477493
 21
-1.092804
  0
LINE
  8
0
  6
CONTINUOUS
 10
148.477493
 20
126.347496
 11
228.477493
 21
126.347496
  0
LINE
  8
0
  6
CONTINUOUS
 10
148.477493
 20
8.347496
 11
228.477493
 21
8.347496
  0
LINE
  8
0
  6
CENTER
 10
221.477493
 20
117.347496
 11
235.352493
 21
117.347496
  0
LINE
  8
0
  6
CENTER
 10
228.477493
 20
110.647499
 11
228.477493
 21
124.147499
  0
CIRCLE
  8
0
  6
CONTINUOUS
 10
228.477493
 20
117.347496
 40
4.250000
  0
LINE
  8
0
  6
CENTER
 10
221.477493
 20
17.347496
 11
235.352493
 21
17.347496
  0
LINE
  8
0
  6
CENTER
 10
228.477493
 20
24.047497
 11
228.477493
 21
10.547496
  0
CIRCLE
  8
0
  6
CONTINUOUS
 10
228.477493
 20
17.347496
 40
4.250000
  0
LINE
  8
0
  6
CENTER
 10
155.477493
 20
117.347496
 11
141.602493
 21
117.347496
  0
LINE
  8
0
  6
CENTER
 10
148.477493
 20
110.647499
 11
148.477493
 21
124.147499
  0
CIRCLE
  8
0
  6
CONTINUOUS
 10
148.477493
 20
117.347496
 40
4.250000
  0
LINE
  8
0
  6
CENTER
 10
155.477493
 20
17.347496
 11
141.602493
 21
17.347496
  0
LINE
  8
0
  6
CENTER
 10
148.477493
 20
24.047497
 11
148.477493
 21
10.547496
  0
CIRCLE
  8
0
  6
CONTINUOUS
 10
148.477493
 20
17.347496
 40
4.250000
  0
LINE
  8
0
  6
CONTINUOUS
 10
237.454193
 20
117.994125
 11
238.977493
 21
96.847496
  0
LINE
  8
0
  6
CONTINUOUS
 10
237.454193
 20
16.700935
 11
238.977493
 21
37.847496
  0
LINE
  8
0
  6
CONTINUOUS
 10
162.477493
 20
122.347496
 11
214.477493
 21
122.347496
  0
LINE
  8
0
  6
CONTINUOUS
 10
214.477493
 20
12.347496
 11
162.477493
 21
12.347496
  0
LINE
  8
0
  6
CONTINUOUS
 10
140.477493
 20
83.039688
 11
140.477493
 21
51.654976
  0
ARC
  8
0
  6
CONTINUOUS
 10
188.477493
 20
67.347496
 40
50.500000
 50
18.103800
 51
161.896194
  0
ARC
  8
0
  6
CONTINUOUS
 10
188.477493
 20
67.347496
 40
50.500000
 50
198.103806
 51
341.896210
  0
LINE
  8
0
  6
CONTINUOUS
 10
236.477493
 20
83.039856
 11
236.477493
 21
51.655460
  0
ARC
  8
0
  6
CONTINUOUS
 10
214.477493
 20
117.347496
 40
5.000000
 50
0.000000
 51
90.000000
  0
ARC
  8
0
  6
CONTINUOUS
 10
229.483398
 20
103.383675
 40
5.000000
 50
4.120544
 51
94.120201
  0
ARC
  8
0
  6
CONTINUOUS
 10
228.477493
 20
117.347496
 40
9.000000
 50
180.000000
 51
274.120697
  0
ARC
  8
0
  6
CONTINUOUS
 10
228.477493
 20
117.347496
 40
9.000000
 50
4.120065
 51
90.000000
  0
ARC
  8
0
  6
CONTINUOUS
 10
214.477493
 20
17.347496
 40
5.000000
 50
-90.000000
 51
0.000000
  0
ARC
  8
0
  6
CONTINUOUS
 10
229.483398
 20
31.311316
 40
5.000000
 50
265.879791
 51
355.879486
  0
ARC
  8
0
  6
CONTINUOUS
 10
228.477493
 20
17.347496
 40
9.000000
 50
270.000000
 51
355.879913
  0
ARC
  8
0
  6
CONTINUOUS
 10
228.477493
 20
17.347496
 40
9.000000
 50
85.879837
 51
180.000000
  0
LINE
  8
0
  6
CONTINUOUS
 10
234.470398
 20
103.742958
 11
236.477493
 21
83.039856
  0
LINE
  8
0
  6
CONTINUOUS
 10
234.470398
 20
30.952076
 11
236.477600
 21
51.655460
  0
ARC
  8
0
  6
CONTINUOUS
 10
162.477493
 20
117.347496
 40
5.000000
 50
90.000000
 51
180.000000
  0
ARC
  8
0
  6
CONTINUOUS
 10
148.477493
 20
117.347496
 40
9.000000
 50
-94.120667
 51
0.000000
  0
ARC
  8
0
  6
CONTINUOUS
 10
147.471603
 20
103.383675
 40
5.000000
 50
85.879799
 51
175.879501
  0
LINE
  8
0
  6
CONTINUOUS
 10
142.484497
 20
103.742958
 11
140.477493
 21
83.039856
  0
ARC
  8
0
  6
CONTINUOUS
 10
147.471603
 20
31.311316
 40
5.000000
 50
-175.879501
 51
-85.879791
  0
ARC
  8
0
  6
CONTINUOUS
 10
148.477493
 20
17.347496
 40
9.000000
 50
0.000000
 51
94.120163
  0
ARC
  8
0
  6
CONTINUOUS
 10
162.477493
 20
17.347496
 40
5.000000
 50
180.000000
 51
270.000000
  0
LINE
  8
0
  6
CONTINUOUS
 10
142.484497
 20
30.952076
 11
140.477402
 21
51.655460
  0
ARC
  8
0
  6
CONTINUOUS
 10
148.477493
 20
117.347496
 40
9.000000
 50
90.000000
 51
175.879898
  0
LINE
  8
0
  6
CONTINUOUS
 10
139.500702
 20
117.994125
 11
137.977493
 21
96.847496
  0
LINE
  8
0
  6
CONTINUOUS
 10
139.500702
 20
16.700935
 11
137.977493
 21
37.847496
  0
ARC
  8
0
  6
CONTINUOUS
 10
148.477493
 20
17.347496
 40
9.000000
 50
-175.879898
 51
-90.000000
  0
ARC
  8
0
  6
CONTINUOUS
 10
142.977493
 20
21.647526
 40
5.000000
 50
143.994797
 51
180.000000
  0
ARC
  8
0
  6
CONTINUOUS
 10
135.977493
 20
13.647496
 40
2.000000
 50
-90.000000
 51
0.000000
  0
LINE
  8
0
  6
CONTINUOUS
 10
137.977493
 20
13.647496
 11
137.977493
 21
21.647526
  0
LINE
  8
0
  6
CONTINUOUS
 10
137.977493
 20
96.847496
 11
137.977493
 21
37.847485
  0
LINE
  8
0
  6
CONTINUOUS
 10
65.477493
 20
91.056793
 11
135.977493
 21
91.056793
  0
LINE
  8
0
  6
CONTINUOUS
 10
65.477493
 20
22.238186
 11
136.477493
 21
22.238186
  0
CIRCLE
  8
0
  6
CONTINUOUS
 10
188.477493
 20
82.347496
 40
23.500000
  0
LINE
  8
0
  6
CONTINUOUS
 10
182.102493
 20
44.900726
 11
182.102493
 21
39.347496
  0
LINE
  8
0
  6
CONTINUOUS
 10
185.289993
 20
46.917812
 11
185.289993
 21
48.910000
  0
LINE
  8
0
  6
CONTINUOUS
 10
191.664993
 20
46.917812
 11
191.664993
 21
48.910000
  0
LINE
  8
0
  6
CONTINUOUS
 10
187.854904
 20
47.739590
 11
187.854904
 21
40.393394
  0
LINE
  8
0
  6
CONTINUOUS
 10
189.050293
 20
47.739590
 11
189.050293
 21
40.393394
  0
LINE
  8
0
  6
CONTINUOUS
 10
195.325607
 20
47.739590
 11
195.325607
 21
40.343597
  0
LINE
  8
0
  6
CONTINUOUS
 10
196.421295
 20
43.817474
 11
196.421295
 21
40.343597
  0
LINE
  8
0
  6
CONTINUOUS
 10
180.589996
 20
47.639980
 11
177.518097
 21
47.639980
  0
LINE
  8
0
  6
CONTINUOUS
 10
177.518097
 20
47.639980
 11
176.798294
 21
46.747486
  0
LINE
  8
0
  6
CONTINUOUS
 10
176.884903
 20
48.910000
 11
175.727493
 21
47.428005
  0
LINE
  8
0
  6
CONTINUOUS
 10
176.798294
 20
41.238426
 11
177.529602
 21
40.468105
  0
LINE
  8
0
  6
CONTINUOUS
 10
175.727493
 20
40.588356
 11
176.957306
 21
39.347496
  0
LINE
  8
0
  6
CONTINUOUS
 10
175.727493
 20
47.428005
 11
175.727493
 21
40.588356
  0
LINE
  8
0
  6
CONTINUOUS
 10
176.798294
 20
46.747486
 11
176.798294
 21
41.238426
  0
LINE
  8
0
  6
CONTINUOUS
 10
181.181107
 20
47.068539
 11
180.577896
 21
47.639980
  0
LINE
  8
0
  6
CONTINUOUS
 10
181.171494
 20
48.910000
 11
182.102493
 21
47.876858
  0
LINE
  8
0
  6
CONTINUOUS
 10
181.181107
 20
46.917812
 11
182.102493
 21
46.917812
  0
LINE
  8
0
  6
CONTINUOUS
 10
176.884903
 20
48.910000
 11
181.171494
 21
48.910000
  0
LINE
  8
0
  6
CONTINUOUS
 10
181.181107
 20
43.854828
 11
179.512695
 21
43.854828
  0
LINE
  8
0
  6
CONTINUOUS
 10
181.181107
 20
42.858734
 11
181.181107
 21
43.655605
  0
LINE
  8
0
  6
CONTINUOUS
 10
179.188904
 20
40.468105
 11
177.529602
 21
40.468105
  0
ARC
  8
0
  6
CONTINUOUS
 10
179.188904
 20
42.460297
 40
1.992187
 50
-89.999786
 51
0.000109
  0
LINE
  8
0
  6
CONTINUOUS
 10
181.181107
 20
40.109764
 11
181.181107
 21
39.347496
  0
LINE
  8
0
  6
CONTINUOUS
 10
182.102493
 20
47.876858
 11
182.102493
 21
46.917812
  0
LINE
  8
0
  6
CONTINUOUS
 10
181.181107
 20
43.854828
 11
181.181107
 21
42.460297
  0
LINE
  8
0
  6
CONTINUOUS
 10
179.512695
 20
44.900726
 11
179.512695
 21
43.854828
  0
LINE
  8
0
  6
CONTINUOUS
 10
181.181107
 20
39.347496
 11
182.102493
 21
39.347496
  0
LINE
  8
0
  6
CONTINUOUS
 10
181.181107
 20
40.109764
 11
180.272598
 21
39.347496
  0
LINE
  8
0
  6
CONTINUOUS
 10
189.050293
 20
40.393394
 11
189.448700
 21
40.393394
  0
LINE
  8
0
  6
CONTINUOUS
 10
187.381805
 20
40.393394
 11
187.381805
 21
39.347496
  0
LINE
  8
0
  6
CONTINUOUS
 10
189.448700
 20
40.393394
 11
189.448700
 21
39.347496
  0
LINE
  8
0
  6
CONTINUOUS
 10
191.000000
 20
46.917812
 11
191.664993
 21
46.917812
  0
LINE
  8
0
  6
CONTINUOUS
 10
185.289993
 20
46.917812
 11
185.997604
 21
46.917812
  0
LINE
  8
0
  6
CONTINUOUS
 10
185.289993
 20
48.910000
 11
191.664993
 21
48.910000
  0
LINE
  8
0
  6
CONTINUOUS
 10
187.381805
 20
39.347496
 11
189.448700
 21
39.347496
  0
LINE
  8
0
  6
CONTINUOUS
 10
187.381805
 20
40.393394
 11
187.854904
 21
40.393394
  0
ARC
  8
0
  6
CONTINUOUS
 10
198.675003
 20
46.357506
 40
2.552490
 50
-73.981873
 51
90.003510
  0
ARC
  8
0
  6
CONTINUOUS
 10
198.675003
 20
46.357506
 40
1.557193
 50
-82.585274
 51
62.411850
  0
LINE
  8
0
  6
CONTINUOUS
 10
194.852493
 20
48.910000
 11
198.675003
 21
48.910000
  0
LINE
  8
0
  6
CONTINUOUS
 10
194.852493
 20
48.910000
 11
194.852493
 21
47.739590
  0
LINE
  8
0
  6
CONTINUOUS
 10
196.421295
 20
47.739590
 11
196.421295
 21
44.813335
  0
LINE
  8
0
  6
CONTINUOUS
 10
199.379395
 20
43.904125
 11
200.959198
 21
40.343597
  0
LINE
  8
0
  6
CONTINUOUS
 10
198.461807
 20
43.817474
 11
199.956894
 21
40.343597
  0
LINE
  8
0
  6
CONTINUOUS
 10
194.852493
 20
40.343597
 11
195.325607
 21
40.343597
  0
LINE
  8
0
  6
CONTINUOUS
 10
196.421295
 20
40.343597
 11
196.857101
 21
40.343597
  0
LINE
  8
0
  6
CONTINUOUS
 10
196.857101
 20
39.347496
 11
194.852493
 21
39.347496
  0
LINE
  8
0
  6
CONTINUOUS
 10
199.758301
 20
40.343597
 11
199.956894
 21
40.343597
  0
LINE
  8
0
  6
CONTINUOUS
 10
200.959198
 20
40.343597
 11
201.227493
 21
40.343597
  0
LINE
  8
0
  6
CONTINUOUS
 10
199.758301
 20
39.347496
 11
201.227493
 21
39.347496
  0
LINE
  8
0
  6
CONTINUOUS
 10
201.227493
 20
40.343597
 11
201.227493
 21
39.347496
  0
LINE
  8
0
  6
CONTINUOUS
 10
199.758301
 20
40.343597
 11
199.758301
 21
39.347496
  0
LINE
  8
0
  6
CONTINUOUS
 10
196.857101
 20
40.343597
 11
196.857101
 21
39.347496
  0
LINE
  8
0
  6
CONTINUOUS
 10
194.852493
 20
40.343597
 11
194.852493
 21
39.347496
  0
LINE
  8
0
  6
CONTINUOUS
 10
186.339996
 20
47.739590
 11
185.997604
 21
46.917812
  0
LINE
  8
0
  6
CONTINUOUS
 10
190.711304
 20
47.739590
 11
191.000000
 21
46.917812
  0
LINE
  8
0
  6
CONTINUOUS
 10
189.050293
 20
47.739590
 11
190.711304
 21
47.739590
  0
LINE
  8
0
  6
CONTINUOUS
 10
187.854904
 20
47.739590
 11
186.339996
 21
47.739590
  0
LINE
  8
0
  6
CONTINUOUS
 10
194.852493
 20
47.739590
 11
195.325607
 21
47.739590
  0
LINE
  8
0
  6
CONTINUOUS
 10
196.421295
 20
47.739590
 11
199.396194
 21
47.737652
  0
LINE
  8
0
  6
CONTINUOUS
 10
181.181107
 20
47.068539
 11
181.181107
 21
46.917812
  0
LINE
  8
0
  6
CONTINUOUS
 10
176.957306
 20
39.347496
 11
180.272598
 21
39.347496
  0
LINE
  8
0
  6
CONTINUOUS
 10
196.421295
 20
44.813335
 11
198.876007
 21
44.813335
  0
LINE
  8
0
  6
CONTINUOUS
 10
196.421295
 20
43.817474
 11
198.461807
 21
43.817474
  0
LINE
  8
0
  6
CONTINUOUS
 10
179.512695
 20
44.900726
 11
182.102493
 21
44.900726
  0
LINE
  8
0
  6
CONTINUOUS
 10
174.477493
 20
121.416298
 11
174.477493
 21
115.868103
  0
LINE
  8
0
  6
CONTINUOUS
 10
202.477493
 20
121.416298
 11
202.477493
 21
115.868118
  0
LINE
  8
0
  6
CONTINUOUS
 10
174.477493
 20
18.826885
 11
174.477493
 21
13.552866
  0
LINE
  8
0
  6
CONTINUOUS
 10
202.477493
 20
18.826885
 11
202.477493
 21
13.552866
  0
LINE
  8
0
  6
CONTINUOUS
 10
193.977493
 20
79.347519
 11
193.977493
 21
85.347519
  0
LINE
  8
0
  6
CONTINUOUS
 10
199.977493
 20
79.347534
 11
199.977493
 21
85.347534
  0
LINE
  8
0
  6
CONTINUOUS
 10
199.977493
 20
79.347534
 11
193.977493
 21
79.347519
  0
LINE
  8
0
  6
CONTINUOUS
 10
199.977493
 20
85.347534
 11
193.977493
 21
85.347519
  0
ARC
  8
0
  6
CONTINUOUS
 10
188.477493
 20
82.347496
 40
9.000000
 50
19.471210
 51
340.528809
  0
LINE
  8
0
  6
CENTER
 10
388.477509
 20
1.647496
 11
388.477509
 21
132.147491
  0
LINE
  8
0
  6
CONTINUOUS
 10
346.477509
 20
104.847488
 11
346.477509
 21
59.847488
  0
LINE
  8
0
  6
CONTINUOUS
 10
425.477509
 20
117.399376
 11
425.477509
 21
17.295576
  0
LINE
  8
0
  6
CENTER
 10
306.977509
 20
82.347496
 11
468.977509
 21
82.347496
  0
LINE
  8
0
  6
CONTINUOUS
 10
350.477509
 20
105.847496
 11
347.477509
 21
105.847496
  0
LINE
  8
0
  6
CONTINUOUS
 10
350.477509
 20
58.847492
 11
347.477509
 21
58.847492
  0
LINE
  8
0
  6
CONTINUOUS
 10
348.942902
 20
126.347496
 11
340.477509
 21
126.347496
  0
LINE
  8
0
  6
CONTINUOUS
 10
348.942902
 20
8.347496
 11
340.477509
 21
8.347496
  0
LINE
  8
0
  6
CONTINUOUS
 10
422.529785
 20
120.398933
 11
352.442596
 21
121.622040
  0
LINE
  8
0
  6
CONTINUOUS
 10
422.529907
 20
14.296046
 11
352.442596
 21
13.072416
  0
LINE
  8
0
  6
CONTINUOUS
 10
423.346497
 20
96.847496
 11
355.643311
 21
96.847496
  0
LINE
  8
0
  6
CONTINUOUS
 10
423.346497
 20
37.847496
 11
353.477509
 21
37.847496
  0
ARC
  8
0
  6
CONTINUOUS
 10
422.477509
 20
117.399376
 40
3.000000
 50
0.000000
 51
89.000359
  0
ARC
  8
0
  6
CONTINUOUS
 10
422.477509
 20
17.295576
 40
3.000000
 50
-88.999687
 51
0.000000
  0
ARC
  8
0
  6
CONTINUOUS
 10
353.477509
 20
34.847515
 40
3.000000
 50
90.000000
 51
180.000000
  0
LINE
  8
0
  6
CENTER
 10
335.415009
 20
17.347496
 11
355.165009
 21
17.347496
  0
LINE
  8
0
  6
CENTER
 10
337.165009
 20
117.347496
 11
354.165009
 21
117.347496
  0
LINE
  8
0
  6
DASHED
 10
340.477509
 20
113.097496
 11
350.477509
 21
113.097496
  0
LINE
  8
0
  6
DASHED
 10
340.477509
 20
121.597496
 11
350.477509
 21
121.597496
  0
LINE
  8
0
  6
DASHED
 10
340.477509
 20
21.597496
 11
350.477509
 21
21.597496
  0
LINE
  8
0
  6
DASHED
 10
340.477509
 20
13.097496
 11
350.477509
 21
13.097496
  0
LINE
  8
0
  6
CONTINUOUS
 10
362.477509
 20
11.647496
 11
414.477509
 21
11.647496
  0
ARC
  8
0
  6
CONTINUOUS
 10
414.477509
 20
14.647496
 40
3.000000
 50
270.000000
 51
351.561890
  0
ARC
  8
0
  6
CONTINUOUS
 10
362.477509
 20
14.647496
 40
3.000000
 50
208.811905
 51
270.000000
  0
ARC
  8
0
  6
CONTINUOUS
 10
347.477509
 20
59.847492
 40
1.000000
 50
180.000000
 51
270.000000
  0
ARC
  8
0
  6
CONTINUOUS
 10
347.477509
 20
104.847488
 40
1.000000
 50
90.000000
 51
180.000000
  0
ARC
  8
0
  6
CONTINUOUS
 10
388.477509
 20
56.647495
 40
45.000000
 50
-34.692108
 51
20.421860
  0
LINE
  8
0
  6
CONTINUOUS
 10
430.477509
 20
104.847488
 11
430.477509
 21
59.847488
  0
LINE
  8
0
  6
CONTINUOUS
 10
427.477509
 20
105.847496
 11
429.477509
 21
105.847496
  0
LINE
  8
0
  6
CONTINUOUS
 10
427.477509
 20
58.847492
 11
429.477509
 21
58.847492
  0
ARC
  8
0
  6
CONTINUOUS
 10
427.477509
 20
107.847496
 40
2.000000
 50
180.000000
 51
270.000000
  0
ARC
  8
0
  6
CONTINUOUS
 10
427.477509
 20
56.847504
 40
2.000000
 50
90.000000
 51
180.000000
  0
ARC
  8
0
  6
CONTINUOUS
 10
429.477509
 20
59.847492
 40
1.000000
 50
-90.000000
 51
0.000000
  0
ARC
  8
0
  6
CONTINUOUS
 10
429.477509
 20
104.847488
 40
1.000000
 50
0.000000
 51
90.000000
  0
LINE
  8
0
  6
CONTINUOUS
 10
340.477509
 20
110.063614
 11
347.915009
 21
109.084999
  0
LINE
  8
0
  6
CONTINUOUS
 10
347.915009
 20
109.084999
 11
352.915009
 21
105.834999
  0
LINE
  8
0
  6
CONTINUOUS
 10
355.829102
 20
96.419998
 11
357.290009
 21
95.459999
  0
LINE
  8
0
  6
CONTINUOUS
 10
357.290009
 20
95.459999
 11
356.790009
 21
89.459999
  0
LINE
  8
0
  6
CONTINUOUS
 10
356.790009
 20
89.459999
 11
354.790009
 21
85.959999
  0
LINE
  8
0
  6
CONTINUOUS
 10
354.790009
 20
85.959999
 11
356.665009
 21
80.459999
  0
LINE
  8
0
  6
CONTINUOUS
 10
356.665009
 20
80.459999
 11
356.040009
 21
74.709999
  0
LINE
  8
0
  6
CONTINUOUS
 10
356.040009
 20
74.709999
 11
355.415009
 21
68.459999
  0
LINE
  8
0
  6
CONTINUOUS
 10
355.415009
 20
68.459999
 11
356.540009
 21
63.834995
  0
LINE
  8
0
  6
CONTINUOUS
 10
356.540009
 20
63.834995
 11
355.415009
 21
59.584995
  0
LINE
  8
0
  6
CONTINUOUS
 10
355.415009
 20
59.584995
 11
352.165009
 21
54.709995
  0
LINE
  8
0
  6
CONTINUOUS
 10
352.165009
 20
54.709995
 11
347.665009
 21
52.709995
  0
LINE
  8
0
  6
CONTINUOUS
 10
347.665009
 20
52.709995
 11
343.415009
 21
50.084995
  0
LINE
  8
0
  6
CONTINUOUS
 10
343.415009
 20
50.084995
 11
340.477509
 21
49.688038
  0
LINE
  8
0
  6
CONTINUOUS
 10
352.915009
 20
105.834999
 11
353.665009
 21
101.397499
  0
LINE
  8
0
  6
CONTINUOUS
 10
353.665009
 20
101.397499
 11
355.829102
 21
96.419998
  0
LINE
  8
0
  6
CONTINUOUS
 10
350.477509
 20
124.347496
 11
350.477509
 21
53.959995
  0
LINE
  8
0
  6
CONTINUOUS
 10
350.477509
 20
10.347496
 11
350.477509
 21
34.847507
  0
LINE
  8
0
  6
CONTINUOUS
 10
340.477509
 20
126.347496
 11
340.477509
 21
91.347496
  0
LINE
  8
0
  6
CONTINUOUS
 10
340.477509
 20
8.347496
 11
340.477509
 21
73.347496
  0
LINE
  8
0
  6
CENTER
 10
334.772888
 20
56.647495
 11
440.482391
 21
56.647495
  0
LINE
  8
0
  6
CONTINUOUS
 10
350.874695
 20
124.865135
 11
351.155304
 21
123.817909
  0
ARC
  8
0
  6
CONTINUOUS
 10
348.477509
 20
124.347488
 40
2.000000
 50
0.000000
 51
90.000000
  0
ARC
  8
0
  6
CONTINUOUS
 10
348.942902
 20
124.347488
 40
2.000000
 50
15.000290
 51
90.000000
  0
ARC
  8
0
  6
CONTINUOUS
 10
352.477509
 20
123.621742
 40
2.000000
 50
180.000000
 51
269.000610
  0
ARC
  8
0
  6
CONTINUOUS
 10
354.053101
 20
124.594406
 40
3.000000
 50
195.000504
 51
269.000488
  0
LINE
  8
0
  6
CONTINUOUS
 10
350.874695
 20
9.829856
 11
351.164795
 21
10.912766
  0
ARC
  8
0
  6
CONTINUOUS
 10
348.477509
 20
10.347486
 40
2.000000
 50
-90.000000
 51
0.000000
  0
ARC
  8
0
  6
CONTINUOUS
 10
348.942902
 20
10.347496
 40
2.000000
 50
270.000000
 51
345.000000
  0
ARC
  8
0
  6
CONTINUOUS
 10
352.477509
 20
11.072726
 40
2.000000
 50
91.000633
 51
180.000000
  0
ARC
  8
0
  6
CONTINUOUS
 10
354.065887
 20
10.100306
 40
3.000000
 50
91.000526
 51
164.352097
  0
LINE
  8
0
  6
CONTINUOUS
 10
435.477509
 20
30.546986
 11
435.477509
 21
73.347496
  0
LINE
  8
0
  6
CONTINUOUS
 10
414.578003
 20
9.647496
 11
362.377014
 21
9.647496
  0
LINE
  8
0
  6
CONTINUOUS
 10
357.427185
 20
11.697736
 11
355.977509
 21
13.147486
  0
ARC
  8
0
  6
CONTINUOUS
 10
362.377014
 20
16.647495
 40
7.000000
 50
225.000107
 51
270.000000
  0
ARC
  8
0
  6
CONTINUOUS
 10
414.578003
 20
16.647495
 40
7.000000
 50
270.000000
 51
315.000092
  0
ARC
  8
0
  6
CONTINUOUS
 10
428.477509
 20
30.546976
 40
7.000000
 50
-44.999882
 51
0.000000
  0
LINE
  8
0
  6
CONTINUOUS
 10
433.427185
 20
25.597246
 11
425.477509
 21
17.647495
  0
LINE
  8
0
  6
CONTINUOUS
 10
419.527802
 20
11.697746
 11
422.118896
 21
14.288866
  0
LINE
  8
0
  6
CONTINUOUS
 10
462.477509
 20
73.347496
 11
462.477509
 21
91.347496
  0
LINE
  8
0
  6
CONTINUOUS
 10
432.477509
 20
91.347496
 11
462.477509
 21
91.347496
  0
LINE
  8
0
  6
CONTINUOUS
 10
432.477509
 20
73.347496
 11
462.477509
 21
73.347496
  0
LINE
  8
0
  6
CONTINUOUS
 10
432.477509
 20
92.347496
 11
432.477509
 21
72.347496
  0
LINE
  8
0
  6
CONTINUOUS
 10
430.477509
 20
92.347496
 11
432.477509
 21
92.347496
  0
LINE
  8
0
  6
CONTINUOUS
 10
430.477509
 20
72.347496
 11
432.477509
 21
72.347496
  0
ARC
  8
0
  6
CONTINUOUS
 10
438.477509
 20
82.347496
 40
3.000000
 50
90.000000
 51
270.000000
  0
LINE
  8
0
  6
CONTINUOUS
 10
438.477509
 20
85.347496
 11
462.477509
 21
85.347496
  0
LINE
  8
0
  6
CONTINUOUS
 10
438.477509
 20
79.347496
 11
462.477509
 21
79.347496
  0
LINE
  8
0
  6
CONTINUOUS
 10
314.477509
 20
73.347496
 11
314.477509
 21
91.347496
  0
LINE
  8
0
  6
CONTINUOUS
 10
344.477509
 20
91.347496
 11
314.477509
 21
91.347496
  0
LINE
  8
0
  6
CONTINUOUS
 10
344.477509
 20
73.347496
 11
314.477509
 21
73.347496
  0
LINE
  8
0
  6
CONTINUOUS
 10
344.477509
 20
92.347496
 11
344.477509
 21
72.347496
  0
LINE
  8
0
  6
CONTINUOUS
 10
346.477509
 20
92.347496
 11
344.477509
 21
92.347496
  0
LINE
  8
0
  6
CONTINUOUS
 10
346.477509
 20
72.347496
 11
344.477509
 21
72.347496
  0
ARC
  8
0
  6
CONTINUOUS
 10
338.477509
 20
82.347496
 40
3.000000
 50
-90.000000
 51
90.000000
  0
LINE
  8
0
  6
CONTINUOUS
 10
338.477509
 20
85.347496
 11
314.477509
 21
85.347496
  0
LINE
  8
0
  6
CONTINUOUS
 10
338.477509
 20
79.347496
 11
314.477509
 21
79.347496
  0
LINE
  8
0
  6
CENTER
 10
188.477493
 20
345.954071
 11
188.477493
 21
184.783432
  0
LINE
  8
0
  6
CENTER
 10
-6.770937
 20
265.076569
 11
252.618744
 21
265.076569
  0
LINE
  8
0
  6
CONTINUOUS
 10
234.803391
 20
302.076569
 11
139.925812
 21
302.076569
  0
LINE
  8
0
  6
CONTINUOUS
 10
137.768082
 20
294.079315
 11
137.926498
 21
300.128906
  0
LINE
  8
0
  6
CONTINUOUS
 10
135.819702
 20
310.076569
 11
65.477501
 21
310.076569
  0
LINE
  8
0
  6
CONTINUOUS
 10
65.477501
 20
294.076569
 11
144.820053
 21
294.076569
  0
LINE
  8
0
  6
CONTINUOUS
 10
65.477501
 20
236.076569
 11
136.094376
 21
236.076569
  0
LINE
  8
0
  6
CONTINUOUS
 10
135.950623
 20
220.076569
 11
65.477501
 21
220.076569
  0
LINE
  8
0
  6
CONTINUOUS
 10
136.720581
 20
265.076569
 11
137.977493
 21
217.076569
  0
LINE
  8
0
  6
CONTINUOUS
 10
171.477493
 20
297.076569
 11
171.477493
 21
229.076569
  0
LINE
  8
0
  6
CONTINUOUS
 10
205.477493
 20
297.076569
 11
205.477493
 21
229.076569
  0
LINE
  8
0
  6
CONTINUOUS
 10
144.820053
 20
292.076569
 11
144.820053
 21
228.611557
  0
LINE
  8
0
  6
CONTINUOUS
 10
210.977509
 20
307.076569
 11
165.977493
 21
307.076569
  0
LINE
  8
0
  6
CONTINUOUS
 10
164.977493
 20
306.076569
 11
164.977493
 21
304.076569
  0
LINE
  8
0
  6
CONTINUOUS
 10
211.977509
 20
306.076569
 11
211.977509
 21
304.076569
  0
ARC
  8
0
  6
CONTINUOUS
 10
162.977493
 20
304.076569
 40
2.000000
 50
-90.000000
 51
0.000000
  0
ARC
  8
0
  6
CONTINUOUS
 10
213.977493
 20
304.076569
 40
2.000000
 50
180.000000
 51
270.000000
  0
ARC
  8
0
  6
CONTINUOUS
 10
165.977509
 20
306.076569
 40
1.000000
 50
90.000000
 51
180.000000
  0
ARC
  8
0
  6
CONTINUOUS
 10
210.977509
 20
306.076569
 40
1.000000
 50
0.000000
 51
90.000000
  0
LINE
  8
0
  6
CONTINUOUS
 10
199.977493
 20
339.076569
 11
179.477493
 21
339.076569
  0
LINE
  8
0
  6
CONTINUOUS
 10
179.477493
 20
309.076569
 11
179.477493
 21
339.076569
  0
LINE
  8
0
  6
CONTINUOUS
 10
197.477493
 20
309.076569
 11
197.477493
 21
312.076569
  0
LINE
  8
0
  6
CONTINUOUS
 10
178.477493
 20
309.076569
 11
198.477493
 21
309.076569
  0
LINE
  8
0
  6
CONTINUOUS
 10
178.477493
 20
307.076569
 11
178.477493
 21
309.076569
  0
LINE
  8
0
  6
CONTINUOUS
 10
198.477493
 20
307.076569
 11
198.477493
 21
309.076569
  0
LINE
  8
0
  6
CONTINUOUS
 10
199.977493
 20
339.076569
 11
199.977493
 21
312.076569
  0
LINE
  8
0
  6
CONTINUOUS
 10
199.977493
 20
312.076569
 11
196.962494
 21
312.076569
  0
LINE
  8
0
  6
CONTINUOUS
 10
196.962494
 20
339.076569
 11
196.962494
 21
312.076569
  0
LINE
  8
0
  6
CONTINUOUS
 10
199.977493
 20
191.076569
 11
179.477493
 21
191.076569
  0
LINE
  8
0
  6
CONTINUOUS
 10
179.477493
 20
217.076569
 11
179.477493
 21
191.076569
  0
LINE
  8
0
  6
CONTINUOUS
 10
199.977493
 20
191.076569
 11
199.977493
 21
217.076569
  0
LINE
  8
0
  6
CONTINUOUS
 10
196.962494
 20
191.076569
 11
196.962494
 21
217.076569
  0
LINE
  8
0
  6
CONTINUOUS
 10
137.977493
 20
217.076569
 11
238.977493
 21
217.076569
  0
LINE
  8
0
  6
CONTINUOUS
 10
236.802704
 20
300.128906
 11
238.977493
 21
217.076569
  0
LINE
  8
0
  6
CONTINUOUS
 10
139.768692
 20
227.076569
 11
236.767334
 21
227.076569
  0
ARC
  8
0
  6
CONTINUOUS
 10
236.767334
 20
225.076569
 40
2.000000
 50
1.500000
 51
90.000000
  0
ARC
  8
0
  6
CONTINUOUS
 10
234.803391
 20
300.076569
 40
2.000000
 50
1.500000
 51
90.000000
  0
ARC
  8
0
  6
CONTINUOUS
 10
207.477493
 20
229.076569
 40
2.000000
 50
180.000000
 51
270.000000
  0
ARC
  8
0
  6
CONTINUOUS
 10
169.477493
 20
229.076569
 40
2.000000
 50
-90.000000
 51
0.000000
  0
LINE
  8
0
  6
CONTINUOUS
 10
171.335571
 20
228.336563
 11
205.619431
 21
228.336563
  0
ARC
  8
0
  6
CONTINUOUS
 10
139.768692
 20
225.076569
 40
2.000000
 50
90.000000
 51
181.500000
  0
ARC
  8
0
  6
CONTINUOUS
 10
135.950623
 20
218.076569
 40
2.000000
 50
1.500000
 51
90.000000
  0
LINE
  8
0
  6
CONTINUOUS
 10
137.819016
 20
308.128906
 11
137.926498
 21
304.024200
  0
ARC
  8
0
  6
CONTINUOUS
 10
135.819702
 20
308.076569
 40
2.000000
 50
1.500000
 51
90.000000
  0
ARC
  8
0
  6
CONTINUOUS
 10
139.925812
 20
304.076569
 40
2.000000
 50
181.500000
 51
270.000000
  0
ARC
  8
0
  6
CONTINUOUS
 10
139.925812
 20
300.076569
 40
2.000000
 50
90.000000
 51
178.500000
  0
LINE
  8
0
  6
CENTER
 10
228.477493
 20
209.387970
 11
228.477493
 21
233.250626
  0
LINE
  8
0
  6
DASHED
 10
232.727493
 20
227.076569
 11
232.727493
 21
217.076569
  0
LINE
  8
0
  6
DASHED
 10
224.227493
 20
227.076569
 11
224.227493
 21
217.076569
  0
LINE
  8
0
  6
CENTER
 10
148.477493
 20
209.387970
 11
148.477493
 21
233.250626
  0
LINE
  8
0
  6
DASHED
 10
144.227493
 20
227.076569
 11
144.227493
 21
217.076569
  0
LINE
  8
0
  6
DASHED
 10
152.727493
 20
227.076569
 11
152.727493
 21
217.076569
  0
LINE
  8
0
  6
CONTINUOUS
 10
55.977501
 20
310.076569
 11
65.477501
 21
310.076569
  0
LINE
  8
0
  6
CONTINUOUS
 10
65.477501
 20
294.076569
 11
55.977501
 21
294.076569
  0
LINE
  8
0
  6
CONTINUOUS
 10
55.977501
 20
220.076569
 11
65.477501
 21
220.076569
  0
LINE
  8
0
  6
CONTINUOUS
 10
65.477501
 20
220.076569
 11
65.477501
 21
258.210541
  0
LINE
  8
0
  6
CONTINUOUS
 10
65.477501
 20
236.076569
 11
55.977501
 21
236.076569
  0
LINE
  8
0
  6
CONTINUOUS
 10
58.977501
 20
259.076569
 11
58.977501
 21
271.076569
  0
LINE
  8
0
  6
CONTINUOUS
 10
65.977501
 20
259.076569
 11
65.977501
 21
271.076569
  0
LINE
  8
0
  6
CONTINUOUS
 10
59.977501
 20
272.076569
 11
64.977501
 21
272.076569
  0
LINE
  8
0
  6
CONTINUOUS
 10
64.977501
 20
258.076569
 11
59.977501
 21
258.076569
  0
ARC
  8
0
  6
CONTINUOUS
 10
64.977501
 20
271.076569
 40
1.000000
 50
0.000000
 51
90.000000
  0
ARC
  8
0
  6
CONTINUOUS
 10
59.977501
 20
271.076569
 40
1.000000
 50
90.000000
 51
180.000000
  0
ARC
  8
0
  6
CONTINUOUS
 10
59.977501
 20
259.076569
 40
1.000000
 50
180.000000
 51
270.000000
  0
ARC
  8
0
  6
CONTINUOUS
 10
64.977501
 20
259.076569
 40
1.000000
 50
-90.000000
 51
0.000000
  0
LINE
  8
0
  6
CONTINUOUS
 10
63.477501
 20
261.576569
 11
63.477501
 21
268.576569
  0
LINE
  8
0
  6
CONTINUOUS
 10
61.477501
 20
261.576569
 11
61.477501
 21
268.576569
  0
ARC
  8
0
  6
CONTINUOUS
 10
62.477501
 20
268.576569
 40
1.000000
 50
90.000000
 51
180.000000
  0
ARC
  8
0
  6
CONTINUOUS
 10
62.477501
 20
268.576569
 40
1.000000
 50
0.000000
 51
90.000000
  0
ARC
  8
0
  6
CONTINUOUS
 10
62.477501
 20
261.576569
 40
1.000000
 50
180.000000
 51
270.000000
  0
ARC
  8
0
  6
CONTINUOUS
 10
62.477501
 20
261.576569
 40
1.000000
 50
-90.000000
 51
0.000000
  0
LINE
  8
0
  6
CONTINUOUS
 10
65.477501
 20
271.942596
 11
65.477501
 21
310.076569
  0
LINE
  8
0
  6
CONTINUOUS
 10
55.977501
 20
312.076569
 11
55.977501
 21
218.076569
  0
LINE
  8
0
  6
CONTINUOUS
 10
55.977501
 20
294.076569
 11
12.002470
 21
294.076569
  0
LINE
  8
0
  6
CONTINUOUS
 10
55.977501
 20
236.076569
 11
12.002470
 21
236.076569
  0
LINE
  8
0
  6
CONTINUOUS
 10
13.477480
 20
312.076569
 11
55.977501
 21
312.076569
  0
LINE
  8
0
  6
CONTINUOUS
 10
13.477480
 20
218.076569
 11
55.977501
 21
218.076569
  0
ARC
  8
0
  6
CONTINUOUS
 10
13.477510
 20
307.076569
 40
5.000000
 50
90.000000
 51
180.000000
  0
ARC
  8
0
  6
CONTINUOUS
 10
13.477480
 20
223.076569
 40
5.000000
 50
180.000000
 51
270.000000
  0
LINE
  8
0
  6
CONTINUOUS
 10
8.477510
 20
307.076569
 11
8.477480
 21
223.076553
  0
ARC
  8
0
  6
CONTINUOUS
 10
55.977501
 20
225.806717
 40
4.500000
 50
0.000000
 51
90.000000
  0
ARC
  8
0
  6
CONTINUOUS
 10
55.977501
 20
225.806717
 40
3.000000
 50
0.000000
 51
90.000000
  0
ARC
  8
0
  6
CONTINUOUS
 10
55.977501
 20
225.806717
 40
1.500000
 50
0.000000
 51
90.000000
  0
LINE
  8
0
  6
CONTINUOUS
 10
57.477501
 20
225.806717
 11
57.477501
 21
220.791122
  0
LINE
  8
0
  6
CONTINUOUS
 10
58.977501
 20
225.806717
 11
58.977501
 21
221.306717
  0
LINE
  8
0
  6
CONTINUOUS
 10
60.477501
 20
225.806717
 11
60.477501
 21
221.306717
  0
LINE
  8
0
  6
CONTINUOUS
 10
57.477501
 20
220.806717
 11
58.977501
 21
221.306717
  0
LINE
  8
0
  6
CONTINUOUS
 10
58.977501
 20
221.806717
 11
60.477501
 21
221.306717
  0
ARC
  8
0
  6
CONTINUOUS
 10
55.977489
 20
85.176895
 40
4.500000
 50
0.000000
 51
90.000000
  0
ARC
  8
0
  6
CONTINUOUS
 10
55.977489
 20
85.176895
 40
3.000000
 50
0.000000
 51
90.000000
  0
ARC
  8
0
  6
CONTINUOUS
 10
55.977489
 20
85.176895
 40
1.500000
 50
0.000000
 51
90.000000
  0
LINE
  8
0
  6
CONTINUOUS
 10
57.477489
 20
85.176895
 11
57.477489
 21
80.161293
  0
LINE
  8
0
  6
CONTINUOUS
 10
58.977489
 20
85.176895
 11
58.977489
 21
80.676895
  0
LINE
  8
0
  6
CONTINUOUS
 10
60.477489
 20
85.176895
 11
60.477489
 21
80.676895
  0
LINE
  8
0
  6
CONTINUOUS
 10
57.477489
 20
80.176895
 11
58.977489
 21
80.676895
  0
LINE
  8
0
  6
CONTINUOUS
 10
58.977489
 20
81.176895
 11
60.477489
 21
80.676895
  0
TEXT
  8
0
 10
-6.000000
 20
-1.000000
 40
4.000000
 41
1.000000
  1
HFMN-18T-10~240-S90
 50
0.000000
  0
ENDSEC
  0
EOF
