  0
SECTION
  2
HEADER
  9
$ACADVER
  1
AC1014
  9
$ACADMAINTVER
 70
     9
  9
$DWGCODEPAGE
  3
ANSI_932
  9
$INSBASE
 10
0.0
 20
0.0
 30
0.0
  9
$EXTMIN
 10
39.05840587005036
 20
41.49747438122855
 30
0.0
  9
$EXTMAX
 10
513.0584198700476
 20
422.2265473812285
 30
0.0
  9
$LIMMIN
 10
0.0
 20
0.0
  9
$LIMMAX
 10
297.0
 20
210.0
  9
$ORTHOMODE
 70
     1
  9
$REGENMODE
 70
     1
  9
$FILLMODE
 70
     1
  9
$QTEXTMODE
 70
     0
  9
$MIRRTEXT
 70
     0
  9
$DRAGMODE
 70
     2
  9
$LTSCALE
 40
2.0
  9
$OSMODE
 70
    37
  9
$ATTMODE
 70
     1
  9
$TEXTSIZE
 40
2.0
  9
$TRACEWID
 40
1.0
  9
$TEXTSTYLE
  7
STANDARD
  9
$CLAYER
  8
0
  9
$CELTYPE
  6
BYLAYER
  9
$CECOLOR
 62
   256
  9
$CELTSCALE
 40
1.0
  9
$DELOBJ
 70
     1
  9
$DISPSILH
 70
     0
  9
$DIMSCALE
 40
2.0
  9
$DIMASZ
 40
1.8
  9
$DIMEXO
 40
0.625
  9
$DIMDLI
 40
3.75
  9
$DIMRND
 40
0.0
  9
$DIMDLE
 40
0.0
  9
$DIMEXE
 40
0.8
  9
$DIMTP
 40
0.0
  9
$DIMTM
 40
0.0
  9
$DIMTXT
 40
1.8
  9
$DIMCEN
 40
2.5
  9
$DIMTSZ
 40
0.0
  9
$DIMTOL
 70
     0
  9
$DIMLIM
 70
     0
  9
$DIMTIH
 70
     0
  9
$DIMTOH
 70
     0
  9
$DIMSE1
 70
     0
  9
$DIMSE2
 70
     0
  9
$DIMTAD
 70
     1
  9
$DIMZIN
 70
     8
  9
$DIMBLK
  1

  9
$DIMASO
 70
     1
  9
$DIMSHO
 70
     1
  9
$DIMPOST
  1

  9
$DIMAPOST
  1

  9
$DIMALT
 70
     0
  9
$DIMALTD
 70
     4
  9
$DIMALTF
 40
0.0394
  9
$DIMLFAC
 40
1.0
  9
$DIMTOFL
 70
     1
  9
$DIMTVP
 40
0.0
  9
$DIMTIX
 70
     0
  9
$DIMSOXD
 70
     0
  9
$DIMSAH
 70
     0
  9
$DIMBLK1
  1

  9
$DIMBLK2
  1

  9
$DIMSTYLE
  2
STANDARD
  9
$DIMCLRD
 70
     0
  9
$DIMCLRE
 70
     0
  9
$DIMCLRT
 70
     0
  9
$DIMTFAC
 40
1.0
  9
$DIMGAP
 40
0.75
  9
$DIMJUST
 70
     0
  9
$DIMSD1
 70
     0
  9
$DIMSD2
 70
     0
  9
$DIMTOLJ
 70
     1
  9
$DIMTZIN
 70
     0
  9
$DIMALTZ
 70
     0
  9
$DIMALTTZ
 70
     0
  9
$DIMFIT
 70
     3
  9
$DIMUPT
 70
     0
  9
$DIMUNIT
 70
     8
  9
$DIMDEC
 70
     2
  9
$DIMTDEC
 70
     2
  9
$DIMALTU
 70
     8
  9
$DIMALTTD
 70
     4
  9
$DIMTXSTY
  7
STANDARD
  9
$DIMAUNIT
 70
     0
  9
$LUNITS
 70
     2
  9
$LUPREC
 70
     3
  9
$SKETCHINC
 40
1.0
  9
$FILLETRAD
 40
10.0
  9
$AUNITS
 70
     0
  9
$AUPREC
 70
     2
  9
$MENU
  1
.
  9
$ELEVATION
 40
0.0
  9
$PELEVATION
 40
0.0
  9
$THICKNESS
 40
0.0
  9
$LIMCHECK
 70
     0
  9
$BLIPMODE
 70
     0
  9
$CHAMFERA
 40
0.0
  9
$CHAMFERB
 40
0.0
  9
$CHAMFERC
 40
20.0
  9
$CHAMFERD
 40
0.0
  9
$SKPOLY
 70
     0
  9
$TDCREATE
 40
2453754.486174583
  9
$TDUPDATE
 40
2453832.461585104
  9
$TDINDWG
 40
0.2071400810
  9
$TDUSRTIMER
 40
0.2071400810
  9
$USRTIMER
 70
     1
  9
$ANGBASE
 50
0.0
  9
$ANGDIR
 70
     0
  9
$PDMODE
 70
     0
  9
$PDSIZE
 40
-10.0
  9
$PLINEWID
 40
0.0
  9
$COORDS
 70
     0
  9
$SPLFRAME
 70
     0
  9
$SPLINETYPE
 70
     6
  9
$SPLINESEGS
 70
     8
  9
$ATTDIA
 70
     0
  9
$ATTREQ
 70
     1
  9
$HANDLING
 70
-16383
  9
$HANDSEED
  5
1B21
  9
$SURFTAB1
 70
     6
  9
$SURFTAB2
 70
     6
  9
$SURFTYPE
 70
     6
  9
$SURFU
 70
     6
  9
$SURFV
 70
     6
  9
$UCSNAME
  2

  9
$UCSORG
 10
0.0
 20
0.0
 30
0.0
  9
$UCSXDIR
 10
1.0
 20
0.0
 30
0.0
  9
$UCSYDIR
 10
0.0
 20
1.0
 30
0.0
  9
$PUCSNAME
  2

  9
$PUCSORG
 10
0.0
 20
0.0
 30
0.0
  9
$PUCSXDIR
 10
1.0
 20
0.0
 30
0.0
  9
$PUCSYDIR
 10
0.0
 20
1.0
 30
0.0
  9
$USERI1
 70
     0
  9
$USERI2
 70
     0
  9
$USERI3
 70
     0
  9
$USERI4
 70
     0
  9
$USERI5
 70
     0
  9
$USERR1
 40
0.0
  9
$USERR2
 40
0.0
  9
$USERR3
 40
0.0
  9
$USERR4
 40
0.0
  9
$USERR5
 40
0.0
  9
$WORLDVIEW
 70
     1
  9
$SHADEDGE
 70
     3
  9
$SHADEDIF
 70
    70
  9
$TILEMODE
 70
     1
  9
$MAXACTVP
 70
    48
  9
$PINSBASE
 10
0.0
 20
0.0
 30
0.0
  9
$PLIMCHECK
 70
     0
  9
$PEXTMIN
 10
0.0
 20
0.0
 30
0.0
  9
$PEXTMAX
 10
0.0
 20
0.0
 30
0.0
  9
$PLIMMIN
 10
0.0
 20
0.0
  9
$PLIMMAX
 10
12.0
 20
9.0
  9
$UNITMODE
 70
     0
  9
$VISRETAIN
 70
     1
  9
$PLINEGEN
 70
     0
  9
$PSLTSCALE
 70
     1
  9
$TREEDEPTH
 70
  3020
  9
$PICKSTYLE
 70
     1
  9
$CMLSTYLE
  2
STANDARD
  9
$CMLJUST
 70
     0
  9
$CMLSCALE
 40
1.0
  9
$PROXYGRAPHICS
 70
     1
  9
$MEASUREMENT
 70
     0
  0
ENDSEC
  0
SECTION
  2
CLASSES
  0
CLASS
  1
DICTIONARYVAR
  2
AcDbDictionaryVar
  3
AutoCAD 2000
 90
        0
280
     0
281
     0
  0
CLASS
  1
ACDBDICTIONARYWDFLT
  2
AcDbDictionaryWithDefault
  3
AutoCAD 2000
 90
        0
280
     0
281
     0
  0
CLASS
  1
ACDBPLACEHOLDER
  2
AcDbPlaceHolder
  3
AutoCAD 2000
 90
        0
280
     0
281
     0
  0
CLASS
  1
LAYOUT
  2
AcDbLayout
  3
AutoCAD 2000
 90
        0
280
     0
281
     0
  0
CLASS
  1
LONG_TRANSACTION
  2
AcDbLongTransaction
  3
AutoCAD 2000
 90
        0
280
     0
281
     0
  0
CLASS
  1
LWPOLYLINE
  2
AcDbPolyline
  3
AutoCAD 2000
 90
        0
280
     0
281
     1
  0
CLASS
  1
HATCH
  2
AcDbHatch
  3
AutoCAD 2000
 90
        0
280
     0
281
     1
  0
CLASS
  1
XRECORD
  2
AcDbXrecord
  3
AutoCAD 2000
 90
        0
280
     0
281
     0
  0
ENDSEC
  0
SECTION
  2
TABLES
  0
TABLE
  2
VPORT
  5
6E
330
0
100
AcDbSymbolTable
 70
     2
  0
VPORT
  5
1AFB
330
6E
100
AcDbSymbolTableRecord
100
AcDbViewportTableRecord
  2
*ACTIVE
 70
     0
 10
0.0
 20
0.0
 11
1.0
 21
1.0
 12
274.6787273212189
 22
221.4511314498443
 13
0.0
 23
0.0
 14
10.0
 24
10.0
 15
10.0
 25
10.0
 16
0.0
 26
0.0
 36
1.0
 17
0.0
 27
0.0
 37
0.0
 40
405.029108539253
 41
1.566970091027308
 42
50.0
 43
0.0
 44
0.0
 50
0.0
 51
0.0
 71
     0
 72
   100
 73
     1
 74
     3
 75
     0
 76
     0
 77
     0
 78
     0
  0
ENDTAB
  0
TABLE
  2
LTYPE
  5
69
330
0
100
AcDbSymbolTable
 70
     3
  0
LTYPE
  5
6A
330
69
100
AcDbSymbolTableRecord
100
AcDbLinetypeTableRecord
  2
BYBLOCK
 70
     0
  3

 72
    65
 73
     0
 40
0.0
  0
LTYPE
  5
6B
330
69
100
AcDbSymbolTableRecord
100
AcDbLinetypeTableRecord
  2
BYLAYER
 70
     0
  3

 72
    65
 73
     0
 40
0.0
  0
LTYPE
  5
8
330
69
100
AcDbSymbolTableRecord
100
AcDbLinetypeTableRecord
  2
CONTINUOUS
 70
     0
  3
Solid line
 72
    65
 73
     0
 40
0.0
  0
LTYPE
  5
27C
330
69
100
AcDbSymbolTableRecord
100
AcDbLinetypeTableRecord
  2
SEKKEI_A2_
 70
     0
  3
center(A2)  ____ _ ____ _ ____ _ ____ _ ____ _ 
 72
    65
 73
     4
 40
14.28749999999999
 49
9.525
 74
     0
 49
-1.587499999999999
 74
     0
 49
1.587499999999999
 74
     0
 49
-1.587499999999999
 74
     0
  0
LTYPE
  5
2B4
330
69
100
AcDbSymbolTableRecord
100
AcDbLinetypeTableRecord
  2
HIDDEN2
 70
     0
  3
Hidden (.5x) _ _ _ _ _ _ _ _ _ _ _ _ _ _ _ _ _
 72
    65
 73
     2
 40
4.762499999999999
 49
3.174999999999999
 74
     0
 49
-1.587499999999999
 74
     0
  0
ENDTAB
  0
TABLE
  2
LAYER
  5
66
330
0
100
AcDbSymbolTable
 70
     9
  0
LAYER
  5
5E
330
66
100
AcDbSymbolTableRecord
100
AcDbLayerTableRecord
  2
0
 70
     0
 62
     7
  6
CONTINUOUS
  0
LAYER
  5
3E
330
66
100
AcDbSymbolTableRecord
100
AcDbLayerTableRecord
  2
CENTER
 70
     0
 62
     3
  6
SEKKEI_A2_
  0
LAYER
  5
2B5
330
66
100
AcDbSymbolTableRecord
100
AcDbLayerTableRecord
  2
HIDS
 70
     0
 62
     1
  6
HIDDEN2
  0
LAYER
  5
2BA
330
66
100
AcDbSymbolTableRecord
100
AcDbLayerTableRecord
  2
HOJO
 70
     0
 62
     4
  6
CONTINUOUS
  0
LAYER
  5
3FA
330
66
100
AcDbSymbolTableRecord
100
AcDbLayerTableRecord
  2
TITLE
 70
     0
 62
     4
  6
CONTINUOUS
  0
ENDTAB
  0
TABLE
  2
STYLE
  5
67
330
0
100
AcDbSymbolTable
 70
     1
  0
STYLE
  5
16
330
67
100
AcDbSymbolTableRecord
100
AcDbTextStyleTableRecord
  2
STANDARD
 70
     0
 40
0.0
 41
1.0
 50
0.0
 71
     0
 42
2.0
  3
simplex.shx
  4
extfont.shx
  0
ENDTAB
  0
TABLE
  2
VIEW
  5
6C
330
0
100
AcDbSymbolTable
 70
     0
  0
ENDTAB
  0
TABLE
  2
UCS
  5
6D
330
0
100
AcDbSymbolTable
 70
     0
  0
ENDTAB
  0
TABLE
  2
APPID
  5
70
330
0
100
AcDbSymbolTable
 70
     1
  0
APPID
  5
71
330
70
100
AcDbSymbolTableRecord
100
AcDbRegAppTableRecord
  2
ACAD
 70
     0
  0
ENDTAB
  0
TABLE
  2
DIMSTYLE
  5
72
330
0
100
AcDbSymbolTable
 70
     1
  0
DIMSTYLE
105
73
330
72
100
AcDbSymbolTableRecord
100
AcDbDimStyleTableRecord
  2
STANDARD
 70
     0
  3

  4

  5

  6

  7

 40
2.0
 41
1.8
 42
0.625
 43
3.75
 44
0.8
 45
0.0
 46
0.0
 47
0.0
 48
0.0
140
1.8
141
2.5
142
0.0
143
0.0394
144
1.0
145
0.0
146
1.0
147
0.75
 71
     0
 72
     0
 73
     0
 74
     0
 75
     0
 76
     0
 77
     1
 78
     8
170
     0
171
     4
172
     1
173
     0
174
     0
175
     0
176
     0
177
     0
178
     0
270
     8
271
     2
272
     2
273
     8
274
     4
340
16
275
     0
280
     0
281
     0
282
     0
283
     1
284
     0
285
     0
286
     0
287
     3
288
     0
  0
ENDTAB
  0
TABLE
  2
BLOCK_RECORD
  5
1
330
0
100
AcDbSymbolTable
 70
    63
  0
BLOCK_RECORD
  5
2
102
{ACAD_XDICTIONARY
360
1B1D
102
}
330
1
100
AcDbSymbolTableRecord
100
AcDbBlockTableRecord
  2
*MODEL_SPACE
  0
BLOCK_RECORD
  5
1AF6
102
{ACAD_XDICTIONARY
360
1B1F
102
}
330
1
100
AcDbSymbolTableRecord
100
AcDbBlockTableRecord
  2
*PAPER_SPACE
  0
ENDTAB
  0
ENDSEC
  0
SECTION
  2
BLOCKS
  0
BLOCK
  5
5D
330
2
100
AcDbEntity
  8
0
100
AcDbBlockBegin
  2
*MODEL_SPACE
 70
     0
 10
0.0
 20
0.0
 30
0.0
  3
*MODEL_SPACE
  1

  0
ENDBLK
  5
5F
330
2
100
AcDbEntity
  8
0
100
AcDbBlockEnd
  0
BLOCK
  5
1AF8
330
1AF6
100
AcDbEntity
 67
     1
  8
0
100
AcDbBlockBegin
  2
*PAPER_SPACE
 70
     0
 10
0.0
 20
0.0
 30
0.0
  3
*PAPER_SPACE
  1

  0
ENDBLK
  5
1AF9
330
1AF6
100
AcDbEntity
 67
     1
  8
0
100
AcDbBlockEnd
  0
ENDSEC
  0
SECTION
  2
ENTITIES
  0
LINE
  5
64E
330
2
100
AcDbEntity
  8
0
100
AcDbLine
 10
180.3496028700475
 20
300.2265473812285
 30
0.0
 11
277.3482448700475
 21
300.2265473812285
 31
0.0
  0
LINE
  5
64F
330
2
100
AcDbEntity
  8
0
100
AcDbLine
 10
178.5584038700475
 20
290.2265473812285
 30
0.0
 11
279.5584038700475
 21
290.2265473812285
 31
0.0
  0
LINE
  5
650
330
2
100
AcDbEntity
  8
0
100
AcDbLine
 10
275.3843018700475
 20
375.2265473812285
 30
0.0
 11
180.5067228700475
 21
375.2265473812285
 31
0.0
  0
LINE
  5
651
330
2
100
AcDbEntity
  8
CENTER
100
AcDbLine
 10
39.05840587005036
 20
338.2265473812285
 30
0.0
 11
288.3014871381317
 21
338.2265473812285
 31
0.0
  0
ARC
  5
652
330
2
100
AcDbEntity
  8
0
100
AcDbCircle
 10
269.0584038700475
 20
60.49747438122856
 30
0.0
 40
9.0
100
AcDbArc
 50
270.0
 51
355.879913
  0
ARC
  5
653
330
2
100
AcDbEntity
  8
0
100
AcDbCircle
 10
270.0643088700475
 20
74.46129438122856
 30
0.0
 40
5.0
100
AcDbArc
 50
265.8797909999997
 51
355.8794859999999
  0
ARC
  5
654
330
2
100
AcDbEntity
  8
0
100
AcDbCircle
 10
269.0584038700475
 20
160.4974743812285
 30
0.0
 40
9.0
100
AcDbArc
 50
4.120065000000226
 51
90.0
  0
ARC
  5
655
330
2
100
AcDbEntity
  8
0
100
AcDbCircle
 10
270.0643088700475
 20
146.5336533812285
 30
0.0
 40
5.0
100
AcDbArc
 50
4.12054400000038
 51
94.12020099999995
  0
ARC
  5
656
330
2
100
AcDbEntity
  8
0
100
AcDbCircle
 10
229.0584038700475
 20
110.4974743812285
 30
0.0
 40
50.5
100
AcDbArc
 50
198.1038060000001
 51
341.8962099999999
  0
ARC
  5
657
330
2
100
AcDbEntity
  8
0
100
AcDbCircle
 10
229.0584038700475
 20
110.4974743812285
 30
0.0
 40
50.5
100
AcDbArc
 50
18.10380000000027
 51
161.8961939999998
  0
CIRCLE
  5
658
330
2
100
AcDbEntity
  8
0
100
AcDbCircle
 10
269.0584038700475
 20
60.49747438122856
 30
0.0
 40
4.25
  0
CIRCLE
  5
65A
330
2
100
AcDbEntity
  8
0
100
AcDbCircle
 10
269.0584038700475
 20
160.4974743812285
 30
0.0
 40
4.25
  0
LINE
  5
65B
330
2
100
AcDbEntity
  8
CENTER
100
AcDbLine
 10
262.2584008700475
 20
160.4974743812285
 30
0.0
 11
275.8584068700475
 21
160.4974743812285
 31
0.0
  0
LINE
  5
65C
330
2
100
AcDbEntity
  8
0
100
AcDbLine
 10
106.0584038700475
 20
65.38816438122854
 30
0.0
 11
177.0584038700475
 21
65.38816438122854
 31
0.0
  0
LINE
  5
65D
330
2
100
AcDbEntity
  8
0
100
AcDbLine
 10
106.0584038700475
 20
134.2067713812285
 30
0.0
 11
176.5584038700475
 21
134.2067713812285
 31
0.0
  0
LINE
  5
65E
330
2
100
AcDbEntity
  8
0
100
AcDbLine
 10
176.5584038700475
 20
54.79747438122854
 30
0.0
 11
106.0584038700475
 21
54.79747438122854
 31
0.0
  0
LINE
  5
65F
330
2
100
AcDbEntity
  8
0
100
AcDbLine
 10
106.0584038700475
 20
144.7974773812285
 30
0.0
 11
178.9041068700475
 21
144.7974773812285
 31
0.0
  0
LINE
  5
660
330
2
100
AcDbEntity
  8
CENTER
100
AcDbLine
 10
39.05841137004711
 20
99.79747338122855
 30
0.0
 11
200.9451078700475
 21
99.79747338122855
 31
0.0
  0
LINE
  5
661
330
2
100
AcDbEntity
  8
0
100
AcDbLine
 10
106.0584038700475
 20
54.79747438122854
 30
0.0
 11
106.0584038700475
 21
144.7974773812285
 31
0.0
  0
LINE
  5
662
330
2
100
AcDbEntity
  8
0
100
AcDbLine
 10
49.05842387004759
 20
141.7974853812285
 30
0.0
 11
49.05839887004754
 21
57.79746438122856
 31
0.0
  0
LINE
  5
663
330
2
100
AcDbEntity
  8
0
100
AcDbLine
 10
96.55839987004753
 20
146.7974773812285
 30
0.0
 11
96.55839987004753
 21
52.79747438122853
 31
0.0
  0
ARC
  5
664
330
2
100
AcDbEntity
  8
0
100
AcDbCircle
 10
54.05839787004754
 20
57.79747438122853
 30
0.0
 40
5.0
100
AcDbArc
 50
180.0
 51
270.0
  0
LINE
  5
665
330
2
100
AcDbEntity
  8
0
100
AcDbLine
 10
54.05839887004754
 20
52.79747438122853
 30
0.0
 11
96.55839987004753
 21
52.79747438122853
 31
0.0
  0
LINE
  5
666
330
2
100
AcDbEntity
  8
0
100
AcDbLine
 10
96.55839987004753
 20
70.79747338122854
 30
0.0
 11
52.58339987004752
 21
70.79747338122854
 31
0.0
  0
LINE
  5
667
330
2
100
AcDbEntity
  8
0
100
AcDbLine
 10
106.0584038700475
 20
65.38817338122857
 30
0.0
 11
96.55839987004753
 21
65.38817338122857
 31
0.0
  0
LINE
  5
668
330
2
100
AcDbEntity
  8
0
100
AcDbLine
 10
96.55839987004753
 20
54.79747438122854
 30
0.0
 11
106.0584038700475
 21
54.79747438122854
 31
0.0
  0
LINE
  5
669
330
2
100
AcDbEntity
  8
0
100
AcDbLine
 10
54.05839887004754
 20
146.7974773812285
 30
0.0
 11
96.55839987004753
 21
146.7974773812285
 31
0.0
  0
LINE
  5
66A
330
2
100
AcDbEntity
  8
0
100
AcDbLine
 10
96.55839987004753
 20
128.7974773812285
 30
0.0
 11
52.58340087004751
 21
128.7974773812285
 31
0.0
  0
ARC
  5
66B
330
2
100
AcDbEntity
  8
0
100
AcDbCircle
 10
54.05842387004759
 20
141.7975083812285
 30
0.0
 40
5.0
100
AcDbArc
 50
90.0
 51
180.0
  0
LINE
  5
66C
330
2
100
AcDbEntity
  8
0
100
AcDbLine
 10
106.0584038700475
 20
134.2067713812285
 30
0.0
 11
96.55839987004753
 21
134.2067713812285
 31
0.0
  0
LINE
  5
66D
330
2
100
AcDbEntity
  8
0
100
AcDbLine
 10
101.0583998700475
 20
128.3268733812285
 30
0.0
 11
101.0583998700475
 21
123.8268733812285
 31
0.0
  0
LINE
  5
66E
330
2
100
AcDbEntity
  8
0
100
AcDbLine
 10
99.55839987004754
 20
128.3268733812285
 30
0.0
 11
99.55839987004754
 21
123.8268733812285
 31
0.0
  0
LINE
  5
66F
330
2
100
AcDbEntity
  8
0
100
AcDbLine
 10
98.05839987004754
 20
128.3268733812285
 30
0.0
 11
98.05839987004754
 21
123.3112713812285
 31
0.0
  0
LINE
  5
670
330
2
100
AcDbEntity
  8
HOJO
100
AcDbLine
 10
99.55839987004754
 20
124.3268733812285
 30
0.0
 11
101.0583998700475
 21
123.8268733812285
 31
0.0
  0
LINE
  5
671
330
2
100
AcDbEntity
  8
HOJO
100
AcDbLine
 10
98.05839987004754
 20
123.3268733812285
 30
0.0
 11
99.55839987004754
 21
123.8268733812285
 31
0.0
  0
ARC
  5
672
330
2
100
AcDbEntity
  8
0
100
AcDbCircle
 10
96.55839987004753
 20
128.3268733812285
 30
0.0
 40
3.0
100
AcDbArc
 50
0.0
 51
90.0
  0
ARC
  5
673
330
2
100
AcDbEntity
  8
0
100
AcDbCircle
 10
96.55839987004753
 20
128.3268733812285
 30
0.0
 40
4.5
100
AcDbArc
 50
0.0
 51
90.0
  0
ARC
  5
674
330
2
100
AcDbEntity
  8
0
100
AcDbCircle
 10
96.55839987004753
 20
128.3268733812285
 30
0.0
 40
1.5
100
AcDbArc
 50
0.0
 51
90.0
  0
LINE
  5
677
330
2
100
AcDbEntity
  8
0
100
AcDbLine
 10
96.55839987004753
 20
144.7974773812285
 30
0.0
 11
106.0584038700475
 21
144.7974773812285
 31
0.0
  0
CIRCLE
  5
680
330
2
100
AcDbEntity
  8
0
100
AcDbCircle
 10
229.0584038700475
 20
125.4974743812285
 30
0.0
 40
23.5
  0
LINE
  5
681
330
2
100
AcDbEntity
  8
0
100
AcDbLine
 10
178.5584038700475
 20
139.9974743812285
 30
0.0
 11
178.5584038700475
 21
80.99746338122855
 31
0.0
  0
LINE
  5
682
330
2
100
AcDbEntity
  8
0
100
AcDbLine
 10
181.0584038700475
 20
126.1896663812285
 30
0.0
 11
181.0584038700475
 21
94.80495438122856
 31
0.0
  0
LINE
  5
683
330
2
100
AcDbEntity
  8
CENTER
100
AcDbLine
 10
229.0584038700475
 20
179.4974743812285
 30
0.0
 11
229.0584038700475
 21
41.49747438122855
 31
0.0
  0
ARC
  5
684
330
2
100
AcDbEntity
  8
0
100
AcDbCircle
 10
203.0584038700475
 20
60.49747438122856
 30
0.0
 40
5.0
100
AcDbArc
 50
180.0
 51
270.0
  0
ARC
  5
685
330
2
100
AcDbEntity
  8
0
100
AcDbCircle
 10
189.0584038700475
 20
60.49747438122856
 30
0.0
 40
9.0
100
AcDbArc
 50
0.0
 51
94.12016299999974
  0
LINE
  5
686
330
2
100
AcDbEntity
  8
0
100
AcDbLine
 10
189.0584038700475
 20
51.49747438122855
 30
0.0
 11
269.0584038700475
 21
51.49747438122855
 31
0.0
  0
ARC
  5
687
330
2
100
AcDbEntity
  8
0
100
AcDbCircle
 10
189.0584038700475
 20
60.49747438122856
 30
0.0
 40
9.0
100
AcDbArc
 50
184.120102
 51
270.0
  0
LINE
  5
688
330
2
100
AcDbEntity
  8
0
100
AcDbLine
 10
180.0816128700475
 20
59.85091338122856
 30
0.0
 11
178.5584038700475
 21
80.99747438122856
 31
0.0
  0
LINE
  5
689
330
2
100
AcDbEntity
  8
0
100
AcDbLine
 10
183.0654078700476
 20
74.10205438122855
 30
0.0
 11
181.0583128700475
 21
94.80543838122855
 31
0.0
  0
ARC
  5
68A
330
2
100
AcDbEntity
  8
0
100
AcDbCircle
 10
176.5584038700475
 20
56.79747438122854
 30
0.0
 40
2.0
100
AcDbArc
 50
270.0
 51
0.0
  0
ARC
  5
68B
330
2
100
AcDbEntity
  8
0
100
AcDbCircle
 10
183.5584038700475
 20
64.79750438122855
 30
0.0
 40
5.0
100
AcDbArc
 50
143.9947970000004
 51
180.0
  0
LINE
  5
68C
330
2
100
AcDbEntity
  8
0
100
AcDbLine
 10
178.5584038700475
 20
56.79747438122854
 30
0.0
 11
178.5584038700475
 21
64.79750438122855
 31
0.0
  0
CIRCLE
  5
68E
330
2
100
AcDbEntity
  8
0
100
AcDbCircle
 10
189.0584038700475
 20
60.49747438122856
 30
0.0
 40
4.25
  0
ARC
  5
690
330
2
100
AcDbEntity
  8
0
100
AcDbCircle
 10
188.0525138700475
 20
74.46129438122856
 30
0.0
 40
5.0
100
AcDbArc
 50
184.1204989999996
 51
274.1202090000001
  0
LINE
  5
691
330
2
100
AcDbEntity
  8
0
100
AcDbLine
 10
255.0584038700475
 20
55.49747438122856
 30
0.0
 11
203.0584038700475
 21
55.49747438122856
 31
0.0
  0
LINE
  5
692
330
2
100
AcDbEntity
  8
0
100
AcDbLine
 10
215.0584038700475
 20
61.97686338122855
 30
0.0
 11
215.0584038700475
 21
56.70284438122854
 31
0.0
  0
LINE
  5
693
330
2
100
AcDbEntity
  8
0
100
AcDbLine
 10
221.7620178700475
 20
87.00480638122854
 30
0.0
 11
221.7620178700475
 21
85.61027538122855
 31
0.0
  0
LINE
  5
694
330
2
100
AcDbEntity
  8
0
100
AcDbLine
 10
221.7620178700475
 20
86.00871238122854
 30
0.0
 11
221.7620178700475
 21
86.80558338122855
 31
0.0
  0
LINE
  5
695
330
2
100
AcDbEntity
  8
0
100
AcDbLine
 10
217.3792048700475
 20
89.89746438122855
 30
0.0
 11
217.3792048700475
 21
84.38840438122856
 31
0.0
  0
LINE
  5
696
330
2
100
AcDbEntity
  8
0
100
AcDbLine
 10
216.3084038700475
 20
90.57798338122854
 30
0.0
 11
216.3084038700475
 21
83.73833438122856
 31
0.0
  0
LINE
  5
697
330
2
100
AcDbEntity
  8
0
100
AcDbLine
 10
222.6834038700475
 20
88.05070438122854
 30
0.0
 11
222.6834038700475
 21
82.49747438122856
 31
0.0
  0
LINE
  5
698
330
2
100
AcDbEntity
  8
0
100
AcDbLine
 10
217.5382168700475
 20
82.49747438122856
 30
0.0
 11
220.8535088700475
 21
82.49747438122856
 31
0.0
  0
ARC
  5
699
330
2
100
AcDbEntity
  8
0
100
AcDbCircle
 10
219.7698148700475
 20
85.61027538122855
 30
0.0
 40
1.992186999999999
100
AcDbArc
 50
270.0002139999998
 51
0.0001089999998967
  0
LINE
  5
69A
330
2
100
AcDbEntity
  8
0
100
AcDbLine
 10
219.7698148700475
 20
83.61808338122855
 30
0.0
 11
218.1105128700475
 21
83.61808338122855
 31
0.0
  0
LINE
  5
69B
330
2
100
AcDbEntity
  8
0
100
AcDbLine
 10
216.3084038700475
 20
83.73833438122856
 30
0.0
 11
217.5382168700475
 21
82.49747438122856
 31
0.0
  0
LINE
  5
69C
330
2
100
AcDbEntity
  8
0
100
AcDbLine
 10
217.3792048700475
 20
84.38840438122856
 30
0.0
 11
218.1105128700475
 21
83.61808338122855
 31
0.0
  0
LINE
  5
69D
330
2
100
AcDbEntity
  8
0
100
AcDbLine
 10
221.7620178700475
 20
83.25974238122853
 30
0.0
 11
220.8535088700475
 21
82.49747438122856
 31
0.0
  0
LINE
  5
69E
330
2
100
AcDbEntity
  8
0
100
AcDbLine
 10
221.7620178700475
 20
82.49747438122856
 30
0.0
 11
222.6834038700475
 21
82.49747438122856
 31
0.0
  0
LINE
  5
69F
330
2
100
AcDbEntity
  8
0
100
AcDbLine
 10
221.7620178700475
 20
83.25974238122853
 30
0.0
 11
221.7620178700475
 21
82.49747438122856
 31
0.0
  0
LINE
  5
6A0
330
2
100
AcDbEntity
  8
0
100
AcDbLine
 10
220.0936058700475
 20
88.05070438122854
 30
0.0
 11
222.6834038700475
 21
88.05070438122854
 31
0.0
  0
LINE
  5
6A1
330
2
100
AcDbEntity
  8
0
100
AcDbLine
 10
221.7620178700475
 20
87.00480638122854
 30
0.0
 11
220.0936058700475
 21
87.00480638122854
 31
0.0
  0
LINE
  5
6A2
330
2
100
AcDbEntity
  8
0
100
AcDbLine
 10
217.4658138700475
 20
92.05997838122854
 30
0.0
 11
221.7524048700475
 21
92.05997838122854
 31
0.0
  0
LINE
  5
6A3
330
2
100
AcDbEntity
  8
0
100
AcDbLine
 10
221.1709068700475
 20
90.78995838122855
 30
0.0
 11
218.0990078700475
 21
90.78995838122855
 31
0.0
  0
LINE
  5
6A4
330
2
100
AcDbEntity
  8
0
100
AcDbLine
 10
220.0936058700475
 20
88.05070438122854
 30
0.0
 11
220.0936058700475
 21
87.00480638122854
 31
0.0
  0
LINE
  5
6A5
330
2
100
AcDbEntity
  8
0
100
AcDbLine
 10
217.4658138700475
 20
92.05997838122854
 30
0.0
 11
216.3084038700475
 21
90.57798338122854
 31
0.0
  0
LINE
  5
6A6
330
2
100
AcDbEntity
  8
0
100
AcDbLine
 10
218.0990078700475
 20
90.78995838122855
 30
0.0
 11
217.3792048700475
 21
89.89746438122855
 31
0.0
  0
LINE
  5
6A7
330
2
100
AcDbEntity
  8
0
100
AcDbLine
 10
221.7620178700475
 20
90.21851738122853
 30
0.0
 11
221.7620178700475
 21
90.06779038122855
 31
0.0
  0
LINE
  5
6A8
330
2
100
AcDbEntity
  8
0
100
AcDbLine
 10
222.6834038700475
 20
91.02683638122854
 30
0.0
 11
222.6834038700475
 21
90.06779038122855
 31
0.0
  0
LINE
  5
6A9
330
2
100
AcDbEntity
  8
0
100
AcDbLine
 10
221.7620178700475
 20
90.06779038122855
 30
0.0
 11
222.6834038700475
 21
90.06779038122855
 31
0.0
  0
LINE
  5
6AA
330
2
100
AcDbEntity
  8
0
100
AcDbLine
 10
221.7524048700475
 20
92.05997838122854
 30
0.0
 11
222.6834038700475
 21
91.02683638122854
 31
0.0
  0
LINE
  5
6AB
330
2
100
AcDbEntity
  8
0
100
AcDbLine
 10
221.7620178700475
 20
90.21851738122853
 30
0.0
 11
221.1588068700475
 21
90.78995838122855
 31
0.0
  0
LINE
  5
6AC
330
2
100
AcDbEntity
  8
0
100
AcDbLine
 10
229.6312038700475
 20
90.88956838122854
 30
0.0
 11
229.6312038700475
 21
83.54337238122855
 31
0.0
  0
LINE
  5
6AD
330
2
100
AcDbEntity
  8
0
100
AcDbLine
 10
228.4358148700476
 20
90.88956838122854
 30
0.0
 11
228.4358148700476
 21
83.54337238122855
 31
0.0
  0
LINE
  5
6AE
330
2
100
AcDbEntity
  8
0
100
AcDbLine
 10
227.9627158700475
 20
82.49747438122856
 30
0.0
 11
230.0296108700475
 21
82.49747438122856
 31
0.0
  0
LINE
  5
6AF
330
2
100
AcDbEntity
  8
0
100
AcDbLine
 10
229.6312038700475
 20
83.54337238122855
 30
0.0
 11
230.0296108700475
 21
83.54337238122855
 31
0.0
  0
LINE
  5
6B0
330
2
100
AcDbEntity
  8
0
100
AcDbLine
 10
227.9627158700475
 20
83.54337238122855
 30
0.0
 11
228.4358148700476
 21
83.54337238122855
 31
0.0
  0
LINE
  5
6B1
330
2
100
AcDbEntity
  8
0
100
AcDbLine
 10
227.9627158700475
 20
83.54337238122855
 30
0.0
 11
227.9627158700475
 21
82.49747438122856
 31
0.0
  0
LINE
  5
6B2
330
2
100
AcDbEntity
  8
0
100
AcDbLine
 10
230.0296108700475
 20
83.54337238122855
 30
0.0
 11
230.0296108700475
 21
82.49747438122856
 31
0.0
  0
LINE
  5
6B3
330
2
100
AcDbEntity
  8
0
100
AcDbLine
 10
229.6312038700475
 20
90.88956838122854
 30
0.0
 11
231.2922148700475
 21
90.88956838122854
 31
0.0
  0
LINE
  5
6B4
330
2
100
AcDbEntity
  8
0
100
AcDbLine
 10
225.8709038700475
 20
92.05997838122854
 30
0.0
 11
232.2459038700475
 21
92.05997838122854
 31
0.0
  0
LINE
  5
6B5
330
2
100
AcDbEntity
  8
0
100
AcDbLine
 10
228.4358148700476
 20
90.88956838122854
 30
0.0
 11
226.9209068700475
 21
90.88956838122854
 31
0.0
  0
LINE
  5
6B6
330
2
100
AcDbEntity
  8
0
100
AcDbLine
 10
226.9209068700475
 20
90.88956838122854
 30
0.0
 11
226.5785148700475
 21
90.06779038122855
 31
0.0
  0
LINE
  5
6B7
330
2
100
AcDbEntity
  8
0
100
AcDbLine
 10
225.8709038700475
 20
90.06779038122855
 30
0.0
 11
226.5785148700475
 21
90.06779038122855
 31
0.0
  0
LINE
  5
6B8
330
2
100
AcDbEntity
  8
0
100
AcDbLine
 10
225.8709038700475
 20
90.06779038122855
 30
0.0
 11
225.8709038700475
 21
92.05997838122854
 31
0.0
  0
LINE
  5
6B9
330
2
100
AcDbEntity
  8
0
100
AcDbLine
 10
231.2922148700475
 20
90.88956838122854
 30
0.0
 11
231.5809108700475
 21
90.06779038122855
 31
0.0
  0
LINE
  5
6BA
330
2
100
AcDbEntity
  8
0
100
AcDbLine
 10
231.5809108700475
 20
90.06779038122855
 30
0.0
 11
232.2459038700475
 21
90.06779038122855
 31
0.0
  0
LINE
  5
6BB
330
2
100
AcDbEntity
  8
0
100
AcDbLine
 10
232.2459038700475
 20
90.06779038122855
 30
0.0
 11
232.2459038700475
 21
92.05997838122854
 31
0.0
  0
LINE
  5
6BC
330
2
100
AcDbEntity
  8
0
100
AcDbLine
 10
243.0584038700475
 20
61.97686338122855
 30
0.0
 11
243.0584038700475
 21
56.70284438122854
 31
0.0
  0
ARC
  5
6BD
330
2
100
AcDbEntity
  8
0
100
AcDbCircle
 10
269.0584038700475
 20
60.49747438122856
 30
0.0
 40
9.0
100
AcDbArc
 50
85.87983700000025
 51
180.0
  0
ARC
  5
6BF
330
2
100
AcDbEntity
  8
0
100
AcDbCircle
 10
255.0584038700475
 20
60.49747438122856
 30
0.0
 40
5.0
100
AcDbArc
 50
270.0
 51
0.0
  0
LINE
  5
6C0
330
2
100
AcDbEntity
  8
0
100
AcDbLine
 10
239.0427178700475
 20
86.96745238122856
 30
0.0
 11
240.5378048700475
 21
83.49357538122854
 31
0.0
  0
LINE
  5
6C1
330
2
100
AcDbEntity
  8
0
100
AcDbLine
 10
239.9603058700475
 20
87.05410338122854
 30
0.0
 11
241.5401088700475
 21
83.49357538122854
 31
0.0
  0
LINE
  5
6C2
330
2
100
AcDbEntity
  8
0
100
AcDbLine
 10
237.0022058700475
 20
86.96745238122856
 30
0.0
 11
237.0022058700475
 21
83.49357538122854
 31
0.0
  0
LINE
  5
6C3
330
2
100
AcDbEntity
  8
0
100
AcDbLine
 10
235.9065178700475
 20
90.88956838122854
 30
0.0
 11
235.9065178700475
 21
83.49357538122854
 31
0.0
  0
LINE
  5
6C4
330
2
100
AcDbEntity
  8
0
100
AcDbLine
 10
235.4334038700475
 20
83.49357538122854
 30
0.0
 11
235.4334038700475
 21
82.49747438122856
 31
0.0
  0
LINE
  5
6C5
330
2
100
AcDbEntity
  8
0
100
AcDbLine
 10
237.4380118700475
 20
83.49357538122854
 30
0.0
 11
237.4380118700475
 21
82.49747438122856
 31
0.0
  0
LINE
  5
6C6
330
2
100
AcDbEntity
  8
0
100
AcDbLine
 10
237.4380118700475
 20
82.49747438122856
 30
0.0
 11
235.4334038700475
 21
82.49747438122856
 31
0.0
  0
LINE
  5
6C7
330
2
100
AcDbEntity
  8
0
100
AcDbLine
 10
237.0022058700475
 20
83.49357538122854
 30
0.0
 11
237.4380118700475
 21
83.49357538122854
 31
0.0
  0
LINE
  5
6C8
330
2
100
AcDbEntity
  8
0
100
AcDbLine
 10
235.4334038700475
 20
83.49357538122854
 30
0.0
 11
235.9065178700475
 21
83.49357538122854
 31
0.0
  0
LINE
  5
6C9
330
2
100
AcDbEntity
  8
0
100
AcDbLine
 10
240.3392118700474
 20
83.49357538122854
 30
0.0
 11
240.3392118700474
 21
82.49747438122856
 31
0.0
  0
LINE
  5
6CA
330
2
100
AcDbEntity
  8
0
100
AcDbLine
 10
241.8084038700475
 20
83.49357538122854
 30
0.0
 11
241.8084038700475
 21
82.49747438122856
 31
0.0
  0
LINE
  5
6CB
330
2
100
AcDbEntity
  8
0
100
AcDbLine
 10
240.3392118700474
 20
82.49747438122856
 30
0.0
 11
241.8084038700475
 21
82.49747438122856
 31
0.0
  0
LINE
  5
6CC
330
2
100
AcDbEntity
  8
0
100
AcDbLine
 10
241.5401088700475
 20
83.49357538122854
 30
0.0
 11
241.8084038700475
 21
83.49357538122854
 31
0.0
  0
LINE
  5
6CD
330
2
100
AcDbEntity
  8
0
100
AcDbLine
 10
240.3392118700474
 20
83.49357538122854
 30
0.0
 11
240.5378048700475
 21
83.49357538122854
 31
0.0
  0
LINE
  5
6CE
330
2
100
AcDbEntity
  8
0
100
AcDbLine
 10
237.0022058700475
 20
87.96331338122854
 30
0.0
 11
239.4569178700475
 21
87.96331338122854
 31
0.0
  0
LINE
  5
6CF
330
2
100
AcDbEntity
  8
0
100
AcDbLine
 10
237.0022058700475
 20
90.88956838122854
 30
0.0
 11
239.9771048700475
 21
90.88763038122854
 31
0.0
  0
LINE
  5
6D0
330
2
100
AcDbEntity
  8
0
100
AcDbLine
 10
235.4334038700475
 20
92.05997838122854
 30
0.0
 11
239.2559138700475
 21
92.05997838122854
 31
0.0
  0
LINE
  5
6D1
330
2
100
AcDbEntity
  8
0
100
AcDbLine
 10
237.0022058700475
 20
86.96745238122856
 30
0.0
 11
239.0427178700475
 21
86.96745238122856
 31
0.0
  0
LINE
  5
6D2
330
2
100
AcDbEntity
  8
0
100
AcDbLine
 10
235.4334038700475
 20
90.88956838122854
 30
0.0
 11
235.9065178700475
 21
90.88956838122854
 31
0.0
  0
LINE
  5
6D3
330
2
100
AcDbEntity
  8
0
100
AcDbLine
 10
237.0022058700475
 20
90.88956838122854
 30
0.0
 11
237.0022058700475
 21
87.96331338122854
 31
0.0
  0
LINE
  5
6D4
330
2
100
AcDbEntity
  8
0
100
AcDbLine
 10
235.4334038700475
 20
92.05997838122854
 30
0.0
 11
235.4334038700475
 21
90.88956838122854
 31
0.0
  0
ARC
  5
6D5
330
2
100
AcDbEntity
  8
0
100
AcDbCircle
 10
239.2559138700475
 20
89.50748438122856
 30
0.0
 40
1.557193
100
AcDbArc
 50
277.4147260000004
 51
62.41184999999949
  0
ARC
  5
6D6
330
2
100
AcDbEntity
  8
0
100
AcDbCircle
 10
239.2559138700475
 20
89.50748438122856
 30
0.0
 40
2.55249
100
AcDbArc
 50
286.0181269999995
 51
90.00350999999964
  0
ARC
  5
6D7
330
2
100
AcDbEntity
  8
0
100
AcDbCircle
 10
189.0584038700475
 20
160.4974743812285
 30
0.0
 40
9.0
100
AcDbArc
 50
265.8793329999998
 51
0.0
  0
ARC
  5
6D8
330
2
100
AcDbEntity
  8
0
100
AcDbCircle
 10
203.0584038700475
 20
160.4974743812285
 30
0.0
 40
5.0
100
AcDbArc
 50
90.0
 51
180.0
  0
LINE
  5
6D9
330
2
100
AcDbEntity
  8
0
100
AcDbLine
 10
189.0584038700475
 20
169.4974743812285
 30
0.0
 11
269.0584038700475
 21
169.4974743812285
 31
0.0
  0
LINE
  5
6DA
330
2
100
AcDbEntity
  8
CENTER
100
AcDbLine
 10
195.5584038700475
 20
125.4974743812285
 30
0.0
 11
262.5584038700475
 21
125.4974743812285
 31
0.0
  0
ARC
  5
6DB
330
2
100
AcDbEntity
  8
0
100
AcDbCircle
 10
189.0584038700475
 20
160.4974743812285
 30
0.0
 40
9.0
100
AcDbArc
 50
90.0
 51
175.8798979999999
  0
CIRCLE
  5
6DC
330
2
100
AcDbEntity
  8
0
100
AcDbCircle
 10
189.0584038700475
 20
160.4974743812285
 30
0.0
 40
4.25
  0
LINE
  5
6DE
330
2
100
AcDbEntity
  8
0
100
AcDbLine
 10
183.0654078700476
 20
146.8929363812285
 30
0.0
 11
181.0584038700475
 21
126.1898343812285
 31
0.0
  0
LINE
  5
6DF
330
2
100
AcDbEntity
  8
0
100
AcDbLine
 10
180.0816128700475
 20
161.1441033812285
 30
0.0
 11
178.5584038700475
 21
139.9974743812285
 31
0.0
  0
ARC
  5
6E0
330
2
100
AcDbEntity
  8
0
100
AcDbCircle
 10
188.0525138700475
 20
146.5336533812285
 30
0.0
 40
5.0
100
AcDbArc
 50
85.87979900000004
 51
175.8795010000003
  0
LINE
  5
6E2
330
2
100
AcDbEntity
  8
0
100
AcDbLine
 10
243.0584038700475
 20
164.5662763812285
 30
0.0
 11
243.0584038700475
 21
159.0180963812285
 31
0.0
  0
LINE
  5
6E3
330
2
100
AcDbEntity
  8
0
100
AcDbLine
 10
215.0584038700475
 20
164.5662763812285
 30
0.0
 11
215.0584038700475
 21
159.0180813812285
 31
0.0
  0
ARC
  5
6E4
330
2
100
AcDbEntity
  8
0
100
AcDbCircle
 10
255.0584038700475
 20
160.4974743812285
 30
0.0
 40
5.0
100
AcDbArc
 50
0.0
 51
90.0
  0
LINE
  5
6E5
330
2
100
AcDbEntity
  8
CENTER
100
AcDbLine
 10
269.0584038700475
 20
153.6974713812285
 30
0.0
 11
269.0584038700475
 21
167.2974773812285
 31
0.0
  0
ARC
  5
6E6
330
2
100
AcDbEntity
  8
0
100
AcDbCircle
 10
229.0584038700475
 20
125.4974743812285
 30
0.0
 40
9.0
100
AcDbArc
 50
19.47121000000005
 51
340.5288089999999
  0
LINE
  5
6E7
330
2
100
AcDbEntity
  8
0
100
AcDbLine
 10
240.5584038700475
 20
122.4975123812285
 30
0.0
 11
240.5584038700475
 21
128.4975123812285
 31
0.0
  0
LINE
  5
6E8
330
2
100
AcDbEntity
  8
0
100
AcDbLine
 10
234.5584038700475
 20
122.4974973812285
 30
0.0
 11
234.5584038700475
 21
128.4974973812285
 31
0.0
  0
LINE
  5
6E9
330
2
100
AcDbEntity
  8
0
100
AcDbLine
 10
240.5584038700475
 20
122.4975123812285
 30
0.0
 11
234.5584038700475
 21
122.4974973812285
 31
0.0
  0
LINE
  5
6EA
330
2
100
AcDbEntity
  8
0
100
AcDbLine
 10
240.5584038700475
 20
128.4975123812285
 30
0.0
 11
234.5584038700475
 21
128.4974973812285
 31
0.0
  0
ARC
  5
6EB
330
2
100
AcDbEntity
  8
0
100
AcDbCircle
 10
269.0584038700475
 20
160.4974743812285
 30
0.0
 40
9.0
100
AcDbArc
 50
180.0
 51
274.1206969999996
  0
LINE
  5
6EC
330
2
100
AcDbEntity
  8
0
100
AcDbLine
 10
203.0584038700475
 20
165.4974743812285
 30
0.0
 11
255.0584038700475
 21
165.4974743812285
 31
0.0
  0
LINE
  5
6ED
330
2
100
AcDbEntity
  8
0
100
AcDbLine
 10
176.5315338700475
 20
293.2265473812285
 30
0.0
 11
106.0584118700476
 21
293.2265473812285
 31
0.0
  0
LINE
  5
6EE
330
2
100
AcDbEntity
  8
0
100
AcDbLine
 10
106.0584118700476
 20
309.2265473812285
 30
0.0
 11
176.6752868700475
 21
309.2265473812285
 31
0.0
  0
LINE
  5
6EF
330
2
100
AcDbEntity
  8
0
100
AcDbLine
 10
106.0584118700476
 20
367.2265473812285
 30
0.0
 11
185.4009638700475
 21
367.2265473812285
 31
0.0
  0
LINE
  5
6F0
330
2
100
AcDbEntity
  8
0
100
AcDbLine
 10
176.4006128700475
 20
383.2265473812285
 30
0.0
 11
106.0584118700476
 21
383.2265473812285
 31
0.0
  0
LINE
  5
6F1
330
2
100
AcDbEntity
  8
0
100
AcDbLine
 10
49.05842087004748
 20
380.2265473812285
 30
0.0
 11
49.05839087004756
 21
296.2265313812285
 31
0.0
  0
LINE
  5
6F2
330
2
100
AcDbEntity
  8
0
100
AcDbLine
 10
96.55841187004762
 20
385.2265473812285
 30
0.0
 11
96.55841187004762
 21
291.2265473812285
 31
0.0
  0
LINE
  5
6F3
330
2
100
AcDbEntity
  8
0
100
AcDbLine
 10
106.0584118700476
 20
363.2265473812285
 30
0.0
 11
106.0584118700476
 21
383.2265473812285
 31
0.0
  0
ARC
  5
6F4
330
2
100
AcDbEntity
  8
0
100
AcDbCircle
 10
54.05839087004756
 20
296.2265473812285
 30
0.0
 40
5.0
100
AcDbArc
 50
180.0
 51
270.0
  0
ARC
  5
6F5
330
2
100
AcDbEntity
  8
0
100
AcDbCircle
 10
96.55841187004762
 20
298.9566953812285
 30
0.0
 40
1.5
100
AcDbArc
 50
0.0
 51
90.0
  0
ARC
  5
6F6
330
2
100
AcDbEntity
  8
0
100
AcDbCircle
 10
96.55841187004762
 20
298.9566953812285
 30
0.0
 40
3.0
100
AcDbArc
 50
0.0
 51
90.0
  0
ARC
  5
6F7
330
2
100
AcDbEntity
  8
0
100
AcDbCircle
 10
96.55841187004762
 20
298.9566953812285
 30
0.0
 40
4.5
100
AcDbArc
 50
0.0
 51
90.0
  0
LINE
  5
6F8
330
2
100
AcDbEntity
  8
0
100
AcDbLine
 10
106.0584118700476
 20
293.2265473812285
 30
0.0
 11
106.0584118700476
 21
313.2265473812285
 31
0.0
  0
LINE
  5
6F9
330
2
100
AcDbEntity
  8
0
100
AcDbLine
 10
54.05839087004756
 20
291.2265473812285
 30
0.0
 11
96.55841187004762
 21
291.2265473812285
 31
0.0
  0
LINE
  5
6FA
330
2
100
AcDbEntity
  8
0
100
AcDbLine
 10
96.55841187004762
 20
293.2265473812285
 30
0.0
 11
106.0584118700476
 21
293.2265473812285
 31
0.0
  0
LINE
  5
6FB
330
2
100
AcDbEntity
  8
HOJO
100
AcDbLine
 10
99.55841187004763
 20
294.9566953812285
 30
0.0
 11
101.0584118700476
 21
294.4566953812285
 31
0.0
  0
LINE
  5
6FC
330
2
100
AcDbEntity
  8
HOJO
100
AcDbLine
 10
98.05841187004762
 20
293.9566953812285
 30
0.0
 11
99.55841187004763
 21
294.4566953812285
 31
0.0
  0
LINE
  5
6FD
330
2
100
AcDbEntity
  8
0
100
AcDbLine
 10
99.55841187004763
 20
298.9566953812285
 30
0.0
 11
99.55841187004763
 21
294.4566953812285
 31
0.0
  0
LINE
  5
6FE
330
2
100
AcDbEntity
  8
0
100
AcDbLine
 10
98.05841187004762
 20
298.9566953812285
 30
0.0
 11
98.05841187004762
 21
293.9411003812285
 31
0.0
  0
LINE
  5
6FF
330
2
100
AcDbEntity
  8
0
100
AcDbLine
 10
101.0584118700476
 20
298.9566953812285
 30
0.0
 11
101.0584118700476
 21
294.4566953812285
 31
0.0
  0
LINE
  5
700
330
2
100
AcDbEntity
  8
0
100
AcDbLine
 10
96.55841187004762
 20
309.2265473812285
 30
0.0
 11
52.58338087004756
 21
309.2265473812285
 31
0.0
  0
LINE
  5
701
330
2
100
AcDbEntity
  8
0
100
AcDbLine
 10
106.0584118700476
 20
309.2265473812285
 30
0.0
 11
96.55841187004762
 21
309.2265473812285
 31
0.0
  0
ARC
  5
710
330
2
100
AcDbEntity
  8
0
100
AcDbCircle
 10
54.05842087004748
 20
380.2265473812285
 30
0.0
 40
5.0
100
AcDbArc
 50
90.0
 51
180.0
  0
LINE
  5
711
330
2
100
AcDbEntity
  8
0
100
AcDbLine
 10
54.05839087004756
 20
385.2265473812285
 30
0.0
 11
96.55841187004762
 21
385.2265473812285
 31
0.0
  0
LINE
  5
712
330
2
100
AcDbEntity
  8
0
100
AcDbLine
 10
96.55841187004762
 20
367.2265473812285
 30
0.0
 11
52.58338087004756
 21
367.2265473812285
 31
0.0
  0
LINE
  5
713
330
2
100
AcDbEntity
  8
0
100
AcDbLine
 10
106.0584118700476
 20
367.2265473812285
 30
0.0
 11
96.55841187004762
 21
367.2265473812285
 31
0.0
  0
LINE
  5
714
330
2
100
AcDbEntity
  8
0
100
AcDbLine
 10
96.55841187004762
 20
383.2265473812285
 30
0.0
 11
106.0584118700476
 21
383.2265473812285
 31
0.0
  0
LINE
  5
715
330
2
100
AcDbEntity
  8
0
100
AcDbLine
 10
185.4009638700475
 20
365.2265473812285
 30
0.0
 11
185.4009638700475
 21
301.7615353812285
 31
0.0
  0
LINE
  5
716
330
2
100
AcDbEntity
  8
0
100
AcDbLine
 10
246.0584038700475
 20
370.2265473812285
 30
0.0
 11
246.0584038700475
 21
302.2265473812285
 31
0.0
  0
LINE
  5
717
330
2
100
AcDbEntity
  8
0
100
AcDbLine
 10
212.0584038700475
 20
370.2265473812285
 30
0.0
 11
212.0584038700475
 21
302.2265473812285
 31
0.0
  0
LINE
  5
718
330
2
100
AcDbEntity
  8
CENTER
100
AcDbLine
 10
229.0584038700475
 20
422.2265473812285
 30
0.0
 11
229.0584038700475
 21
254.2265473812286
 31
0.0
  0
LINE
  5
719
330
2
100
AcDbEntity
  8
HIDS
100
AcDbLine
 10
193.3084038700475
 20
300.2265473812285
 30
0.0
 11
193.3084038700475
 21
290.2265473812285
 31
0.0
  0
LINE
  5
71A
330
2
100
AcDbEntity
  8
HIDS
100
AcDbLine
 10
184.8084038700475
 20
300.2265473812285
 30
0.0
 11
184.8084038700475
 21
290.2265473812285
 31
0.0
  0
LINE
  5
71B
330
2
100
AcDbEntity
  8
CENTER
100
AcDbLine
 10
189.0584038700475
 20
285.2265473812285
 30
0.0
 11
189.0584038700475
 21
305.2265473812285
 31
0.0
  0
ARC
  5
71C
330
2
100
AcDbEntity
  8
0
100
AcDbCircle
 10
180.3496028700475
 20
298.2265473812285
 30
0.0
 40
2.0
100
AcDbArc
 50
90.0
 51
181.5000000000002
  0
LINE
  5
71D
330
2
100
AcDbEntity
  8
0
100
AcDbLine
 10
177.3014918700475
 20
338.2265473812285
 30
0.0
 11
178.5584038700475
 21
290.2265473812285
 31
0.0
  0
ARC
  5
71E
330
2
100
AcDbEntity
  8
0
100
AcDbCircle
 10
176.5315338700475
 20
291.2265473812285
 30
0.0
 40
2.0
100
AcDbArc
 50
1.500000000000274
 51
90.0
  0
LINE
  5
71F
330
2
100
AcDbEntity
  8
HIDS
100
AcDbLine
 10
264.8084038700475
 20
300.2265473812285
 30
0.0
 11
264.8084038700475
 21
290.2265473812285
 31
0.0
  0
LINE
  5
720
330
2
100
AcDbEntity
  8
CENTER
100
AcDbLine
 10
269.0584038700475
 20
285.2265473812285
 30
0.0
 11
269.0584038700475
 21
305.2265473812285
 31
0.0
  0
LINE
  5
721
330
2
100
AcDbEntity
  8
0
100
AcDbLine
 10
240.5584038700475
 20
264.2265473812285
 30
0.0
 11
220.0584038700475
 21
264.2265473812285
 31
0.0
  0
LINE
  5
722
330
2
100
AcDbEntity
  8
0
100
AcDbLine
 10
220.0584038700475
 20
290.2265473812285
 30
0.0
 11
220.0584038700475
 21
264.2265473812285
 31
0.0
  0
LINE
  5
723
330
2
100
AcDbEntity
  8
0
100
AcDbLine
 10
237.5434048700475
 20
264.2265473812285
 30
0.0
 11
237.5434048700475
 21
290.2265473812285
 31
0.0
  0
LINE
  5
724
330
2
100
AcDbEntity
  8
0
100
AcDbLine
 10
240.5584038700475
 20
264.2265473812285
 30
0.0
 11
240.5584038700475
 21
290.2265473812285
 31
0.0
  0
LINE
  5
725
330
2
100
AcDbEntity
  8
0
100
AcDbLine
 10
211.9164818700475
 20
301.4865413812285
 30
0.0
 11
246.2003418700475
 21
301.4865413812285
 31
0.0
  0
ARC
  5
726
330
2
100
AcDbEntity
  8
0
100
AcDbCircle
 10
210.0584038700475
 20
302.2265473812285
 30
0.0
 40
2.0
100
AcDbArc
 50
270.0
 51
0.0
  0
ARC
  5
727
330
2
100
AcDbEntity
  8
0
100
AcDbCircle
 10
248.0584038700475
 20
302.2265473812285
 30
0.0
 40
2.0
100
AcDbArc
 50
180.0
 51
270.0
  0
LINE
  5
728
330
2
100
AcDbEntity
  8
0
100
AcDbLine
 10
178.3999268700475
 20
381.2788843812285
 30
0.0
 11
178.5074088700475
 21
377.1741783812285
 31
0.0
  0
ARC
  5
729
330
2
100
AcDbEntity
  8
0
100
AcDbCircle
 10
180.5067228700475
 20
373.2265473812285
 30
0.0
 40
2.0
100
AcDbArc
 50
90.0
 51
178.4999999999997
  0
ARC
  5
72A
330
2
100
AcDbEntity
  8
0
100
AcDbCircle
 10
180.5067228700475
 20
377.2265473812285
 30
0.0
 40
2.0
100
AcDbArc
 50
181.5000000000002
 51
270.0
  0
LINE
  5
72B
330
2
100
AcDbEntity
  8
0
100
AcDbLine
 10
178.3489928700475
 20
367.2292933812285
 30
0.0
 11
178.5074088700475
 21
373.2788843812286
 31
0.0
  0
ARC
  5
72C
330
2
100
AcDbEntity
  8
0
100
AcDbCircle
 10
176.4006128700475
 20
381.2265473812285
 30
0.0
 40
2.0
100
AcDbArc
 50
1.500000000000274
 51
90.0
  0
LINE
  5
72D
330
2
100
AcDbEntity
  8
0
100
AcDbLine
 10
237.5434048700475
 20
412.2265473812285
 30
0.0
 11
237.5434048700475
 21
385.2265473812285
 31
0.0
  0
LINE
  5
72E
330
2
100
AcDbEntity
  8
0
100
AcDbLine
 10
240.5584038700475
 20
412.2265473812285
 30
0.0
 11
240.5584038700475
 21
385.2265473812285
 31
0.0
  0
LINE
  5
72F
330
2
100
AcDbEntity
  8
0
100
AcDbLine
 10
220.0584038700475
 20
382.2265473812285
 30
0.0
 11
220.0584038700475
 21
412.2265473812285
 31
0.0
  0
LINE
  5
730
330
2
100
AcDbEntity
  8
0
100
AcDbLine
 10
219.0584038700475
 20
382.2265473812285
 30
0.0
 11
239.0584038700475
 21
382.2265473812285
 31
0.0
  0
LINE
  5
731
330
2
100
AcDbEntity
  8
0
100
AcDbLine
 10
251.5584198700475
 20
380.2265473812285
 30
0.0
 11
206.5584038700475
 21
380.2265473812285
 31
0.0
  0
LINE
  5
732
330
2
100
AcDbEntity
  8
0
100
AcDbLine
 10
219.0584038700475
 20
380.2265473812285
 30
0.0
 11
219.0584038700475
 21
382.2265473812285
 31
0.0
  0
ARC
  5
733
330
2
100
AcDbEntity
  8
0
100
AcDbCircle
 10
206.5584198700475
 20
379.2265473812285
 30
0.0
 40
1.0
100
AcDbArc
 50
90.0
 51
180.0
  0
ARC
  5
734
330
2
100
AcDbEntity
  8
0
100
AcDbCircle
 10
203.5584038700475
 20
377.2265473812285
 30
0.0
 40
2.0
100
AcDbArc
 50
270.0
 51
0.0
  0
LINE
  5
735
330
2
100
AcDbEntity
  8
0
100
AcDbLine
 10
205.5584038700475
 20
379.2265473812285
 30
0.0
 11
205.5584038700475
 21
377.2265473812285
 31
0.0
  0
LINE
  5
736
330
2
100
AcDbEntity
  8
0
100
AcDbLine
 10
239.0584038700475
 20
380.2265473812285
 30
0.0
 11
239.0584038700475
 21
382.2265473812285
 31
0.0
  0
ARC
  5
737
330
2
100
AcDbEntity
  8
0
100
AcDbCircle
 10
254.5584038700475
 20
377.2265473812285
 30
0.0
 40
2.0
100
AcDbArc
 50
180.0
 51
270.0
  0
ARC
  5
738
330
2
100
AcDbEntity
  8
0
100
AcDbCircle
 10
251.5584198700475
 20
379.2265473812285
 30
0.0
 40
1.0
100
AcDbArc
 50
0.0
 51
90.0
  0
LINE
  5
739
330
2
100
AcDbEntity
  8
0
100
AcDbLine
 10
252.5584198700475
 20
379.2265473812285
 30
0.0
 11
252.5584198700475
 21
377.2265473812285
 31
0.0
  0
LINE
  5
73A
330
2
100
AcDbEntity
  8
0
100
AcDbLine
 10
240.5584038700475
 20
385.2265473812285
 30
0.0
 11
237.5434048700475
 21
385.2265473812285
 31
0.0
  0
LINE
  5
73B
330
2
100
AcDbEntity
  8
0
100
AcDbLine
 10
238.0584038700475
 20
382.2265473812285
 30
0.0
 11
238.0584038700475
 21
385.2265473812285
 31
0.0
  0
LINE
  5
73C
330
2
100
AcDbEntity
  8
0
100
AcDbLine
 10
240.5584038700475
 20
412.2265473812285
 30
0.0
 11
220.0584038700475
 21
412.2265473812285
 31
0.0
  0
LINE
  5
73D
330
2
100
AcDbEntity
  8
0
100
AcDbLine
 10
455.1589138700474
 20
52.79747438122853
 30
0.0
 11
402.9579248700476
 21
52.79747438122853
 31
0.0
  0
LINE
  5
73E
330
2
100
AcDbEntity
  8
CENTER
100
AcDbLine
 10
371.0584198700475
 20
99.79747338122855
 30
0.0
 11
486.0584198700475
 21
99.79747338122855
 31
0.0
  0
LINE
  5
73F
330
2
100
AcDbEntity
  8
0
100
AcDbLine
 10
403.0584198700475
 20
54.79747438122854
 30
0.0
 11
455.0584198700476
 21
54.79747438122854
 31
0.0
  0
LINE
  5
740
330
2
100
AcDbEntity
  8
0
100
AcDbLine
 10
463.9274078700475
 20
80.99747438122856
 30
0.0
 11
394.0584198700475
 21
80.99747438122856
 31
0.0
  0
LINE
  5
741
330
2
100
AcDbEntity
  8
0
100
AcDbLine
 10
463.9274078700475
 20
139.9974743812285
 30
0.0
 11
396.2242218700475
 21
139.9974743812285
 31
0.0
  0
LINE
  5
742
330
2
100
AcDbEntity
  8
0
100
AcDbLine
 10
463.1108178700476
 20
57.44602438122853
 30
0.0
 11
393.0235068700475
 21
56.22239438122855
 31
0.0
  0
LINE
  5
743
330
2
100
AcDbEntity
  8
0
100
AcDbLine
 10
463.1106958700475
 20
163.5489113812285
 30
0.0
 11
393.0235068700475
 21
164.7720183812285
 31
0.0
  0
LINE
  5
744
330
2
100
AcDbEntity
  8
CENTER
100
AcDbLine
 10
345.0584198700476
 20
125.4974743812285
 30
0.0
 11
513.0584198700476
 21
125.4974743812285
 31
0.0
  0
LINE
  5
745
330
2
100
AcDbEntity
  8
0
100
AcDbLine
 10
381.0584198700475
 20
51.49747438122855
 30
0.0
 11
381.0584198700475
 21
116.4974743812285
 31
0.0
  0
LINE
  5
746
330
2
100
AcDbEntity
  8
0
100
AcDbLine
 10
391.0584198700475
 20
167.4974743812285
 30
0.0
 11
391.0584198700475
 21
97.10997338122854
 31
0.0
  0
LINE
  5
748
330
2
100
AcDbEntity
  8
0
100
AcDbLine
 10
387.0584198700475
 20
147.9974663812285
 30
0.0
 11
387.0584198700475
 21
102.9974663812285
 31
0.0
  0
LINE
  5
749
330
2
100
AcDbEntity
  8
0
100
AcDbLine
 10
277.0584038700475
 20
126.1898343812285
 30
0.0
 11
277.0584038700475
 21
94.80543838122855
 31
0.0
  0
LINE
  5
74A
330
2
100
AcDbEntity
  8
0
100
AcDbLine
 10
279.5584038700475
 20
80.99747438122856
 30
0.0
 11
279.5584038700475
 21
139.9974743812285
 31
0.0
  0
LINE
  5
74B
330
2
100
AcDbEntity
  8
0
100
AcDbLine
 10
275.0513088700475
 20
74.10205438122855
 30
0.0
 11
277.0585108700475
 21
94.80543838122855
 31
0.0
  0
LINE
  5
74C
330
2
100
AcDbEntity
  8
0
100
AcDbLine
 10
278.0351038700475
 20
59.85091338122856
 30
0.0
 11
279.5584038700475
 21
80.99747438122856
 31
0.0
  0
ARC
  5
74D
330
2
100
AcDbEntity
  8
0
100
AcDbCircle
 10
402.9579248700476
 20
59.79747338122854
 30
0.0
 40
7.0
100
AcDbArc
 50
225.0001069999998
 51
270.0
  0
ARC
  5
74E
330
2
100
AcDbEntity
  8
0
100
AcDbCircle
 10
389.5238128700475
 20
53.49747438122856
 30
0.0
 40
2.0
100
AcDbArc
 50
270.0
 51
344.9999999999996
  0
ARC
  5
74F
330
2
100
AcDbEntity
  8
0
100
AcDbCircle
 10
389.0584198700475
 20
53.49746438122855
 30
0.0
 40
2.0
100
AcDbArc
 50
270.0
 51
0.0
  0
LINE
  5
750
330
2
100
AcDbEntity
  8
0
100
AcDbLine
 10
389.5238128700475
 20
51.49747438122855
 30
0.0
 11
381.0584198700475
 21
51.49747438122855
 31
0.0
  0
LINE
  5
752
330
2
100
AcDbEntity
  8
HIDS
100
AcDbLine
 10
381.0584198700475
 20
56.24747438122856
 30
0.0
 11
391.0584198700475
 21
56.24747438122856
 31
0.0
  0
LINE
  5
753
330
2
100
AcDbEntity
  8
HIDS
100
AcDbLine
 10
381.0584198700475
 20
64.74747438122856
 30
0.0
 11
391.0584198700475
 21
64.74747438122856
 31
0.0
  0
LINE
  5
754
330
2
100
AcDbEntity
  8
CENTER
100
AcDbLine
 10
376.0584198700474
 20
60.49747438122856
 30
0.0
 11
396.0584198700475
 21
60.49747438122858
 31
0.0
  0
ARC
  5
755
330
2
100
AcDbEntity
  8
0
100
AcDbCircle
 10
394.0584198700475
 20
77.99749338122854
 30
0.0
 40
3.0
100
AcDbArc
 50
90.0
 51
180.0
  0
ARC
  5
756
330
2
100
AcDbEntity
  8
0
100
AcDbCircle
 10
403.0584198700475
 20
57.79747438122853
 30
0.0
 40
3.0
100
AcDbArc
 50
208.8119050000002
 51
270.0
  0
LINE
  5
757
330
2
100
AcDbEntity
  8
0
100
AcDbLine
 10
391.0584198700475
 20
53.49747438122856
 30
0.0
 11
391.0584198700475
 21
77.99748538122855
 31
0.0
  0
ARC
  5
758
330
2
100
AcDbEntity
  8
0
100
AcDbCircle
 10
394.6467978700475
 20
53.25028438122854
 30
0.0
 40
3.0
100
AcDbArc
 50
91.00052599999987
 51
164.3520970000002
  0
ARC
  5
759
330
2
100
AcDbEntity
  8
0
100
AcDbCircle
 10
393.0584198700475
 20
54.22270438122854
 30
0.0
 40
2.0
100
AcDbArc
 50
91.00063300000034
 51
180.0
  0
LINE
  5
75A
330
2
100
AcDbEntity
  8
0
100
AcDbLine
 10
391.4556058700475
 20
52.97983438122855
 30
0.0
 11
391.7457058700475
 21
54.06274438122856
 31
0.0
  0
LINE
  5
75B
330
2
100
AcDbEntity
  8
0
100
AcDbLine
 10
398.0080958700475
 20
54.84771438122857
 30
0.0
 11
396.5584198700475
 21
56.29746438122857
 31
0.0
  0
ARC
  5
75E
330
2
100
AcDbEntity
  8
0
100
AcDbCircle
 10
388.0584198700475
 20
102.9974703812285
 30
0.0
 40
1.0
100
AcDbArc
 50
180.0
 51
270.0
  0
LINE
  5
75F
330
2
100
AcDbEntity
  8
0
100
AcDbLine
 10
391.0584198700475
 20
101.9974703812285
 30
0.0
 11
388.0584198700475
 21
101.9974703812285
 31
0.0
  0
LINE
  5
762
330
2
100
AcDbEntity
  8
0
100
AcDbLine
 10
275.0513088700475
 20
146.8929363812285
 30
0.0
 11
277.0584038700475
 21
126.1898343812285
 31
0.0
  0
LINE
  5
763
330
2
100
AcDbEntity
  8
0
100
AcDbLine
 10
278.0351038700475
 20
161.1441033812285
 30
0.0
 11
279.5584038700475
 21
139.9974743812285
 31
0.0
  0
LINE
  5
764
330
2
100
AcDbEntity
  8
0
100
AcDbLine
 10
381.0584198700475
 20
169.4974743812285
 30
0.0
 11
381.0584198700475
 21
134.4974743812285
 31
0.0
  0
LINE
  5
765
330
2
100
AcDbEntity
  8
0
100
AcDbLine
 10
385.0584198700475
 20
116.4974743812285
 30
0.0
 11
355.0584198700475
 21
116.4974743812285
 31
0.0
  0
LINE
  5
766
330
2
100
AcDbEntity
  8
0
100
AcDbLine
 10
385.0584198700475
 20
134.4974743812285
 30
0.0
 11
355.0584198700475
 21
134.4974743812285
 31
0.0
  0
LINE
  5
768
330
2
100
AcDbEntity
  8
HIDS
100
AcDbLine
 10
381.0584198700475
 20
156.2474743812285
 30
0.0
 11
391.0584198700475
 21
156.2474743812285
 31
0.0
  0
LINE
  5
769
330
2
100
AcDbEntity
  8
CENTER
100
AcDbLine
 10
376.0584198700475
 20
160.4974743812285
 30
0.0
 11
396.0584198700475
 21
160.4974743812285
 31
0.0
  0
LINE
  5
76A
330
2
100
AcDbEntity
  8
0
100
AcDbLine
 10
355.0584198700475
 20
116.4974743812285
 30
0.0
 11
355.0584198700475
 21
134.4974743812285
 31
0.0
  0
LINE
  5
76B
330
2
100
AcDbEntity
  8
0
100
AcDbLine
 10
379.0584198700475
 20
122.4974743812285
 30
0.0
 11
355.0584198700475
 21
122.4974743812285
 31
0.0
  0
LINE
  5
76C
330
2
100
AcDbEntity
  8
0
100
AcDbLine
 10
379.0584198700475
 20
128.4974743812285
 30
0.0
 11
355.0584198700475
 21
128.4974743812285
 31
0.0
  0
ARC
  5
76D
330
2
100
AcDbEntity
  8
0
100
AcDbCircle
 10
379.0584198700475
 20
125.4974743812285
 30
0.0
 40
3.0
100
AcDbArc
 50
270.0
 51
90.0
  0
LINE
  5
76E
330
2
100
AcDbEntity
  8
0
100
AcDbLine
 10
385.0584198700475
 20
135.4974743812285
 30
0.0
 11
385.0584198700475
 21
115.4974743812285
 31
0.0
  0
LINE
  5
771
330
2
100
AcDbEntity
  8
0
100
AcDbLine
 10
387.0584198700475
 20
115.4974743812285
 30
0.0
 11
385.0584198700475
 21
115.4974743812285
 31
0.0
  0
LINE
  5
776
330
2
100
AcDbEntity
  8
0
100
AcDbLine
 10
387.0584198700475
 20
135.4974743812285
 30
0.0
 11
385.0584198700475
 21
135.4974743812285
 31
0.0
  0
ARC
  5
77A
330
2
100
AcDbEntity
  8
0
100
AcDbCircle
 10
388.0584198700475
 20
147.9974663812285
 30
0.0
 40
1.0
100
AcDbArc
 50
90.0
 51
180.0
  0
LINE
  5
77B
330
2
100
AcDbEntity
  8
0
100
AcDbLine
 10
391.0584198700475
 20
148.9974743812285
 30
0.0
 11
388.0584198700475
 21
148.9974743812285
 31
0.0
  0
LINE
  5
77C
330
2
100
AcDbEntity
  8
HIDS
100
AcDbLine
 10
381.0584198700475
 20
164.7474743812285
 30
0.0
 11
391.0584198700475
 21
164.7474743812285
 31
0.0
  0
LINE
  5
77D
330
2
100
AcDbEntity
  8
0
100
AcDbLine
 10
389.5238128700475
 20
169.4974743812285
 30
0.0
 11
381.0584198700475
 21
169.4974743812285
 31
0.0
  0
ARC
  5
77E
330
2
100
AcDbEntity
  8
0
100
AcDbCircle
 10
394.6340118700475
 20
167.7443843812285
 30
0.0
 40
3.0
100
AcDbArc
 50
195.0005040000001
 51
269.0004879999996
  0
ARC
  5
77F
330
2
100
AcDbEntity
  8
0
100
AcDbCircle
 10
393.0584198700475
 20
166.7717203812285
 30
0.0
 40
2.0
100
AcDbArc
 50
180.0
 51
269.0006099999996
  0
ARC
  5
780
330
2
100
AcDbEntity
  8
0
100
AcDbCircle
 10
389.5238128700475
 20
167.4974663812285
 30
0.0
 40
2.0
100
AcDbArc
 50
15.00029000000027
 51
90.0
  0
ARC
  5
781
330
2
100
AcDbEntity
  8
0
100
AcDbCircle
 10
389.0584198700475
 20
167.4974663812285
 30
0.0
 40
2.0
100
AcDbArc
 50
0.0
 51
90.0
  0
LINE
  5
782
330
2
100
AcDbEntity
  8
0
100
AcDbLine
 10
391.4556058700475
 20
168.0151133812285
 30
0.0
 11
391.7362148700475
 21
166.9678873812285
 31
0.0
  0
LINE
  5
783
330
2
100
AcDbEntity
  8
0
100
AcDbLine
 10
476.0584198700476
 20
73.69696438122855
 30
0.0
 11
476.0584198700476
 21
116.4974743812285
 31
0.0
  0
LINE
  5
784
330
2
100
AcDbEntity
  8
0
100
AcDbLine
 10
471.0584198700476
 20
147.9974663812285
 30
0.0
 11
471.0584198700476
 21
102.9974663812285
 31
0.0
  0
ARC
  5
785
330
2
100
AcDbEntity
  8
0
100
AcDbCircle
 10
429.0584198700475
 20
99.79747338122855
 30
0.0
 40
45.0
100
AcDbArc
 50
325.3078919999996
 51
20.42186000000034
  0
LINE
  5
786
330
2
100
AcDbEntity
  8
0
100
AcDbLine
 10
466.0584198700475
 20
160.5493543812285
 30
0.0
 11
466.0584198700475
 21
60.44555438122853
 31
0.0
  0
LINE
  5
787
330
2
100
AcDbEntity
  8
CENTER
100
AcDbLine
 10
429.0584198700475
 20
42.79747438122856
 30
0.0
 11
429.0584198700476
 21
196.6849923812285
 31
0.0
  0
ARC
  5
788
330
2
100
AcDbEntity
  8
0
100
AcDbCircle
 10
455.1589138700474
 20
59.79747338122854
 30
0.0
 40
7.0
100
AcDbArc
 50
270.0
 51
315.0000919999998
  0
ARC
  5
789
330
2
100
AcDbEntity
  8
0
100
AcDbCircle
 10
455.0584198700476
 20
57.79747438122853
 30
0.0
 40
3.0
100
AcDbArc
 50
270.0
 51
351.5618900000002
  0
ARC
  5
78A
330
2
100
AcDbEntity
  8
0
100
AcDbCircle
 10
469.0584198700475
 20
73.69695438122855
 30
0.0
 40
7.0
100
AcDbArc
 50
315.0001180000001
 51
0.0
  0
LINE
  5
78B
330
2
100
AcDbEntity
  8
0
100
AcDbLine
 10
474.0080958700475
 20
68.74722438122853
 30
0.0
 11
466.0584198700475
 21
60.79747338122854
 31
0.0
  0
ARC
  5
78C
330
2
100
AcDbEntity
  8
0
100
AcDbCircle
 10
463.0584198700476
 20
60.44555438122853
 30
0.0
 40
3.0
100
AcDbArc
 50
271.0003130000003
 51
0.0
  0
LINE
  5
78D
330
2
100
AcDbEntity
  8
0
100
AcDbLine
 10
460.1087128700474
 20
54.84772438122854
 30
0.0
 11
462.6998068700475
 21
57.43884438122853
 31
0.0
  0
ARC
  5
78E
330
2
100
AcDbEntity
  8
0
100
AcDbCircle
 10
468.0584198700476
 20
99.99748238122856
 30
0.0
 40
2.0
100
AcDbArc
 50
90.0
 51
180.0
  0
ARC
  5
78F
330
2
100
AcDbEntity
  8
0
100
AcDbCircle
 10
470.0584198700475
 20
102.9974703812285
 30
0.0
 40
1.0
100
AcDbArc
 50
270.0
 51
0.0
  0
LINE
  5
790
330
2
100
AcDbEntity
  8
0
100
AcDbLine
 10
468.0584198700476
 20
101.9974703812285
 30
0.0
 11
470.0584198700475
 21
101.9974703812285
 31
0.0
  0
LINE
  5
791
330
2
100
AcDbEntity
  8
0
100
AcDbLine
 10
479.0584198700476
 20
122.4974743812285
 30
0.0
 11
503.0584198700475
 21
122.4974743812285
 31
0.0
  0
LINE
  5
792
330
2
100
AcDbEntity
  8
0
100
AcDbLine
 10
479.0584198700476
 20
128.4974743812285
 30
0.0
 11
503.0584198700475
 21
128.4974743812285
 31
0.0
  0
LINE
  5
793
330
2
100
AcDbEntity
  8
0
100
AcDbLine
 10
473.0584198700475
 20
116.4974743812285
 30
0.0
 11
503.0584198700475
 21
116.4974743812285
 31
0.0
  0
LINE
  5
794
330
2
100
AcDbEntity
  8
0
100
AcDbLine
 10
473.0584198700475
 20
134.4974743812285
 30
0.0
 11
503.0584198700475
 21
134.4974743812285
 31
0.0
  0
ARC
  5
795
330
2
100
AcDbEntity
  8
0
100
AcDbCircle
 10
463.0584198700476
 20
160.5493543812285
 30
0.0
 40
3.0
100
AcDbArc
 50
0.0
 51
89.00035899999958
  0
LINE
  5
796
330
2
100
AcDbEntity
  8
0
100
AcDbLine
 10
473.0584198700475
 20
135.4974743812285
 30
0.0
 11
473.0584198700475
 21
115.4974743812285
 31
0.0
  0
ARC
  5
797
330
2
100
AcDbEntity
  8
0
100
AcDbCircle
 10
479.0584198700476
 20
125.4974743812285
 30
0.0
 40
3.0
100
AcDbArc
 50
90.0
 51
270.0
  0
LINE
  5
798
330
2
100
AcDbEntity
  8
0
100
AcDbLine
 10
471.0584198700476
 20
115.4974743812285
 30
0.0
 11
473.0584198700475
 21
115.4974743812285
 31
0.0
  0
LINE
  5
799
330
2
100
AcDbEntity
  8
0
100
AcDbLine
 10
471.0584198700476
 20
135.4974743812285
 30
0.0
 11
473.0584198700475
 21
135.4974743812285
 31
0.0
  0
ARC
  5
79A
330
2
100
AcDbEntity
  8
0
100
AcDbCircle
 10
468.0584198700476
 20
150.9974743812285
 30
0.0
 40
2.0
100
AcDbArc
 50
180.0
 51
270.0
  0
ARC
  5
79B
330
2
100
AcDbEntity
  8
0
100
AcDbCircle
 10
470.0584198700475
 20
147.9974663812285
 30
0.0
 40
1.0
100
AcDbArc
 50
0.0
 51
90.0
  0
LINE
  5
79C
330
2
100
AcDbEntity
  8
0
100
AcDbLine
 10
468.0584198700476
 20
148.9974743812285
 30
0.0
 11
470.0584198700475
 21
148.9974743812285
 31
0.0
  0
LINE
  5
79D
330
2
100
AcDbEntity
  8
0
100
AcDbLine
 10
503.0584198700475
 20
116.4974743812285
 30
0.0
 11
503.0584198700475
 21
134.4974743812285
 31
0.0
  0
LINE
  5
79E
330
2
100
AcDbEntity
  8
0
100
AcDbLine
 10
277.3836148700475
 20
373.2788843812286
 30
0.0
 11
279.5584038700475
 21
290.2265473812285
 31
0.0
  0
LINE
  5
79F
330
2
100
AcDbEntity
  8
HIDS
100
AcDbLine
 10
273.3084038700475
 20
300.2265473812285
 30
0.0
 11
273.3084038700475
 21
290.2265473812285
 31
0.0
  0
ARC
  5
7A0
330
2
100
AcDbEntity
  8
0
100
AcDbCircle
 10
277.3482448700475
 20
298.2265473812285
 30
0.0
 40
2.0
100
AcDbArc
 50
1.500000000000274
 51
90.0
  0
ARC
  5
7A2
330
2
100
AcDbEntity
  8
0
100
AcDbCircle
 10
275.3843018700475
 20
373.2265473812285
 30
0.0
 40
2.0
100
AcDbArc
 50
1.500000000000274
 51
90.0
  0
LWPOLYLINE
  5
8CA
330
2
100
AcDbEntity
  8
HOJO
100
AcDbPolyline
 90
       16
 70
     0
 43
0.0
 10
381.0584198700475
 20
153.2135923812285
 10
388.4959198700475
 20
152.2349773812285
 10
393.4959198700475
 20
148.9849773812285
 10
394.2459198700475
 20
144.5474773812285
 10
396.4100128700475
 20
139.5699763812285
 10
397.8709198700475
 20
138.6099773812285
 10
397.3709198700475
 20
132.6099773812285
 10
395.3709198700475
 20
129.1099773812285
 10
397.2459198700475
 20
123.6099773812285
 10
395.9959198700475
 20
111.6099773812285
 10
397.1209198700475
 20
106.9849733812285
 10
395.9959198700475
 20
102.7349733812285
 10
392.7459198700475
 20
97.85997338122854
 10
388.2459198700475
 20
95.85997338122854
 10
383.9959198700475
 20
93.23497338122853
 10
381.0584198700475
 20
92.83801638122856
  0
LINE
  5
8D3
330
2
100
AcDbEntity
  8
CENTER
100
AcDbLine
 10
182.2584008700475
 20
160.4974743812285
 30
0.0
 11
195.8584068700475
 21
160.4974743812285
 31
0.0
  0
LINE
  5
8D4
330
2
100
AcDbEntity
  8
CENTER
100
AcDbLine
 10
189.0584038700475
 20
153.6974713812285
 30
0.0
 11
189.0584038700475
 21
167.2974773812285
 31
0.0
  0
LINE
  5
8D5
330
2
100
AcDbEntity
  8
CENTER
100
AcDbLine
 10
182.2584008700475
 20
60.49747438122856
 30
0.0
 11
195.8584068700475
 21
60.49747438122856
 31
0.0
  0
LINE
  5
8D6
330
2
100
AcDbEntity
  8
CENTER
100
AcDbLine
 10
189.0584038700475
 20
53.69747138122855
 30
0.0
 11
189.0584038700475
 21
67.29747738122856
 31
0.0
  0
LINE
  5
8D7
330
2
100
AcDbEntity
  8
CENTER
100
AcDbLine
 10
262.2584008700475
 20
60.49747438122856
 30
0.0
 11
275.8584068700475
 21
60.49747438122856
 31
0.0
  0
LINE
  5
8D8
330
2
100
AcDbEntity
  8
CENTER
100
AcDbLine
 10
269.0584038700475
 20
53.69747138122855
 30
0.0
 11
269.0584038700475
 21
67.29747738122856
 31
0.0
  0
TEXT
  5
8EE
330
2
100
AcDbEntity
  8
TITLE
100
AcDbText
 10
412.323285186848
 20
315.0167252814615
 30
0.0
 40
5.0
  1
HFMN-18T-10~240-S90WK
 41
0.8
100
AcDbText
  0
TEXT
  5
8EF
330
2
100
AcDbEntity
  8
TITLE
100
AcDbText
 10
412.323285186848
 20
323.0167252814615
 30
0.0
 40
5.0
  1
HFMN-18T-10~240-S90K
 41
0.8
100
AcDbText
  0
TEXT
  5
8F0
330
2
100
AcDbEntity
  8
TITLE
100
AcDbText
 10
412.323285186848
 20
331.0167252814615
 30
0.0
 40
5.0
  1
HFMN-18T-10~240-S60WK
 41
0.8
100
AcDbText
  0
TEXT
  5
8F1
330
2
100
AcDbEntity
  8
TITLE
100
AcDbText
 10
412.323285186848
 20
339.0167252814615
 30
0.0
 40
5.0
  1
HFMN-18T-10~240-S60K
 41
0.8
100
AcDbText
  0
TEXT
  5
8F2
330
2
100
AcDbEntity
  8
TITLE
100
AcDbText
 10
412.323285186848
 20
347.0167252814615
 30
0.0
 40
5.0
  1
HFMN-18T-160~240-S40WK
 41
0.8
100
AcDbText
  0
TEXT
  5
8F3
330
2
100
AcDbEntity
  8
TITLE
100
AcDbText
 10
412.323285186848
 20
355.0167252814615
 30
0.0
 40
5.0
  1
HFMN-18T-160~240-S40K
 41
0.8
100
AcDbText
  0
TEXT
  5
8F4
330
2
100
AcDbEntity
  8
TITLE
100
AcDbText
 10
319.9927538103933
 20
339.0167252814615
 30
0.0
 40
5.0
  1
HFMN-18T-80~240-T60K
 41
0.8
100
AcDbText
  0
TEXT
  5
8F5
330
2
100
AcDbEntity
  8
TITLE
100
AcDbText
 10
319.9927538103933
 20
315.0167252814615
 30
0.0
 40
5.0
  1
HFMN-18T-10~240-T90WK
 41
0.8
100
AcDbText
  0
TEXT
  5
8F6
330
2
100
AcDbEntity
  8
TITLE
100
AcDbText
 10
319.9927538103933
 20
323.0167252814615
 30
0.0
 40
5.0
  1
HFMN-18T-10~240-T90K
 41
0.8
100
AcDbText
  0
TEXT
  5
8F7
330
2
100
AcDbEntity
  8
TITLE
100
AcDbText
 10
319.9927538103933
 20
331.0167252814615
 30
0.0
 40
5.0
  1
HFMN-18T-10~240-T60WK
 41
0.8
100
AcDbText
  0
TEXT
  5
8F8
330
2
100
AcDbEntity
  8
TITLE
100
AcDbText
 10
319.9927538103933
 20
347.0167252814615
 30
0.0
 40
5.0
  1
HFMN-18T-160~240-T40WK
 41
0.8
100
AcDbText
  0
TEXT
  5
8F9
330
2
100
AcDbEntity
  8
TITLE
100
AcDbText
 10
319.9927538103933
 20
355.0167252814615
 30
0.0
 40
5.0
  1
HFMN-18T-160~240-T40K
 41
0.8
100
AcDbText
  0
ARC
  5
186E
330
2
100
AcDbEntity
  8
0
100
AcDbCircle
 10
143.5584038700475
 20
359.7265473812285
 30
0.0
 40
4.0
100
AcDbArc
 50
180.0
 51
270.0
  0
CIRCLE
  5
186F
330
2
100
AcDbEntity
  8
0
100
AcDbCircle
 10
143.5584038700475
 20
359.7265473812285
 30
0.0
 40
3.500000000000028
  0
ARC
  5
1870
330
2
100
AcDbEntity
  8
0
100
AcDbCircle
 10
100.5582968700475
 20
359.7265473812285
 30
0.0
 40
4.0
100
AcDbArc
 50
270.0
 51
0.0
  0
CIRCLE
  5
1871
330
2
100
AcDbEntity
  8
0
100
AcDbCircle
 10
100.5582968700475
 20
359.7265473812285
 30
0.0
 40
3.500000000000028
  0
LINE
  5
1872
330
2
100
AcDbEntity
  8
0
100
AcDbLine
 10
97.05829687004758
 20
315.2265473812285
 30
0.0
 11
97.05829687004758
 21
361.2265473812285
 31
0.0
  0
LINE
  5
1873
330
2
100
AcDbEntity
  8
CENTER
100
AcDbLine
 10
122.0584038700475
 20
308.18294040002
 30
0.0
 11
122.0584038700475
 21
368.270154362437
 31
0.0
  0
LINE
  5
1874
330
2
100
AcDbEntity
  8
0
100
AcDbLine
 10
147.0584038700475
 20
361.2265473812285
 30
0.0
 11
147.0582058700475
 21
315.2265473812285
 31
0.0
  0
ARC
  5
1876
330
2
100
AcDbEntity
  8
0
100
AcDbCircle
 10
143.5584038700475
 20
316.7264553812285
 30
0.0
 40
4.0
100
AcDbArc
 50
90.0
 51
180.0
  0
LINE
  5
1878
330
2
100
AcDbEntity
  8
0
100
AcDbLine
 10
99.05829687004757
 20
313.2265473812285
 30
0.0
 11
145.0582058700475
 21
313.2265473812285
 31
0.0
  0
CIRCLE
  5
1879
330
2
100
AcDbEntity
  8
0
100
AcDbCircle
 10
143.5584038700475
 20
316.7264553812285
 30
0.0
 40
3.500000000000028
  0
ARC
  5
187A
330
2
100
AcDbEntity
  8
0
100
AcDbCircle
 10
141.4513931164546
 20
189.8036051054749
 30
0.0
 40
1.3
100
AcDbArc
 50
105.8808500082775
 51
174.9999999999999
  0
LINE
  5
187B
330
2
100
AcDbEntity
  8
0
100
AcDbLine
 10
139.5584038700475
 20
188.7974923812285
 30
0.0
 11
147.0584038700475
 21
188.7974923812286
 31
0.0
  0
LINE
  5
187C
330
2
100
AcDbEntity
  8
0
100
AcDbLine
 10
101.8963126860741
 20
191.2974923812285
 30
0.0
 11
142.2204950540211
 21
191.2974923812285
 31
0.0
  0
LINE
  5
187D
330
2
100
AcDbEntity
  8
CENTER
100
AcDbLine
 10
92.01479688883898
 20
174.2974773812285
 30
0.0
 11
152.102010851256
 21
174.2974773812285
 31
0.0
  0
LINE
  5
187E
330
2
100
AcDbEntity
  8
0
100
AcDbLine
 10
98.55839687004754
 20
146.2974773812285
 30
0.0
 11
145.0584038700475
 21
146.2974773812285
 31
0.0
  0
LINE
  5
187F
330
2
100
AcDbEntity
  8
0
100
AcDbLine
 10
97.05839687004754
 20
158.2974773812285
 30
0.0
 11
147.0584038700475
 21
158.2974773812285
 31
0.0
  0
LINE
  5
1880
330
2
100
AcDbEntity
  8
0
100
AcDbLine
 10
97.05839687004754
 20
148.2974773812285
 30
0.0
 11
147.0584038700475
 21
148.2974773812285
 31
0.0
  0
LINE
  5
1881
330
2
100
AcDbEntity
  8
0
100
AcDbLine
 10
97.05839687004754
 20
159.2974773812285
 30
0.0
 11
147.0584038700475
 21
159.2974773812285
 31
0.0
  0
LINE
  5
1899
330
2
100
AcDbEntity
  8
CENTER
100
AcDbLine
 10
122.0584038700475
 20
139.9079813812285
 30
0.0
 11
122.0584038700475
 21
196.6849923812285
 31
0.0
  0
LINE
  5
189A
330
2
100
AcDbEntity
  8
0
100
AcDbLine
 10
97.05839687004754
 20
190.2974923812285
 30
0.0
 11
97.05839687004754
 21
148.2974773812285
 31
0.0
  0
LINE
  5
189B
330
2
100
AcDbEntity
  8
0
100
AcDbLine
 10
98.55839687004754
 20
146.2974773812285
 30
0.0
 11
98.55839687004754
 21
144.7974773812285
 31
0.0
  0
LINE
  5
189C
330
2
100
AcDbEntity
  8
0
100
AcDbLine
 10
97.05839687004754
 20
148.2974773812285
 30
0.0
 11
99.05839687004755
 21
146.2974773812285
 31
0.0
  0
LINE
  5
189D
330
2
100
AcDbEntity
  8
0
100
AcDbLine
 10
96.18339687004755
 20
163.7974773812285
 30
0.0
 11
98.18339687004755
 21
163.7974773812285
 31
0.0
  0
LINE
  5
189E
330
2
100
AcDbEntity
  8
0
100
AcDbLine
 10
104.5584038700475
 20
190.2974923812285
 30
0.0
 11
139.5584038700475
 21
190.2974923812285
 31
0.0
  0
LINE
  5
189F
330
2
100
AcDbEntity
  8
0
100
AcDbLine
 10
97.05840387004753
 20
188.7974923812286
 30
0.0
 11
97.15634000893544
 21
189.9169075710468
 31
0.0
  0
LINE
  5
18A0
330
2
100
AcDbEntity
  8
0
100
AcDbLine
 10
104.0584038700475
 20
188.7974923812286
 30
0.0
 11
103.9604677311596
 21
189.9169075710468
 31
0.0
  0
LINE
  5
18A1
330
2
100
AcDbEntity
  8
0
100
AcDbLine
 10
104.5584038700475
 20
188.7974923812285
 30
0.0
 11
104.5584038700475
 21
190.7974923812286
 31
0.0
  0
LINE
  5
18A2
330
2
100
AcDbEntity
  8
0
100
AcDbLine
 10
104.5584038700475
 20
188.7974923812285
 30
0.0
 11
97.05840387004753
 21
188.7974923812286
 31
0.0
  0
LINE
  5
18A3
330
2
100
AcDbEntity
  8
0
100
AcDbLine
 10
96.18339687004755
 20
184.7974773812285
 30
0.0
 11
98.18339687004755
 21
184.7974773812285
 31
0.0
  0
SPLINE
  5
18A4
330
2
100
AcDbEntity
  8
0
100
AcDbSpline
210
0.0
220
0.0
230
1.0
 70
     8
 71
     3
 72
    11
 73
     7
 74
     0
 42
0.0000000001
 43
0.0000000001
 40
0.0
 40
0.0
 40
0.0
 40
0.0
 40
0.4601364636755307
 40
1.04988694485363
 40
1.713742833862792
 40
2.320347933405154
 40
2.320347933405154
 40
2.320347933405154
 40
2.320347933405179
 10
100.8459038705025
 20
189.8804923812285
 30
0.0
 10
100.8683215276104
 20
190.0355158209084
 30
0.0
 10
100.9194715828435
 20
190.3892306388259
 30
0.0
 10
101.3553567443772
 20
190.8139583104276
 30
0.0
 10
101.9604074593846
 20
191.0331454903935
 30
0.0
 10
102.3855920835604
 20
190.9641541907829
 30
0.0
 10
102.5881436932115
 20
190.9499339186062
 30
0.0
  0
ARC
  5
18A5
330
2
100
AcDbEntity
  8
0
100
AcDbCircle
 10
100.5584038700475
 20
182.3974923812286
 30
0.0
 40
9.0
100
AcDbArc
 50
74.1191499917157
 51
105.8808500082775
  0
SPLINE
  5
18A6
330
2
100
AcDbEntity
  8
0
100
AcDbSpline
210
0.0
220
0.0
230
1.0
 70
     8
 71
     3
 72
    11
 73
     7
 74
     0
 42
0.0000000001
 43
0.0000000001
 40
0.0
 40
0.0
 40
0.0
 40
0.0
 40
0.4601364636755307
 40
1.04988694485363
 40
1.713742833862792
 40
2.320347933405154
 40
2.320347933405154
 40
2.320347933405154
 40
2.320347933405179
 10
100.2709038695924
 20
189.8804923812285
 30
0.0
 10
100.2484862124846
 20
190.0355158209084
 30
0.0
 10
100.1973361572512
 20
190.3892306388259
 30
0.0
 10
99.76145099571773
 20
190.8139583104276
 30
0.0
 10
99.15640028071027
 20
191.0331454903935
 30
0.0
 10
98.73121565653447
 20
190.9641541907829
 30
0.0
 10
98.52866404688336
 20
190.9499339186062
 30
0.0
  0
LINE
  5
18A7
330
2
100
AcDbEntity
  8
0
100
AcDbLine
 10
98.05840387004753
 20
191.2974923812285
 30
0.0
 11
97.05840387004753
 21
190.2974923812285
 31
0.0
  0
LINE
  5
18A8
330
2
100
AcDbEntity
  8
0
100
AcDbLine
 10
98.52866404688336
 20
190.9499339186062
 30
0.0
 11
98.50840387004746
 21
191.1609106640677
 31
0.0
  0
ARC
  5
18A9
330
2
100
AcDbEntity
  8
0
100
AcDbCircle
 10
98.45139311645461
 20
189.8036051054749
 30
0.0
 40
1.3
100
AcDbArc
 50
105.8808500082775
 51
174.9999999999999
  0
LINE
  5
18AA
330
2
100
AcDbEntity
  8
0
100
AcDbLine
 10
99.22049505402107
 20
191.2974923812285
 30
0.0
 11
98.05840387004753
 21
191.2974923812285
 31
0.0
  0
LINE
  5
18AB
330
2
100
AcDbEntity
  8
0
100
AcDbLine
 10
100.2709038695924
 20
189.8804923812285
 30
0.0
 11
100.8459038705025
 21
189.8804923812285
 31
0.0
  0
ARC
  5
18AC
330
2
100
AcDbEntity
  8
0
100
AcDbCircle
 10
102.6654146236404
 20
189.8036051054749
 30
0.0
 40
1.3
100
AcDbArc
 50
5.000000000000026
 51
74.1191499917157
  0
LINE
  5
18AD
330
2
100
AcDbEntity
  8
0
100
AcDbLine
 10
104.5584038700475
 20
190.7974923812285
 30
0.0
 11
103.5033812596678
 21
190.7974923812285
 31
0.0
  0
LINE
  5
18AE
330
2
100
AcDbEntity
  8
0
100
AcDbLine
 10
105.0584038700475
 20
191.2974923812285
 30
0.0
 11
104.5584038700475
 21
190.7974923812285
 31
0.0
  0
LINE
  5
18AF
330
2
100
AcDbEntity
  8
0
100
AcDbLine
 10
102.5881436932115
 20
190.9499339186062
 30
0.0
 11
102.6084038700474
 21
191.1609106640677
 31
0.0
  0
LINE
  5
18B0
330
2
100
AcDbEntity
  8
0
100
AcDbLine
 10
140.0584038700476
 20
188.7974923812286
 30
0.0
 11
140.1563400089354
 21
189.9169075710468
 31
0.0
  0
LINE
  5
18B1
330
2
100
AcDbEntity
  8
0
100
AcDbLine
 10
139.5584038700475
 20
188.7974923812285
 30
0.0
 11
139.5584038700475
 21
190.7974923812286
 31
0.0
  0
LINE
  5
18B2
330
2
100
AcDbEntity
  8
0
100
AcDbLine
 10
139.5584038700475
 20
190.7974923812285
 30
0.0
 11
140.6134264804271
 21
190.7974923812285
 31
0.0
  0
LINE
  5
18B3
330
2
100
AcDbEntity
  8
0
100
AcDbLine
 10
139.0584038700475
 20
191.2974923812285
 30
0.0
 11
139.5584038700475
 21
190.7974923812285
 31
0.0
  0
ARC
  5
18B4
330
2
100
AcDbEntity
  8
0
100
AcDbCircle
 10
100.5582968700475
 20
316.7264553812285
 30
0.0
 40
4.0
100
AcDbArc
 50
0.0
 51
90.0
  0
CIRCLE
  5
18B5
330
2
100
AcDbEntity
  8
0
100
AcDbCircle
 10
100.5582968700475
 20
316.7264553812285
 30
0.0
 40
3.500000000000028
  0
LINE
  5
18B6
330
2
100
AcDbEntity
  8
0
100
AcDbLine
 10
139.5582058700475
 20
315.2265473812285
 30
0.0
 11
104.5582968700475
 21
315.2265473812285
 31
0.0
  0
ARC
  5
18B7
330
2
100
AcDbEntity
  8
0
100
AcDbCircle
 10
102.5879968700475
 20
318.7561553812285
 30
0.0
 40
1.742199999999999
100
AcDbArc
 50
179.9986903345002
 51
270.0013096654997
  0
ARC
  5
18B8
330
2
100
AcDbEntity
  8
0
100
AcDbCircle
 10
102.5879968700475
 20
314.6967553812285
 30
0.0
 40
1.742199999999999
100
AcDbArc
 50
89.99869033450025
 51
180.0013096654997
  0
ARC
  5
18B9
330
2
100
AcDbEntity
  8
0
100
AcDbCircle
 10
98.52859687004741
 20
318.7561553812285
 30
0.0
 40
1.742199999999999
100
AcDbArc
 50
269.9986903345067
 51
0.0013096654997424
  0
ARC
  5
18BA
330
2
100
AcDbEntity
  8
0
100
AcDbCircle
 10
100.5582968700475
 20
316.7264553812285
 30
0.0
 40
2.049999999999998
100
AcDbArc
 50
180.0
 51
188.0619600839816
  0
ARC
  5
18BB
330
2
100
AcDbEntity
  8
0
100
AcDbCircle
 10
100.5582968700475
 20
316.7264553812285
 30
0.0
 40
2.049999999999998
100
AcDbArc
 50
171.9380399160183
 51
180.0
  0
ARC
  5
18BC
330
2
100
AcDbEntity
  8
0
100
AcDbCircle
 10
100.5582968700475
 20
316.7264553812285
 30
0.0
 40
2.049999999999998
100
AcDbArc
 50
81.93803991601813
 51
90.0
  0
ARC
  5
18BD
330
2
100
AcDbEntity
  8
0
100
AcDbCircle
 10
100.5582968700475
 20
316.7264553812285
 30
0.0
 40
2.049999999999998
100
AcDbArc
 50
90.0
 51
98.06196008398188
  0
ARC
  5
18BE
330
2
100
AcDbEntity
  8
0
100
AcDbCircle
 10
100.5582968700475
 20
316.7264553812285
 30
0.0
 40
2.049999999999998
100
AcDbArc
 50
270.0
 51
278.0619600839818
  0
ARC
  5
18BF
330
2
100
AcDbEntity
  8
0
100
AcDbCircle
 10
100.5582968700475
 20
316.7264553812285
 30
0.0
 40
2.049999999999998
100
AcDbArc
 50
261.9380399160181
 51
270.0
  0
ARC
  5
18C0
330
2
100
AcDbEntity
  8
0
100
AcDbCircle
 10
98.52859687004741
 20
314.6967553812285
 30
0.0
 40
1.742199999999999
100
AcDbArc
 50
359.9986903345002
 51
90.00130966549322
  0
LINE
  5
18C1
330
2
100
AcDbEntity
  8
0
100
AcDbLine
 10
97.05829687004758
 20
315.2265473812285
 30
0.0
 11
99.05829687004757
 21
313.2265473812285
 31
0.0
  0
ARC
  5
18C2
330
2
100
AcDbEntity
  8
0
100
AcDbCircle
 10
100.5582968700475
 20
316.7264553812285
 30
0.0
 40
2.049999999999998
100
AcDbArc
 50
351.9380399160183
 51
0.0
  0
ARC
  5
18C3
330
2
100
AcDbEntity
  8
0
100
AcDbCircle
 10
100.5582968700475
 20
316.7264553812285
 30
0.0
 40
2.049999999999998
100
AcDbArc
 50
0.0
 51
8.061960083981649
  0
LINE
  5
18C4
330
2
100
AcDbEntity
  8
0
100
AcDbLine
 10
104.5582968700475
 20
316.7264553812285
 30
0.0
 11
104.5582968700475
 21
313.2265473812285
 31
0.0
  0
LINE
  5
18C5
330
2
100
AcDbEntity
  8
0
100
AcDbLine
 10
139.5582058700475
 20
316.7264553812285
 30
0.0
 11
139.5582058700475
 21
313.2265473812285
 31
0.0
  0
LINE
  5
18C6
330
2
100
AcDbEntity
  8
0
100
AcDbLine
 10
99.05829687004757
 20
355.7265473812285
 30
0.0
 11
99.05829687004757
 21
320.7265473812285
 31
0.0
  0
LINE
  5
18C7
330
2
100
AcDbEntity
  8
0
100
AcDbLine
 10
100.5582968700475
 20
320.7265473812285
 30
0.0
 11
97.05829687004758
 21
320.7265473812285
 31
0.0
  0
LINE
  5
18C8
330
2
100
AcDbEntity
  8
0
100
AcDbLine
 10
100.5582968700475
 20
355.7265473812285
 30
0.0
 11
97.05829687004758
 21
355.7265473812285
 31
0.0
  0
ARC
  5
18C9
330
2
100
AcDbEntity
  8
0
100
AcDbCircle
 10
407.5584198700473
 20
182.3974923812286
 30
0.0
 40
9.0
100
AcDbArc
 50
74.1191499917157
 51
105.8808500082775
  0
SPLINE
  5
18CA
330
2
100
AcDbEntity
  8
0
100
AcDbSpline
210
0.0
220
0.0
230
1.0
 70
     8
 71
     3
 72
    11
 73
     7
 74
     0
 42
0.0000000001
 43
0.0000000001
 40
0.0
 40
0.0
 40
0.0
 40
0.0
 40
0.4601364636755307
 40
1.04988694485363
 40
1.713742833862792
 40
2.320347933405154
 40
2.320347933405154
 40
2.320347933405154
 40
2.320347933405179
 10
407.8459198705025
 20
189.8804923812286
 30
0.0
 10
407.8683375276103
 20
190.0355158209085
 30
0.0
 10
407.9194875828437
 20
190.389230638826
 30
0.0
 10
408.3553727443773
 20
190.8139583104276
 30
0.0
 10
408.9604234593847
 20
191.0331454903935
 30
0.0
 10
409.3856080835606
 20
190.9641541907829
 30
0.0
 10
409.5881596932115
 20
190.9499339186062
 30
0.0
  0
LINE
  5
18CB
330
2
100
AcDbEntity
  8
0
100
AcDbLine
 10
411.5584198700476
 20
188.7974923812285
 30
0.0
 11
404.0584198700476
 21
188.7974923812286
 31
0.0
  0
LINE
  5
18D1
330
2
100
AcDbEntity
  8
CENTER
100
AcDbLine
 10
399.0148128888391
 20
174.2974773812285
 30
0.0
 11
459.1020268512561
 21
174.2974773812285
 31
0.0
  0
LINE
  5
18D2
330
2
100
AcDbEntity
  8
0
100
AcDbLine
 10
408.8963286860744
 20
191.2974923812285
 30
0.0
 11
449.2205110540208
 21
191.2974923812285
 31
0.0
  0
LINE
  5
18D3
330
2
100
AcDbEntity
  8
0
100
AcDbLine
 10
404.0584198700476
 20
190.2974923812285
 30
0.0
 11
404.0584198700477
 21
164.5794456796084
 31
0.0
  0
LINE
  5
18D4
330
2
100
AcDbEntity
  8
0
100
AcDbLine
 10
147.0584038700475
 20
190.2974923812285
 30
0.0
 11
147.0584038700475
 21
148.2974773812285
 31
0.0
  0
LINE
  5
18D6
330
2
100
AcDbEntity
  8
0
100
AcDbLine
 10
144.5584038700475
 20
146.2974773812285
 30
0.0
 11
144.5584038700475
 21
144.7974773812285
 31
0.0
  0
LINE
  5
18D7
330
2
100
AcDbEntity
  8
0
100
AcDbLine
 10
145.0584038700475
 20
146.2974773812285
 30
0.0
 11
147.0584038700475
 21
148.2974773812285
 31
0.0
  0
LINE
  5
18DA
330
2
100
AcDbEntity
  8
0
100
AcDbLine
 10
147.0584038700475
 20
188.7974923812286
 30
0.0
 11
146.9604677311597
 21
189.9169075710468
 31
0.0
  0
LINE
  5
18DB
330
2
100
AcDbEntity
  8
0
100
AcDbLine
 10
144.8963126860741
 20
191.2974923812285
 30
0.0
 11
146.0584038700475
 21
191.2974923812285
 31
0.0
  0
ARC
  5
18DC
330
2
100
AcDbEntity
  8
0
100
AcDbCircle
 10
145.6654146236404
 20
189.8036051054749
 30
0.0
 40
1.3
100
AcDbArc
 50
5.000000000000026
 51
74.1191499917157
  0
LINE
  5
18DD
330
2
100
AcDbEntity
  8
0
100
AcDbLine
 10
145.5881436932116
 20
190.9499339186062
 30
0.0
 11
145.6084038700477
 21
191.1609106640677
 31
0.0
  0
LINE
  5
18DE
330
2
100
AcDbEntity
  8
0
100
AcDbLine
 10
143.8459038705026
 20
189.8804923812285
 30
0.0
 11
143.2709038695926
 21
189.8804923812285
 31
0.0
  0
SPLINE
  5
18DF
330
2
100
AcDbEntity
  8
0
100
AcDbSpline
210
0.0
220
0.0
230
1.0
 70
     8
 71
     3
 72
    11
 73
     7
 74
     0
 42
0.0000000001
 43
0.0000000001
 40
0.0
 40
0.0
 40
0.0
 40
0.0
 40
0.4601364636755307
 40
1.04988694485363
 40
1.713742833862792
 40
2.320347933405154
 40
2.320347933405154
 40
2.320347933405154
 40
2.320347933405179
 10
143.8459038705026
 20
189.8804923812285
 30
0.0
 10
143.8683215276105
 20
190.0355158209084
 30
0.0
 10
143.9194715828438
 20
190.3892306388259
 30
0.0
 10
144.3553567443774
 20
190.8139583104276
 30
0.0
 10
144.9604074593847
 20
191.0331454903935
 30
0.0
 10
145.3855920835607
 20
190.9641541907829
 30
0.0
 10
145.5881436932116
 20
190.9499339186062
 30
0.0
  0
LINE
  5
18E0
330
2
100
AcDbEntity
  8
0
100
AcDbLine
 10
146.0584038700475
 20
191.2974923812285
 30
0.0
 11
147.0584038700475
 21
190.2974923812285
 31
0.0
  0
LINE
  5
18E1
330
2
100
AcDbEntity
  8
0
100
AcDbLine
 10
141.5286640468836
 20
190.9499339186062
 30
0.0
 11
141.5084038700475
 21
191.1609106640677
 31
0.0
  0
ARC
  5
18E2
330
2
100
AcDbEntity
  8
0
100
AcDbCircle
 10
143.5584038700476
 20
182.3974923812286
 30
0.0
 40
9.0
100
AcDbArc
 50
74.1191499917157
 51
105.8808500082775
  0
SPLINE
  5
18E3
330
2
100
AcDbEntity
  8
0
100
AcDbSpline
210
0.0
220
0.0
230
1.0
 70
     8
 71
     3
 72
    11
 73
     7
 74
     0
 42
0.0000000001
 43
0.0000000001
 40
0.0
 40
0.0
 40
0.0
 40
0.0
 40
0.4601364636755307
 40
1.04988694485363
 40
1.713742833862792
 40
2.320347933405154
 40
2.320347933405154
 40
2.320347933405154
 40
2.320347933405179
 10
143.2709038695926
 20
189.8804923812285
 30
0.0
 10
143.2484862124847
 20
190.0355158209084
 30
0.0
 10
143.1973361572514
 20
190.3892306388259
 30
0.0
 10
142.7614509957178
 20
190.8139583104276
 30
0.0
 10
142.1564002807104
 20
191.0331454903935
 30
0.0
 10
141.7312156565345
 20
190.9641541907829
 30
0.0
 10
141.5286640468836
 20
190.9499339186062
 30
0.0
  0
LINE
  5
18E4
330
2
100
AcDbEntity
  8
0
100
AcDbLine
 10
404.0584198700476
 20
188.7974923812286
 30
0.0
 11
404.1563560089356
 21
189.9169075710468
 31
0.0
  0
LINE
  5
18E5
330
2
100
AcDbEntity
  8
0
100
AcDbLine
 10
406.220511054021
 20
191.2974923812285
 30
0.0
 11
405.0584198700476
 21
191.2974923812285
 31
0.0
  0
ARC
  5
18E6
330
2
100
AcDbEntity
  8
0
100
AcDbCircle
 10
405.4514091164547
 20
189.8036051054749
 30
0.0
 40
1.3
100
AcDbArc
 50
105.8808500082775
 51
174.9999999999999
  0
LINE
  5
18E7
330
2
100
AcDbEntity
  8
0
100
AcDbLine
 10
405.5286800468834
 20
190.9499339186062
 30
0.0
 11
405.5084198700477
 21
191.1609106640678
 31
0.0
  0
LINE
  5
18E8
330
2
100
AcDbEntity
  8
0
100
AcDbLine
 10
407.2709198695925
 20
189.8804923812286
 30
0.0
 11
407.8459198705025
 21
189.8804923812286
 31
0.0
  0
SPLINE
  5
18E9
330
2
100
AcDbEntity
  8
0
100
AcDbSpline
210
0.0
220
0.0
230
1.0
 70
     8
 71
     3
 72
    11
 73
     7
 74
     0
 42
0.0000000001
 43
0.0000000001
 40
0.0
 40
0.0
 40
0.0
 40
0.0
 40
0.4601364636755307
 40
1.04988694485363
 40
1.713742833862792
 40
2.320347933405154
 40
2.320347933405154
 40
2.320347933405154
 40
2.320347933405179
 10
407.2709198695925
 20
189.8804923812286
 30
0.0
 10
407.2485022124845
 20
190.0355158209085
 30
0.0
 10
407.1973521572513
 20
190.389230638826
 30
0.0
 10
406.7614669957177
 20
190.8139583104276
 30
0.0
 10
406.1564162807104
 20
191.0331454903935
 30
0.0
 10
405.7312316565346
 20
190.9641541907829
 30
0.0
 10
405.5286800468834
 20
190.9499339186062
 30
0.0
  0
LINE
  5
18EA
330
2
100
AcDbEntity
  8
0
100
AcDbLine
 10
405.0584198700476
 20
191.2974923812285
 30
0.0
 11
404.0584198700476
 21
190.2974923812285
 31
0.0
  0
LINE
  5
18EB
330
2
100
AcDbEntity
  8
0
100
AcDbLine
 10
454.0584048700478
 20
190.2974923812285
 30
0.0
 11
454.0584048700478
 21
163.7068849088605
 31
0.0
  0
LINE
  5
18EF
330
2
100
AcDbEntity
  8
0
100
AcDbLine
 10
411.5584198700476
 20
190.2974923812285
 30
0.0
 11
446.5584198700476
 21
190.2974923812285
 31
0.0
  0
LINE
  5
18F0
330
2
100
AcDbEntity
  8
0
100
AcDbLine
 10
411.0584198700474
 20
188.7974923812286
 30
0.0
 11
410.9604837311597
 21
189.9169075710468
 31
0.0
  0
LINE
  5
18F1
330
2
100
AcDbEntity
  8
0
100
AcDbLine
 10
411.5584198700476
 20
188.7974923812285
 30
0.0
 11
411.5584198700476
 21
190.7974923812286
 31
0.0
  0
LINE
  5
18F2
330
2
100
AcDbEntity
  8
0
100
AcDbLine
 10
412.0584198700476
 20
191.2974923812285
 30
0.0
 11
411.5584198700476
 21
190.7974923812285
 31
0.0
  0
LINE
  5
18F3
330
2
100
AcDbEntity
  8
0
100
AcDbLine
 10
409.5881596932115
 20
190.9499339186062
 30
0.0
 11
409.6084198700475
 21
191.1609106640678
 31
0.0
  0
LINE
  5
18F4
330
2
100
AcDbEntity
  8
0
100
AcDbLine
 10
411.5584198700476
 20
190.7974923812285
 30
0.0
 11
410.503397259668
 21
190.7974923812285
 31
0.0
  0
ARC
  5
18F5
330
2
100
AcDbEntity
  8
0
100
AcDbCircle
 10
409.6654306236406
 20
189.8036051054749
 30
0.0
 40
1.3
100
AcDbArc
 50
5.000000000000026
 51
74.1191499917157
  0
LINE
  5
18F6
330
2
100
AcDbEntity
  8
0
100
AcDbLine
 10
454.0584198700476
 20
188.7974923812286
 30
0.0
 11
453.9604837311597
 21
189.9169075710468
 31
0.0
  0
LINE
  5
18F7
330
2
100
AcDbEntity
  8
0
100
AcDbLine
 10
446.5584198700476
 20
188.7974923812285
 30
0.0
 11
446.5584198700476
 21
190.7974923812286
 31
0.0
  0
LINE
  5
18F8
330
2
100
AcDbEntity
  8
0
100
AcDbLine
 10
447.0584198700478
 20
188.7974923812286
 30
0.0
 11
447.1563560089355
 21
189.9169075710468
 31
0.0
  0
LINE
  5
18F9
330
2
100
AcDbEntity
  8
0
100
AcDbLine
 10
446.5584198700476
 20
188.7974923812285
 30
0.0
 11
454.0584198700476
 21
188.7974923812286
 31
0.0
  0
ARC
  5
18FA
330
2
100
AcDbEntity
  8
0
100
AcDbCircle
 10
448.4514091164547
 20
189.8036051054749
 30
0.0
 40
1.3
100
AcDbArc
 50
105.8808500082775
 51
174.9999999999999
  0
LINE
  5
18FB
330
2
100
AcDbEntity
  8
0
100
AcDbLine
 10
446.5584198700476
 20
190.7974923812285
 30
0.0
 11
447.6134424804272
 21
190.7974923812285
 31
0.0
  0
LINE
  5
18FC
330
2
100
AcDbEntity
  8
0
100
AcDbLine
 10
446.0584198700476
 20
191.2974923812285
 30
0.0
 11
446.5584198700476
 21
190.7974923812285
 31
0.0
  0
LINE
  5
18FD
330
2
100
AcDbEntity
  8
0
100
AcDbLine
 10
451.8963286860742
 20
191.2974923812285
 30
0.0
 11
453.0584198700476
 21
191.2974923812285
 31
0.0
  0
SPLINE
  5
18FE
330
2
100
AcDbEntity
  8
0
100
AcDbSpline
210
0.0
220
0.0
230
1.0
 70
     8
 71
     3
 72
    11
 73
     7
 74
     0
 42
0.0000000001
 43
0.0000000001
 40
0.0
 40
0.0
 40
0.0
 40
0.0
 40
0.4601364636755307
 40
1.04988694485363
 40
1.713742833862792
 40
2.320347933405154
 40
2.320347933405154
 40
2.320347933405154
 40
2.320347933405179
 10
450.8459198705027
 20
189.8804923812286
 30
0.0
 10
450.8683375276107
 20
190.0355158209085
 30
0.0
 10
450.9194875828439
 20
190.389230638826
 30
0.0
 10
451.3553727443776
 20
190.8139583104276
 30
0.0
 10
451.9604234593849
 20
191.0331454903935
 30
0.0
 10
452.3856080835606
 20
190.9641541907829
 30
0.0
 10
452.5881596932118
 20
190.9499339186062
 30
0.0
  0
LINE
  5
18FF
330
2
100
AcDbEntity
  8
0
100
AcDbLine
 10
450.8459198705027
 20
189.8804923812286
 30
0.0
 11
450.2709198695927
 21
189.8804923812286
 31
0.0
  0
LINE
  5
1900
330
2
100
AcDbEntity
  8
0
100
AcDbLine
 10
452.5881596932118
 20
190.9499339186062
 30
0.0
 11
452.6084198700476
 21
191.1609106640678
 31
0.0
  0
LINE
  5
1901
330
2
100
AcDbEntity
  8
0
100
AcDbLine
 10
448.5286800468837
 20
190.9499339186062
 30
0.0
 11
448.5084198700477
 21
191.1609106640678
 31
0.0
  0
SPLINE
  5
1902
330
2
100
AcDbEntity
  8
0
100
AcDbSpline
210
0.0
220
0.0
230
1.0
 70
     8
 71
     3
 72
    11
 73
     7
 74
     0
 42
0.0000000001
 43
0.0000000001
 40
0.0
 40
0.0
 40
0.0
 40
0.0
 40
0.4601364636755307
 40
1.04988694485363
 40
1.713742833862792
 40
2.320347933405154
 40
2.320347933405154
 40
2.320347933405154
 40
2.320347933405179
 10
450.2709198695927
 20
189.8804923812286
 30
0.0
 10
450.248502212485
 20
190.0355158209085
 30
0.0
 10
450.1973521572516
 20
190.389230638826
 30
0.0
 10
449.7614669957179
 20
190.8139583104276
 30
0.0
 10
449.1564162807106
 20
191.0331454903935
 30
0.0
 10
448.7312316565347
 20
190.9641541907829
 30
0.0
 10
448.5286800468837
 20
190.9499339186062
 30
0.0
  0
LINE
  5
1903
330
2
100
AcDbEntity
  8
0
100
AcDbLine
 10
453.0584198700476
 20
191.2974923812285
 30
0.0
 11
454.0584198700476
 21
190.2974923812285
 31
0.0
  0
ARC
  5
1904
330
2
100
AcDbEntity
  8
0
100
AcDbCircle
 10
452.6654306236405
 20
189.8036051054749
 30
0.0
 40
1.3
100
AcDbArc
 50
5.000000000000026
 51
74.1191499917157
  0
ARC
  5
1905
330
2
100
AcDbEntity
  8
0
100
AcDbCircle
 10
450.5584198700478
 20
182.3974923812286
 30
0.0
 40
9.0
100
AcDbArc
 50
74.1191499917157
 51
105.8808500082775
  0
ARC
  5
1906
330
2
100
AcDbEntity
  8
0
100
AcDbCircle
 10
143.5584038700475
 20
316.7264553812285
 30
0.0
 40
2.049999999999998
100
AcDbArc
 50
351.9380399160183
 51
0.0
  0
ARC
  5
1907
330
2
100
AcDbEntity
  8
0
100
AcDbCircle
 10
143.5584038700475
 20
316.7264553812285
 30
0.0
 40
2.049999999999998
100
AcDbArc
 50
81.93803991601813
 51
90.0
  0
ARC
  5
1908
330
2
100
AcDbEntity
  8
0
100
AcDbCircle
 10
143.5584038700475
 20
316.7264553812285
 30
0.0
 40
2.049999999999998
100
AcDbArc
 50
90.0
 51
98.06196008398188
  0
ARC
  5
1909
330
2
100
AcDbEntity
  8
0
100
AcDbCircle
 10
143.5584038700475
 20
316.7264553812285
 30
0.0
 40
2.049999999999998
100
AcDbArc
 50
0.0
 51
8.061960083981649
  0
ARC
  5
190A
330
2
100
AcDbEntity
  8
0
100
AcDbCircle
 10
145.5881038700474
 20
318.7561553812285
 30
0.0
 40
1.742199999999999
100
AcDbArc
 50
179.9986903345002
 51
270.0013096654997
  0
ARC
  5
190B
330
2
100
AcDbEntity
  8
0
100
AcDbCircle
 10
143.5584038700475
 20
316.7264553812285
 30
0.0
 40
2.049999999999998
100
AcDbArc
 50
180.0
 51
188.0619600839816
  0
ARC
  5
190C
330
2
100
AcDbEntity
  8
0
100
AcDbCircle
 10
143.5584038700475
 20
316.7264553812285
 30
0.0
 40
2.049999999999998
100
AcDbArc
 50
171.9380399160183
 51
180.0
  0
ARC
  5
190D
330
2
100
AcDbEntity
  8
0
100
AcDbCircle
 10
141.5287038700473
 20
318.7561553812285
 30
0.0
 40
1.742199999999999
100
AcDbArc
 50
269.9986903345067
 51
0.0013096654997424
  0
ARC
  5
190E
330
2
100
AcDbEntity
  8
0
100
AcDbCircle
 10
143.5584038700475
 20
316.7264553812285
 30
0.0
 40
2.049999999999998
100
AcDbArc
 50
270.0
 51
278.0619600839818
  0
ARC
  5
190F
330
2
100
AcDbEntity
  8
0
100
AcDbCircle
 10
143.5584038700475
 20
316.7264553812285
 30
0.0
 40
2.049999999999998
100
AcDbArc
 50
261.9380399160181
 51
270.0
  0
ARC
  5
1910
330
2
100
AcDbEntity
  8
0
100
AcDbCircle
 10
141.5287038700473
 20
314.6967553812285
 30
0.0
 40
1.742199999999999
100
AcDbArc
 50
359.9986903345002
 51
90.00130966549322
  0
ARC
  5
1911
330
2
100
AcDbEntity
  8
0
100
AcDbCircle
 10
145.5881038700474
 20
314.6967553812285
 30
0.0
 40
1.742199999999999
100
AcDbArc
 50
89.99869033450025
 51
180.0013096654997
  0
LINE
  5
1912
330
2
100
AcDbEntity
  8
0
100
AcDbLine
 10
147.0582058700475
 20
315.2265473812285
 30
0.0
 11
145.0582058700475
 21
313.2265473812285
 31
0.0
  0
LINE
  5
1913
330
2
100
AcDbEntity
  8
0
100
AcDbLine
 10
145.0582058700475
 20
313.2265473812285
 30
0.0
 11
147.0582058700475
 21
315.2265473812285
 31
0.0
  0
LINE
  5
1914
330
2
100
AcDbEntity
  8
0
100
AcDbLine
 10
145.0582058700475
 20
355.7265473812285
 30
0.0
 11
145.0582058700475
 21
320.7265473812285
 31
0.0
  0
LINE
  5
1915
330
2
100
AcDbEntity
  8
0
100
AcDbLine
 10
143.5582058700475
 20
320.7265473812285
 30
0.0
 11
147.0582058700475
 21
320.7265473812285
 31
0.0
  0
LINE
  5
1916
330
2
100
AcDbEntity
  8
0
100
AcDbLine
 10
143.5582058700475
 20
355.7265473812285
 30
0.0
 11
147.0582058700475
 21
355.7265473812285
 31
0.0
  0
LINE
  5
1949
330
2
100
AcDbEntity
  8
0
100
AcDbLine
 10
99.05829687004757
 20
363.2265473812285
 30
0.0
 11
145.0582058700475
 21
363.2265473812285
 31
0.0
  0
LINE
  5
194A
330
2
100
AcDbEntity
  8
0
100
AcDbLine
 10
139.5582058700475
 20
361.2265473812285
 30
0.0
 11
104.5582968700475
 21
361.2265473812285
 31
0.0
  0
ARC
  5
194B
330
2
100
AcDbEntity
  8
0
100
AcDbCircle
 10
102.5879968700475
 20
361.7562473812284
 30
0.0
 40
1.742199999999999
100
AcDbArc
 50
179.9986903345002
 51
270.0013096654997
  0
ARC
  5
194C
330
2
100
AcDbEntity
  8
0
100
AcDbCircle
 10
102.5879968700475
 20
357.6968473812285
 30
0.0
 40
1.742199999999999
100
AcDbArc
 50
89.99869033450025
 51
180.0013096654997
  0
ARC
  5
194D
330
2
100
AcDbEntity
  8
0
100
AcDbCircle
 10
98.52859687004741
 20
361.7562473812284
 30
0.0
 40
1.742199999999999
100
AcDbArc
 50
269.9986903345067
 51
0.0013096654997424
  0
ARC
  5
194E
330
2
100
AcDbEntity
  8
0
100
AcDbCircle
 10
98.52859687004741
 20
357.6968473812285
 30
0.0
 40
1.742199999999999
100
AcDbArc
 50
359.9986903345002
 51
90.00130966549322
  0
ARC
  5
194F
330
2
100
AcDbEntity
  8
0
100
AcDbCircle
 10
100.5582968700475
 20
359.7265473812285
 30
0.0
 40
2.049999999999998
100
AcDbArc
 50
171.9380399160183
 51
180.0
  0
ARC
  5
1950
330
2
100
AcDbEntity
  8
0
100
AcDbCircle
 10
100.5582968700475
 20
359.7265473812285
 30
0.0
 40
2.049999999999998
100
AcDbArc
 50
180.0
 51
188.0619600839816
  0
ARC
  5
1951
330
2
100
AcDbEntity
  8
0
100
AcDbCircle
 10
100.5582968700475
 20
359.7265473812285
 30
0.0
 40
2.049999999999998
100
AcDbArc
 50
270.0
 51
278.0619600839818
  0
ARC
  5
1952
330
2
100
AcDbEntity
  8
0
100
AcDbCircle
 10
100.5582968700475
 20
359.7265473812285
 30
0.0
 40
2.049999999999998
100
AcDbArc
 50
261.9380399160181
 51
270.0
  0
LINE
  5
1953
330
2
100
AcDbEntity
  8
0
100
AcDbLine
 10
97.05829687004758
 20
361.2265473812285
 30
0.0
 11
99.05829687004757
 21
363.2265473812285
 31
0.0
  0
LINE
  5
1954
330
2
100
AcDbEntity
  8
0
100
AcDbLine
 10
97.05829687004758
 20
361.2265473812285
 30
0.0
 11
99.05829687004757
 21
363.2265473812285
 31
0.0
  0
ARC
  5
1955
330
2
100
AcDbEntity
  8
0
100
AcDbCircle
 10
100.5582968700475
 20
359.7265473812285
 30
0.0
 40
2.049999999999998
100
AcDbArc
 50
81.93803991601813
 51
90.0
  0
ARC
  5
1956
330
2
100
AcDbEntity
  8
0
100
AcDbCircle
 10
100.5582968700475
 20
359.7265473812285
 30
0.0
 40
2.049999999999998
100
AcDbArc
 50
90.0
 51
98.06196008398188
  0
LINE
  5
1957
330
2
100
AcDbEntity
  8
0
100
AcDbLine
 10
104.5582968700475
 20
359.7265473812285
 30
0.0
 11
104.5582968700475
 21
363.2263633812285
 31
0.0
  0
ARC
  5
1958
330
2
100
AcDbEntity
  8
0
100
AcDbCircle
 10
100.5582968700475
 20
359.7265473812285
 30
0.0
 40
2.049999999999998
100
AcDbArc
 50
0.0
 51
8.061960083981649
  0
ARC
  5
1959
330
2
100
AcDbEntity
  8
0
100
AcDbCircle
 10
100.5582968700475
 20
359.7265473812285
 30
0.0
 40
2.049999999999998
100
AcDbArc
 50
351.9380399160183
 51
0.0
  0
LINE
  5
195A
330
2
100
AcDbEntity
  8
0
100
AcDbLine
 10
139.5582058700475
 20
359.7265473812285
 30
0.0
 11
139.5582058700475
 21
363.2263633812285
 31
0.0
  0
ARC
  5
195B
330
2
100
AcDbEntity
  8
0
100
AcDbCircle
 10
145.5881038700474
 20
361.7562473812284
 30
0.0
 40
1.742199999999999
100
AcDbArc
 50
179.9986903345002
 51
270.0013096654997
  0
ARC
  5
195C
330
2
100
AcDbEntity
  8
0
100
AcDbCircle
 10
143.5584038700475
 20
359.7265473812285
 30
0.0
 40
2.049999999999998
100
AcDbArc
 50
270.0
 51
278.0619600839818
  0
ARC
  5
195D
330
2
100
AcDbEntity
  8
0
100
AcDbCircle
 10
143.5584038700475
 20
359.7265473812285
 30
0.0
 40
2.049999999999998
100
AcDbArc
 50
261.9380399160181
 51
270.0
  0
ARC
  5
195E
330
2
100
AcDbEntity
  8
0
100
AcDbCircle
 10
143.5584038700475
 20
359.7265473812285
 30
0.0
 40
2.049999999999998
100
AcDbArc
 50
0.0
 51
8.061960083981649
  0
ARC
  5
195F
330
2
100
AcDbEntity
  8
0
100
AcDbCircle
 10
143.5584038700475
 20
359.7265473812285
 30
0.0
 40
2.049999999999998
100
AcDbArc
 50
351.9380399160183
 51
0.0
  0
ARC
  5
1960
330
2
100
AcDbEntity
  8
0
100
AcDbCircle
 10
145.5881038700474
 20
357.6968473812285
 30
0.0
 40
1.742199999999999
100
AcDbArc
 50
89.99869033450025
 51
180.0013096654997
  0
ARC
  5
1961
330
2
100
AcDbEntity
  8
0
100
AcDbCircle
 10
143.5584038700475
 20
359.7265473812285
 30
0.0
 40
2.049999999999998
100
AcDbArc
 50
81.93803991601813
 51
90.0
  0
ARC
  5
1962
330
2
100
AcDbEntity
  8
0
100
AcDbCircle
 10
143.5584038700475
 20
359.7265473812285
 30
0.0
 40
2.049999999999998
100
AcDbArc
 50
90.0
 51
98.06196008398188
  0
LINE
  5
1963
330
2
100
AcDbEntity
  8
0
100
AcDbLine
 10
147.0582058700475
 20
361.2265473812285
 30
0.0
 11
145.0582058700475
 21
363.2265473812285
 31
0.0
  0
LINE
  5
1964
330
2
100
AcDbEntity
  8
0
100
AcDbLine
 10
147.0582058700475
 20
361.2265473812285
 30
0.0
 11
145.0582058700475
 21
363.2265473812285
 31
0.0
  0
LINE
  5
1965
330
2
100
AcDbEntity
  8
0
100
AcDbLine
 10
147.0584038700475
 20
361.2265473812285
 30
0.0
 11
145.0582058700475
 21
363.2265473812285
 31
0.0
  0
ARC
  5
1966
330
2
100
AcDbEntity
  8
0
100
AcDbCircle
 10
143.5584038700475
 20
359.7265473812285
 30
0.0
 40
2.049999999999998
100
AcDbArc
 50
171.9380399160183
 51
180.0
  0
ARC
  5
1967
330
2
100
AcDbEntity
  8
0
100
AcDbCircle
 10
143.5584038700475
 20
359.7265473812285
 30
0.0
 40
2.049999999999998
100
AcDbArc
 50
180.0
 51
188.0619600839816
  0
ARC
  5
1968
330
2
100
AcDbEntity
  8
0
100
AcDbCircle
 10
141.5287038700473
 20
357.6968473812285
 30
0.0
 40
1.742199999999999
100
AcDbArc
 50
359.9986903345002
 51
90.00130966549322
  0
ARC
  5
1969
330
2
100
AcDbEntity
  8
0
100
AcDbCircle
 10
141.5287038700473
 20
361.7562473812284
 30
0.0
 40
1.742199999999999
100
AcDbArc
 50
269.9986903345067
 51
0.0013096654997424
  0
ENDSEC
  0
SECTION
  2
OBJECTS
  0
DICTIONARY
  5
7
330
0
100
AcDbDictionary
  3
ACAD_GROUP
350
75
  3
ACAD_LAYOUT
350
61
  3
ACAD_MLINESTYLE
350
76
  3
ACAD_PLOTSETTINGS
350
77
  3
ACAD_PLOTSTYLENAME
350
6
  3
ACADDIM
350
480
  3
ACDBHEADERROUNDTRIPXREC
350
1AFC
  3
ACDBVARIABLEDICTIONARY
350
102
  3
DWGPROPS
350
3D2
  0
DICTIONARY
  5
1B1D
330
2
100
AcDbDictionary
280
     1
  3
ACAD_LAYOUTSELFREF
360
1B1E
  0
DICTIONARY
  5
1B1F
330
1AF6
100
AcDbDictionary
280
     1
  3
ACAD_LAYOUTSELFREF
360
1B20
  0
DICTIONARY
  5
75
102
{ACAD_REACTORS
330
7
102
}
330
7
100
AcDbDictionary
  0
DICTIONARY
  5
61
102
{ACAD_REACTORS
330
7
102
}
330
7
100
AcDbDictionary
  0
DICTIONARY
  5
76
102
{ACAD_REACTORS
330
7
102
}
330
7
100
AcDbDictionary
  3
STANDARD
350
78
  0
DICTIONARY
  5
77
102
{ACAD_REACTORS
330
7
102
}
330
7
100
AcDbDictionary
  0
ACDBDICTIONARYWDFLT
  5
6
102
{ACAD_REACTORS
330
7
102
}
330
7
100
AcDbDictionary
281
     1
  3
Normal
350
5
100
AcDbDictionaryWithDefault
340
5
  0
XRECORD
  5
480
102
{ACAD_REACTORS
330
7
102
}
330
7
100
AcDbXrecord
 90
   990106
  3

 60
     0
 61
     0
 62
     1
 63
     3
 64
     1
 65
     0
 66
     0
 67
     3
 68
     1
 69
     0
 70
     0
 71
     0
 72
     0
 40
0.0
170
     2
340
0
  0
DICTIONARY
  5
1AFC
102
{ACAD_REACTORS
330
7
102
}
330
7
100
AcDbDictionary
  3
CEPSNTYPE
350
1B06
  3
DIMSTYLEDATA
350
1B0A
  3
FINGERPRINTGUID
350
1B07
  3
HYPERLINKBASE
350
1AFF
  3
INSUNITS
350
1B05
  3
LAYOUTDICT
350
1B01
  3
LWETCUNION
350
1B04
  3
PLOTSETDICT
350
1B02
  3
PLOTSTYLNAMDICT
350
1B03
  3
PSVPSCALE
350
1B09
  3
PUCSBASE
350
1B0D
  3
PUCSORGBACK
350
1B13
  3
PUCSORGBOTTOM
350
1B0F
  3
PUCSORGFRONT
350
1B12
  3
PUCSORGLEFT
350
1B10
  3
PUCSORGRIGHT
350
1B11
  3
PUCSORGTOP
350
1B0E
  3
PUCSORTHOREF
350
1B0B
  3
PUCSORTHOVIEW
350
1B0C
  3
STYLESHEET
350
1B00
  3
TSTACKALIGN
350
1AFD
  3
TSTACKSIZE
350
1AFE
  3
UCSBASE
350
1B16
  3
UCSORGBACK
350
1B1C
  3
UCSORGBOTTOM
350
1B18
  3
UCSORGFRONT
350
1B1B
  3
UCSORGLEFT
350
1B19
  3
UCSORGRIGHT
350
1B1A
  3
UCSORGTOP
350
1B17
  3
UCSORTHOREF
350
1B14
  3
UCSORTHOVIEW
350
1B15
  3
VERSIONGUID
350
1B08
  0
DICTIONARY
  5
102
102
{ACAD_REACTORS
330
7
102
}
330
7
100
AcDbDictionary
  3
DIMASSOC
350
103
  0
XRECORD
  5
3D2
102
{ACAD_REACTORS
330
7
102
}
330
7
100
AcDbXrecord
  1
DWGPROPS COOKIE
  2

  3

  4

  6

  7

  8

  9

300
=
301
=
302
=
303
=
304
=
305
=
306
=
307
=
308
=
309
=
 40
0.5353330671296296
 41
2452052.431989363
 42
2453406.550756377
  1

 90
        0
  0
XRECORD
  5
1B1E
102
{ACAD_REACTORS
330
1B1D
102
}
330
1B1D
100
AcDbXrecord
340
2
  0
XRECORD
  5
1B20
102
{ACAD_REACTORS
330
1B1F
102
}
330
1B1F
100
AcDbXrecord
340
1AF6
  0
MLINESTYLE
  5
78
102
{ACAD_REACTORS
330
76
102
}
330
76
100
AcDbMlineStyle
  2
STANDARD
 70
     0
  3

 62
     0
 51
90.0
 52
90.0
 71
     2
 49
0.5
 62
   256
  6
BYLAYER
 49
-0.5
 62
   256
  6
BYLAYER
  0
ACDBPLACEHOLDER
  5
5
102
{ACAD_REACTORS
330
6
102
}
330
6
100
AcDbPlaceHolder
280
     0
  0
XRECORD
  5
1B06
102
{ACAD_REACTORS
330
1AFC
102
}
330
1AFC
100
AcDbXrecord
 90
        0
  0
XRECORD
  5
1B0A
102
{ACAD_REACTORS
330
1AFC
102
}
330
1AFC
100
AcDbXrecord
1000
DSTYLE
1002
{
1070
   179
 70
     2
1070
   277
 70
     6
1002
}
  0
XRECORD
  5
1B07
102
{ACAD_REACTORS
330
1AFC
102
}
330
1AFC
100
AcDbXrecord
  1
{6385560B-F4B1-4644-A7C2-A3E32AC3D232}
  0
XRECORD
  5
1AFF
102
{ACAD_REACTORS
330
1AFC
102
}
330
1AFC
100
AcDbXrecord
  1

  0
XRECORD
  5
1B05
102
{ACAD_REACTORS
330
1AFC
102
}
330
1AFC
100
AcDbXrecord
 90
        0
  0
XRECORD
  5
1B01
102
{ACAD_REACTORS
330
1AFC
102
}
330
1AFC
100
AcDbXrecord
340
61
  0
XRECORD
  5
1B04
102
{ACAD_REACTORS
330
1AFC
102
}
330
1AFC
100
AcDbXrecord
 90
    10781
  0
XRECORD
  5
1B02
102
{ACAD_REACTORS
330
1AFC
102
}
330
1AFC
100
AcDbXrecord
340
77
  0
XRECORD
  5
1B03
102
{ACAD_REACTORS
330
1AFC
102
}
330
1AFC
100
AcDbXrecord
340
6
  0
XRECORD
  5
1B09
102
{ACAD_REACTORS
330
1AFC
102
}
330
1AFC
100
AcDbXrecord
 40
0.0
  0
XRECORD
  5
1B0D
102
{ACAD_REACTORS
330
1AFC
102
}
330
1AFC
100
AcDbXrecord
340
0
  0
XRECORD
  5
1B13
102
{ACAD_REACTORS
330
1AFC
102
}
330
1AFC
100
AcDbXrecord
 10
0.0
 20
0.0
 30
0.0
  0
XRECORD
  5
1B0F
102
{ACAD_REACTORS
330
1AFC
102
}
330
1AFC
100
AcDbXrecord
 10
0.0
 20
0.0
 30
0.0
  0
XRECORD
  5
1B12
102
{ACAD_REACTORS
330
1AFC
102
}
330
1AFC
100
AcDbXrecord
 10
0.0
 20
0.0
 30
0.0
  0
XRECORD
  5
1B10
102
{ACAD_REACTORS
330
1AFC
102
}
330
1AFC
100
AcDbXrecord
 10
0.0
 20
0.0
 30
0.0
  0
XRECORD
  5
1B11
102
{ACAD_REACTORS
330
1AFC
102
}
330
1AFC
100
AcDbXrecord
 10
0.0
 20
0.0
 30
0.0
  0
XRECORD
  5
1B0E
102
{ACAD_REACTORS
330
1AFC
102
}
330
1AFC
100
AcDbXrecord
 10
0.0
 20
0.0
 30
0.0
  0
XRECORD
  5
1B0B
102
{ACAD_REACTORS
330
1AFC
102
}
330
1AFC
100
AcDbXrecord
340
0
  0
XRECORD
  5
1B0C
102
{ACAD_REACTORS
330
1AFC
102
}
330
1AFC
100
AcDbXrecord
 70
     0
  0
XRECORD
  5
1B00
102
{ACAD_REACTORS
330
1AFC
102
}
330
1AFC
100
AcDbXrecord
  1
Sekkei.ctb
  0
XRECORD
  5
1AFD
102
{ACAD_REACTORS
330
1AFC
102
}
330
1AFC
100
AcDbXrecord
 90
        1
  0
XRECORD
  5
1AFE
102
{ACAD_REACTORS
330
1AFC
102
}
330
1AFC
100
AcDbXrecord
 90
       70
  0
XRECORD
  5
1B16
102
{ACAD_REACTORS
330
1AFC
102
}
330
1AFC
100
AcDbXrecord
340
0
  0
XRECORD
  5
1B1C
102
{ACAD_REACTORS
330
1AFC
102
}
330
1AFC
100
AcDbXrecord
 10
0.0
 20
0.0
 30
0.0
  0
XRECORD
  5
1B18
102
{ACAD_REACTORS
330
1AFC
102
}
330
1AFC
100
AcDbXrecord
 10
0.0
 20
0.0
 30
0.0
  0
XRECORD
  5
1B1B
102
{ACAD_REACTORS
330
1AFC
102
}
330
1AFC
100
AcDbXrecord
 10
0.0
 20
0.0
 30
0.0
  0
XRECORD
  5
1B19
102
{ACAD_REACTORS
330
1AFC
102
}
330
1AFC
100
AcDbXrecord
 10
0.0
 20
0.0
 30
0.0
  0
XRECORD
  5
1B1A
102
{ACAD_REACTORS
330
1AFC
102
}
330
1AFC
100
AcDbXrecord
 10
0.0
 20
0.0
 30
0.0
  0
XRECORD
  5
1B17
102
{ACAD_REACTORS
330
1AFC
102
}
330
1AFC
100
AcDbXrecord
 10
0.0
 20
0.0
 30
0.0
  0
XRECORD
  5
1B14
102
{ACAD_REACTORS
330
1AFC
102
}
330
1AFC
100
AcDbXrecord
340
0
  0
XRECORD
  5
1B15
102
{ACAD_REACTORS
330
1AFC
102
}
330
1AFC
100
AcDbXrecord
 70
     0
  0
XRECORD
  5
1B08
102
{ACAD_REACTORS
330
1AFC
102
}
330
1AFC
100
AcDbXrecord
  1
{9A3124B2-CBCC-4FC3-B42B-7AD8E0187D41}
  0
DICTIONARYVAR
  5
103
102
{ACAD_REACTORS
330
102
102
}
330
102
100
DictionaryVariables
280
     0
  1
1
  0
ENDSEC
  0
EOF
