  0
SECTION
  2
HEADER
  9
$CLAYER
  8
1
  9
$LTSCALE
 40
3.0
  0
ENDSEC
  0
SECTION
  2
TABLES
  0
TABLE
  2
LTYPE
 70
     4
  0
LTYPE
  2
CONTINUOUS
  3
solid line
 70
    64
 72
    65
 73
     0
 40
0.0
  0
LTYPE
  2
DASHED
  3
__ __ __ __ __ __ __ __ __ __ __ __ __ __ __
 70
    64
 72
    65
 73
     2
 40
0.75
 49
0.5
 49
-0.25
  0
LTYPE
  2
CENTER
  3
____ _ ____ _ ____ _ ____ _ ____ _ ____ _ ____
 70
    64
 72
    65
 73
     4
 40
2.0
 49
1.25
 49
-0.25
 49
0.25
 49
-0.25
  0
LTYPE
  2
PHANTOM
  3
_____ _ _ _____ _ _ _____ _ _ _____ _ _ ____
 70
    64
 72
    65
 73
     6
 40
2.5
 49
1.25
 49
-0.25
 49
0.25
 49
-0.25
 49
0.25
 49
-0.25
  0
ENDTAB
  0
TABLE
  2
LAYER
 70
     1
  0
LAYER
  2
0
 70
    64
 62
     7
  6
CONTINUOUS
  0
ENDTAB
  0
TABLE
  2
STYLE
 70
     1
  0
STYLE
  2
STANDARD
 70
     0
 40
0.000000
 41
1.000000
 50
0.000000
 71
     0
 42
3.000000
  3
txt
  4
BIGFONT
  0
ENDTAB
  0
ENDSEC
  0
SECTION
  2
BLOCKS
  0
ENDSEC
  0
SECTION
  2
ENTITIES
  0
LINE
  8
0
  6
CONTINUOUS
 10
60.779991
 20
8.260000
 11
60.779991
 21
98.260002
  0
LINE
  8
0
  6
CENTER
 10
60.779991
 20
53.259998
 11
155.666702
 21
53.259998
  0
LINE
  8
0
  6
CONTINUOUS
 10
234.279999
 20
34.459999
 11
234.279999
 21
93.459999
  0
LINE
  8
0
  6
CONTINUOUS
 10
60.779991
 20
98.260002
 11
133.625702
 21
98.260002
  0
LINE
  8
0
  6
CONTINUOUS
 10
131.279999
 20
8.260000
 11
60.779991
 21
8.260000
  0
LINE
  8
0
  6
CENTER
 10
148.829697
 20
78.959999
 11
218.842499
 21
78.959999
  0
LINE
  8
0
  6
CENTER
 10
183.779999
 20
131.509995
 11
183.779999
 21
-4.480300
  0
LINE
  8
0
  6
CONTINUOUS
 10
143.779999
 20
122.959999
 11
223.779999
 21
122.959999
  0
LINE
  8
0
  6
CONTINUOUS
 10
143.779999
 20
4.960000
 11
223.779999
 21
4.960000
  0
LINE
  8
0
  6
CENTER
 10
216.779999
 20
113.959999
 11
230.654999
 21
113.959999
  0
LINE
  8
0
  6
CENTER
 10
223.779999
 20
107.260002
 11
223.779999
 21
120.760002
  0
CIRCLE
  8
0
  6
CONTINUOUS
 10
223.779999
 20
113.959999
 40
4.250000
  0
LINE
  8
0
  6
CENTER
 10
216.779999
 20
13.960000
 11
230.654999
 21
13.960000
  0
LINE
  8
0
  6
CENTER
 10
223.779999
 20
20.660000
 11
223.779999
 21
7.160000
  0
CIRCLE
  8
0
  6
CONTINUOUS
 10
223.779999
 20
13.960000
 40
4.250000
  0
LINE
  8
0
  6
CENTER
 10
150.779999
 20
113.959999
 11
136.904999
 21
113.959999
  0
LINE
  8
0
  6
CENTER
 10
143.779999
 20
107.260002
 11
143.779999
 21
120.760002
  0
CIRCLE
  8
0
  6
CONTINUOUS
 10
143.779999
 20
113.959999
 40
4.250000
  0
LINE
  8
0
  6
CENTER
 10
150.779999
 20
13.960000
 11
136.904999
 21
13.960000
  0
LINE
  8
0
  6
CENTER
 10
143.779999
 20
20.660000
 11
143.779999
 21
7.160000
  0
CIRCLE
  8
0
  6
CONTINUOUS
 10
143.779999
 20
13.960000
 40
4.250000
  0
LINE
  8
0
  6
CONTINUOUS
 10
232.756699
 20
114.606628
 11
234.279999
 21
93.459999
  0
LINE
  8
0
  6
CONTINUOUS
 10
232.756699
 20
13.313440
 11
234.279999
 21
34.459999
  0
LINE
  8
0
  6
CONTINUOUS
 10
157.779999
 20
118.959999
 11
209.779999
 21
118.959999
  0
LINE
  8
0
  6
CONTINUOUS
 10
209.779999
 20
8.960000
 11
157.779999
 21
8.960000
  0
LINE
  8
0
  6
CONTINUOUS
 10
135.779999
 20
79.652191
 11
135.779999
 21
48.267483
  0
ARC
  8
0
  6
CONTINUOUS
 10
183.779999
 20
63.959999
 40
50.500000
 50
18.103800
 51
161.896194
  0
ARC
  8
0
  6
CONTINUOUS
 10
183.779999
 20
63.959999
 40
50.500000
 50
198.103806
 51
341.896210
  0
LINE
  8
0
  6
CONTINUOUS
 10
231.779999
 20
79.652359
 11
231.779999
 21
48.267963
  0
ARC
  8
0
  6
CONTINUOUS
 10
209.779999
 20
113.959999
 40
5.000000
 50
0.000000
 51
90.000000
  0
ARC
  8
0
  6
CONTINUOUS
 10
224.785904
 20
99.996178
 40
5.000000
 50
4.120544
 51
94.120201
  0
ARC
  8
0
  6
CONTINUOUS
 10
223.779999
 20
113.959999
 40
9.000000
 50
180.000000
 51
274.120697
  0
ARC
  8
0
  6
CONTINUOUS
 10
223.779999
 20
113.959999
 40
9.000000
 50
4.120065
 51
90.000000
  0
ARC
  8
0
  6
CONTINUOUS
 10
209.779999
 20
13.960000
 40
5.000000
 50
-90.000000
 51
0.000000
  0
ARC
  8
0
  6
CONTINUOUS
 10
224.785904
 20
27.923820
 40
5.000000
 50
265.879791
 51
355.879486
  0
ARC
  8
0
  6
CONTINUOUS
 10
223.779999
 20
13.960000
 40
9.000000
 50
270.000000
 51
355.879913
  0
ARC
  8
0
  6
CONTINUOUS
 10
223.779999
 20
13.960000
 40
9.000000
 50
85.879837
 51
180.000000
  0
LINE
  8
0
  6
CONTINUOUS
 10
229.772903
 20
100.355461
 11
231.779999
 21
79.652359
  0
LINE
  8
0
  6
CONTINUOUS
 10
229.772903
 20
27.564581
 11
231.780106
 21
48.267963
  0
ARC
  8
0
  6
CONTINUOUS
 10
157.779999
 20
113.959999
 40
5.000000
 50
90.000000
 51
180.000000
  0
ARC
  8
0
  6
CONTINUOUS
 10
143.779999
 20
113.959999
 40
9.000000
 50
-94.120667
 51
0.000000
  0
ARC
  8
0
  6
CONTINUOUS
 10
142.774094
 20
99.996178
 40
5.000000
 50
85.879799
 51
175.879501
  0
LINE
  8
0
  6
CONTINUOUS
 10
137.787003
 20
100.355461
 11
135.779999
 21
79.652359
  0
ARC
  8
0
  6
CONTINUOUS
 10
142.774094
 20
27.923820
 40
5.000000
 50
-175.879501
 51
-85.879791
  0
ARC
  8
0
  6
CONTINUOUS
 10
143.779999
 20
13.960000
 40
9.000000
 50
0.000000
 51
94.120163
  0
ARC
  8
0
  6
CONTINUOUS
 10
157.779999
 20
13.960000
 40
5.000000
 50
180.000000
 51
270.000000
  0
LINE
  8
0
  6
CONTINUOUS
 10
137.787003
 20
27.564581
 11
135.779907
 21
48.267963
  0
ARC
  8
0
  6
CONTINUOUS
 10
143.779999
 20
113.959999
 40
9.000000
 50
90.000000
 51
175.879898
  0
LINE
  8
0
  6
CONTINUOUS
 10
134.803207
 20
114.606628
 11
133.279999
 21
93.459999
  0
LINE
  8
0
  6
CONTINUOUS
 10
134.803207
 20
13.313440
 11
133.279999
 21
34.459999
  0
ARC
  8
0
  6
CONTINUOUS
 10
143.779999
 20
13.960000
 40
9.000000
 50
-175.879898
 51
-90.000000
  0
ARC
  8
0
  6
CONTINUOUS
 10
138.279999
 20
18.260031
 40
5.000000
 50
143.994797
 51
180.000000
  0
ARC
  8
0
  6
CONTINUOUS
 10
131.279999
 20
10.260000
 40
2.000000
 50
-90.000000
 51
0.000000
  0
LINE
  8
0
  6
CONTINUOUS
 10
133.279999
 20
10.260000
 11
133.279999
 21
18.260031
  0
LINE
  8
0
  6
CONTINUOUS
 10
133.279999
 20
93.459999
 11
133.279999
 21
34.459991
  0
LINE
  8
0
  6
CONTINUOUS
 10
60.779991
 20
87.669296
 11
131.279999
 21
87.669296
  0
LINE
  8
0
  6
CONTINUOUS
 10
60.779991
 20
18.850691
 11
131.779999
 21
18.850691
  0
CIRCLE
  8
0
  6
CONTINUOUS
 10
183.779999
 20
78.959999
 40
23.500000
  0
LINE
  8
0
  6
CONTINUOUS
 10
177.404999
 20
41.513229
 11
177.404999
 21
35.959999
  0
LINE
  8
0
  6
CONTINUOUS
 10
180.592499
 20
43.530315
 11
180.592499
 21
45.522507
  0
LINE
  8
0
  6
CONTINUOUS
 10
186.967499
 20
43.530315
 11
186.967499
 21
45.522507
  0
LINE
  8
0
  6
CONTINUOUS
 10
183.157394
 20
44.352093
 11
183.157394
 21
37.005901
  0
LINE
  8
0
  6
CONTINUOUS
 10
184.352798
 20
44.352093
 11
184.352798
 21
37.005901
  0
LINE
  8
0
  6
CONTINUOUS
 10
190.628098
 20
44.352093
 11
190.628098
 21
36.956100
  0
LINE
  8
0
  6
CONTINUOUS
 10
191.723801
 20
40.429981
 11
191.723801
 21
36.956100
  0
LINE
  8
0
  6
CONTINUOUS
 10
175.892502
 20
44.252483
 11
172.820602
 21
44.252483
  0
LINE
  8
0
  6
CONTINUOUS
 10
172.820602
 20
44.252483
 11
172.100800
 21
43.359989
  0
LINE
  8
0
  6
CONTINUOUS
 10
172.187393
 20
45.522507
 11
171.029999
 21
44.040508
  0
LINE
  8
0
  6
CONTINUOUS
 10
172.100800
 20
37.850929
 11
172.832108
 21
37.080608
  0
LINE
  8
0
  6
CONTINUOUS
 10
171.029999
 20
37.200859
 11
172.259796
 21
35.959999
  0
LINE
  8
0
  6
CONTINUOUS
 10
171.029999
 20
44.040508
 11
171.029999
 21
37.200859
  0
LINE
  8
0
  6
CONTINUOUS
 10
172.100800
 20
43.359989
 11
172.100800
 21
37.850929
  0
LINE
  8
0
  6
CONTINUOUS
 10
176.483597
 20
43.681042
 11
175.880402
 21
44.252483
  0
LINE
  8
0
  6
CONTINUOUS
 10
176.473999
 20
45.522507
 11
177.404999
 21
44.489361
  0
LINE
  8
0
  6
CONTINUOUS
 10
176.483597
 20
43.530315
 11
177.404999
 21
43.530315
  0
LINE
  8
0
  6
CONTINUOUS
 10
172.187393
 20
45.522507
 11
176.473999
 21
45.522507
  0
LINE
  8
0
  6
CONTINUOUS
 10
176.483597
 20
40.467331
 11
174.815201
 21
40.467331
  0
LINE
  8
0
  6
CONTINUOUS
 10
176.483597
 20
39.471241
 11
176.483597
 21
40.268108
  0
LINE
  8
0
  6
CONTINUOUS
 10
174.491394
 20
37.080608
 11
172.832108
 21
37.080608
  0
ARC
  8
0
  6
CONTINUOUS
 10
174.491394
 20
39.072800
 40
1.992187
 50
-89.999786
 51
0.000109
  0
LINE
  8
0
  6
CONTINUOUS
 10
176.483597
 20
36.722271
 11
176.483597
 21
35.959999
  0
LINE
  8
0
  6
CONTINUOUS
 10
177.404999
 20
44.489361
 11
177.404999
 21
43.530315
  0
LINE
  8
0
  6
CONTINUOUS
 10
176.483597
 20
40.467331
 11
176.483597
 21
39.072800
  0
LINE
  8
0
  6
CONTINUOUS
 10
174.815201
 20
41.513229
 11
174.815201
 21
40.467331
  0
LINE
  8
0
  6
CONTINUOUS
 10
176.483597
 20
35.959999
 11
177.404999
 21
35.959999
  0
LINE
  8
0
  6
CONTINUOUS
 10
176.483597
 20
36.722271
 11
175.575104
 21
35.959999
  0
LINE
  8
0
  6
CONTINUOUS
 10
184.352798
 20
37.005901
 11
184.751205
 21
37.005901
  0
LINE
  8
0
  6
CONTINUOUS
 10
182.684296
 20
37.005901
 11
182.684296
 21
35.959999
  0
LINE
  8
0
  6
CONTINUOUS
 10
184.751205
 20
37.005901
 11
184.751205
 21
35.959999
  0
LINE
  8
0
  6
CONTINUOUS
 10
186.302505
 20
43.530315
 11
186.967499
 21
43.530315
  0
LINE
  8
0
  6
CONTINUOUS
 10
180.592499
 20
43.530315
 11
181.300095
 21
43.530315
  0
LINE
  8
0
  6
CONTINUOUS
 10
180.592499
 20
45.522507
 11
186.967499
 21
45.522507
  0
LINE
  8
0
  6
CONTINUOUS
 10
182.684296
 20
35.959999
 11
184.751205
 21
35.959999
  0
LINE
  8
0
  6
CONTINUOUS
 10
182.684296
 20
37.005901
 11
183.157394
 21
37.005901
  0
ARC
  8
0
  6
CONTINUOUS
 10
193.977493
 20
42.970009
 40
2.552490
 50
-73.981873
 51
90.003510
  0
ARC
  8
0
  6
CONTINUOUS
 10
193.977493
 20
42.970009
 40
1.557193
 50
-82.585274
 51
62.411850
  0
LINE
  8
0
  6
CONTINUOUS
 10
190.154999
 20
45.522507
 11
193.977493
 21
45.522507
  0
LINE
  8
0
  6
CONTINUOUS
 10
190.154999
 20
45.522507
 11
190.154999
 21
44.352093
  0
LINE
  8
0
  6
CONTINUOUS
 10
191.723801
 20
44.352093
 11
191.723801
 21
41.425838
  0
LINE
  8
0
  6
CONTINUOUS
 10
194.681900
 20
40.516628
 11
196.261703
 21
36.956100
  0
LINE
  8
0
  6
CONTINUOUS
 10
193.764297
 20
40.429981
 11
195.259399
 21
36.956100
  0
LINE
  8
0
  6
CONTINUOUS
 10
190.154999
 20
36.956100
 11
190.628098
 21
36.956100
  0
LINE
  8
0
  6
CONTINUOUS
 10
191.723801
 20
36.956100
 11
192.159607
 21
36.956100
  0
LINE
  8
0
  6
CONTINUOUS
 10
192.159607
 20
35.959999
 11
190.154999
 21
35.959999
  0
LINE
  8
0
  6
CONTINUOUS
 10
195.060806
 20
36.956100
 11
195.259399
 21
36.956100
  0
LINE
  8
0
  6
CONTINUOUS
 10
196.261703
 20
36.956100
 11
196.529999
 21
36.956100
  0
LINE
  8
0
  6
CONTINUOUS
 10
195.060806
 20
35.959999
 11
196.529999
 21
35.959999
  0
LINE
  8
0
  6
CONTINUOUS
 10
196.529999
 20
36.956100
 11
196.529999
 21
35.959999
  0
LINE
  8
0
  6
CONTINUOUS
 10
195.060806
 20
36.956100
 11
195.060806
 21
35.959999
  0
LINE
  8
0
  6
CONTINUOUS
 10
192.159607
 20
36.956100
 11
192.159607
 21
35.959999
  0
LINE
  8
0
  6
CONTINUOUS
 10
190.154999
 20
36.956100
 11
190.154999
 21
35.959999
  0
LINE
  8
0
  6
CONTINUOUS
 10
181.642502
 20
44.352093
 11
181.300095
 21
43.530315
  0
LINE
  8
0
  6
CONTINUOUS
 10
186.013794
 20
44.352093
 11
186.302505
 21
43.530315
  0
LINE
  8
0
  6
CONTINUOUS
 10
184.352798
 20
44.352093
 11
186.013794
 21
44.352093
  0
LINE
  8
0
  6
CONTINUOUS
 10
183.157394
 20
44.352093
 11
181.642502
 21
44.352093
  0
LINE
  8
0
  6
CONTINUOUS
 10
190.154999
 20
44.352093
 11
190.628098
 21
44.352093
  0
LINE
  8
0
  6
CONTINUOUS
 10
191.723801
 20
44.352093
 11
194.698700
 21
44.350159
  0
LINE
  8
0
  6
CONTINUOUS
 10
176.483597
 20
43.681042
 11
176.483597
 21
43.530315
  0
LINE
  8
0
  6
CONTINUOUS
 10
172.259796
 20
35.959999
 11
175.575104
 21
35.959999
  0
LINE
  8
0
  6
CONTINUOUS
 10
191.723801
 20
41.425838
 11
194.178497
 21
41.425838
  0
LINE
  8
0
  6
CONTINUOUS
 10
191.723801
 20
40.429981
 11
193.764297
 21
40.429981
  0
LINE
  8
0
  6
CONTINUOUS
 10
174.815201
 20
41.513229
 11
177.404999
 21
41.513229
  0
LINE
  8
0
  6
CONTINUOUS
 10
169.779999
 20
118.028801
 11
169.779999
 21
112.480614
  0
LINE
  8
0
  6
CONTINUOUS
 10
197.779999
 20
118.028801
 11
197.779999
 21
112.480621
  0
LINE
  8
0
  6
CONTINUOUS
 10
169.779999
 20
15.439390
 11
169.779999
 21
10.165370
  0
LINE
  8
0
  6
CONTINUOUS
 10
197.779999
 20
15.439390
 11
197.779999
 21
10.165370
  0
LINE
  8
0
  6
CONTINUOUS
 10
189.279999
 20
75.960022
 11
189.279999
 21
81.960022
  0
LINE
  8
0
  6
CONTINUOUS
 10
195.279999
 20
75.960037
 11
195.279999
 21
81.960037
  0
LINE
  8
0
  6
CONTINUOUS
 10
195.279999
 20
75.960037
 11
189.279999
 21
75.960022
  0
LINE
  8
0
  6
CONTINUOUS
 10
195.279999
 20
81.960037
 11
189.279999
 21
81.960022
  0
ARC
  8
0
  6
CONTINUOUS
 10
183.779999
 20
78.959999
 40
9.000000
 50
19.471210
 51
340.528809
  0
LINE
  8
0
  6
CONTINUOUS
 10
51.279999
 20
98.260002
 11
60.779999
 21
98.260002
  0
LINE
  8
0
  6
CONTINUOUS
 10
60.779999
 20
87.669296
 11
51.279999
 21
87.669296
  0
LINE
  8
0
  6
CONTINUOUS
 10
51.279999
 20
8.260000
 11
60.779999
 21
8.260000
  0
LINE
  8
0
  6
CONTINUOUS
 10
60.779999
 20
18.850700
 11
51.279999
 21
18.850700
  0
LINE
  8
0
  6
CENTER
 10
-7.395000
 20
53.259998
 11
60.779999
 21
53.259998
  0
LINE
  8
0
  6
CONTINUOUS
 10
51.279999
 20
100.260002
 11
51.279999
 21
6.260000
  0
LINE
  8
0
  6
CONTINUOUS
 10
51.279999
 20
82.260002
 11
7.305000
 21
82.260002
  0
LINE
  8
0
  6
CONTINUOUS
 10
51.279999
 20
24.260000
 11
7.305002
 21
24.260000
  0
LINE
  8
0
  6
CONTINUOUS
 10
8.779998
 20
100.260002
 11
51.279999
 21
100.260002
  0
LINE
  8
0
  6
CONTINUOUS
 10
8.779999
 20
6.260000
 11
51.279999
 21
6.260000
  0
LINE
  8
0
  6
CONTINUOUS
 10
3.779998
 20
11.260000
 11
3.779998
 21
95.260002
  0
ARC
  8
0
  6
CONTINUOUS
 10
8.780023
 20
95.260017
 40
5.000000
 50
90.000000
 51
180.000000
  0
ARC
  8
0
  6
CONTINUOUS
 10
8.779998
 20
11.260000
 40
5.000000
 50
180.000000
 51
270.000000
  0
LINE
  8
0
  6
CENTER
 10
383.779999
 20
-1.740000
 11
383.779999
 21
156.947495
  0
LINE
  8
0
  6
CONTINUOUS
 10
341.779999
 20
101.459991
 11
341.779999
 21
56.459991
  0
LINE
  8
0
  6
CONTINUOUS
 10
420.779999
 20
114.011879
 11
420.779999
 21
13.908080
  0
LINE
  8
0
  6
CENTER
 10
302.279999
 20
78.959999
 11
464.279999
 21
78.959999
  0
LINE
  8
0
  6
CONTINUOUS
 10
345.779999
 20
102.459999
 11
342.779999
 21
102.459999
  0
LINE
  8
0
  6
CONTINUOUS
 10
345.779999
 20
55.459995
 11
342.779999
 21
55.459995
  0
LINE
  8
0
  6
CONTINUOUS
 10
344.245392
 20
122.959999
 11
335.779999
 21
122.959999
  0
LINE
  8
0
  6
CONTINUOUS
 10
344.245392
 20
4.960000
 11
335.779999
 21
4.960000
  0
LINE
  8
0
  6
CONTINUOUS
 10
417.832306
 20
117.011436
 11
347.745087
 21
118.234543
  0
LINE
  8
0
  6
CONTINUOUS
 10
417.832397
 20
10.908550
 11
347.745087
 21
9.684920
  0
LINE
  8
0
  6
CONTINUOUS
 10
418.648987
 20
93.459999
 11
350.945801
 21
93.459999
  0
LINE
  8
0
  6
CONTINUOUS
 10
418.648987
 20
34.459999
 11
348.779999
 21
34.459999
  0
ARC
  8
0
  6
CONTINUOUS
 10
417.779999
 20
114.011879
 40
3.000000
 50
0.000000
 51
89.000359
  0
ARC
  8
0
  6
CONTINUOUS
 10
417.779999
 20
13.908080
 40
3.000000
 50
-88.999687
 51
0.000000
  0
ARC
  8
0
  6
CONTINUOUS
 10
348.779999
 20
31.460020
 40
3.000000
 50
90.000000
 51
180.000000
  0
LINE
  8
0
  6
CENTER
 10
330.717499
 20
13.960000
 11
350.467499
 21
13.960000
  0
LINE
  8
0
  6
CENTER
 10
332.467499
 20
113.959999
 11
349.467499
 21
113.959999
  0
LINE
  8
0
  6
DASHED
 10
335.779999
 20
109.709999
 11
345.779999
 21
109.709999
  0
LINE
  8
0
  6
DASHED
 10
335.779999
 20
118.209999
 11
345.779999
 21
118.209999
  0
LINE
  8
0
  6
DASHED
 10
335.779999
 20
18.209999
 11
345.779999
 21
18.209999
  0
LINE
  8
0
  6
DASHED
 10
335.779999
 20
9.710000
 11
345.779999
 21
9.710000
  0
LINE
  8
0
  6
CONTINUOUS
 10
357.779999
 20
8.260000
 11
409.779999
 21
8.260000
  0
ARC
  8
0
  6
CONTINUOUS
 10
409.779999
 20
11.260000
 40
3.000000
 50
270.000000
 51
351.561890
  0
ARC
  8
0
  6
CONTINUOUS
 10
357.779999
 20
11.260000
 40
3.000000
 50
208.811905
 51
270.000000
  0
ARC
  8
0
  6
CONTINUOUS
 10
342.779999
 20
56.459995
 40
1.000000
 50
180.000000
 51
270.000000
  0
ARC
  8
0
  6
CONTINUOUS
 10
342.779999
 20
101.459991
 40
1.000000
 50
90.000000
 51
180.000000
  0
ARC
  8
0
  6
CONTINUOUS
 10
383.779999
 20
53.259998
 40
45.000000
 50
-34.692108
 51
20.421860
  0
LINE
  8
0
  6
CONTINUOUS
 10
425.779999
 20
101.459991
 11
425.779999
 21
56.459991
  0
LINE
  8
0
  6
CONTINUOUS
 10
422.779999
 20
102.459999
 11
424.779999
 21
102.459999
  0
LINE
  8
0
  6
CONTINUOUS
 10
422.779999
 20
55.459995
 11
424.779999
 21
55.459995
  0
ARC
  8
0
  6
CONTINUOUS
 10
422.779999
 20
104.459999
 40
2.000000
 50
180.000000
 51
270.000000
  0
ARC
  8
0
  6
CONTINUOUS
 10
422.779999
 20
53.460007
 40
2.000000
 50
90.000000
 51
180.000000
  0
ARC
  8
0
  6
CONTINUOUS
 10
424.779999
 20
56.459995
 40
1.000000
 50
-90.000000
 51
0.000000
  0
ARC
  8
0
  6
CONTINUOUS
 10
424.779999
 20
101.459991
 40
1.000000
 50
0.000000
 51
90.000000
  0
LINE
  8
0
  6
CONTINUOUS
 10
335.779999
 20
106.676117
 11
343.217499
 21
105.697502
  0
LINE
  8
0
  6
CONTINUOUS
 10
343.217499
 20
105.697502
 11
348.217499
 21
102.447502
  0
LINE
  8
0
  6
CONTINUOUS
 10
351.131592
 20
93.032501
 11
352.592499
 21
92.072502
  0
LINE
  8
0
  6
CONTINUOUS
 10
352.592499
 20
92.072502
 11
352.092499
 21
86.072502
  0
LINE
  8
0
  6
CONTINUOUS
 10
352.092499
 20
86.072502
 11
350.092499
 21
82.572502
  0
LINE
  8
0
  6
CONTINUOUS
 10
350.092499
 20
82.572502
 11
351.967499
 21
77.072502
  0
LINE
  8
0
  6
CONTINUOUS
 10
351.967499
 20
77.072502
 11
351.342499
 21
71.322502
  0
LINE
  8
0
  6
CONTINUOUS
 10
351.342499
 20
71.322502
 11
350.717499
 21
65.072502
  0
LINE
  8
0
  6
CONTINUOUS
 10
350.717499
 20
65.072502
 11
351.842499
 21
60.447498
  0
LINE
  8
0
  6
CONTINUOUS
 10
351.842499
 20
60.447498
 11
350.717499
 21
56.197498
  0
LINE
  8
0
  6
CONTINUOUS
 10
350.717499
 20
56.197498
 11
347.467499
 21
51.322498
  0
LINE
  8
0
  6
CONTINUOUS
 10
347.467499
 20
51.322498
 11
342.967499
 21
49.322498
  0
LINE
  8
0
  6
CONTINUOUS
 10
342.967499
 20
49.322498
 11
338.717499
 21
46.697498
  0
LINE
  8
0
  6
CONTINUOUS
 10
338.717499
 20
46.697498
 11
335.779999
 21
46.300541
  0
LINE
  8
0
  6
CONTINUOUS
 10
348.217499
 20
102.447502
 11
348.967499
 21
98.010002
  0
LINE
  8
0
  6
CONTINUOUS
 10
348.967499
 20
98.010002
 11
351.131592
 21
93.032501
  0
LINE
  8
0
  6
CONTINUOUS
 10
345.779999
 20
120.959999
 11
345.779999
 21
50.572498
  0
LINE
  8
0
  6
CONTINUOUS
 10
345.779999
 20
6.960000
 11
345.779999
 21
31.460011
  0
LINE
  8
0
  6
CONTINUOUS
 10
335.779999
 20
122.959999
 11
335.779999
 21
87.959999
  0
LINE
  8
0
  6
CONTINUOUS
 10
335.779999
 20
4.960000
 11
335.779999
 21
69.959999
  0
LINE
  8
0
  6
CENTER
 10
330.075409
 20
53.259998
 11
435.784912
 21
53.259998
  0
LINE
  8
0
  6
CONTINUOUS
 10
346.177185
 20
121.477638
 11
346.457794
 21
120.430412
  0
ARC
  8
0
  6
CONTINUOUS
 10
343.779999
 20
120.959991
 40
2.000000
 50
0.000000
 51
90.000000
  0
ARC
  8
0
  6
CONTINUOUS
 10
344.245392
 20
120.959991
 40
2.000000
 50
15.000290
 51
90.000000
  0
ARC
  8
0
  6
CONTINUOUS
 10
347.779999
 20
120.234253
 40
2.000000
 50
180.000000
 51
269.000610
  0
ARC
  8
0
  6
CONTINUOUS
 10
349.355591
 20
121.206909
 40
3.000000
 50
195.000504
 51
269.000488
  0
LINE
  8
0
  6
CONTINUOUS
 10
346.177185
 20
6.442360
 11
346.467285
 21
7.525270
  0
ARC
  8
0
  6
CONTINUOUS
 10
343.779999
 20
6.959990
 40
2.000000
 50
-90.000000
 51
0.000000
  0
ARC
  8
0
  6
CONTINUOUS
 10
344.245392
 20
6.960000
 40
2.000000
 50
270.000000
 51
345.000000
  0
ARC
  8
0
  6
CONTINUOUS
 10
347.779999
 20
7.685230
 40
2.000000
 50
91.000633
 51
180.000000
  0
ARC
  8
0
  6
CONTINUOUS
 10
349.368408
 20
6.712810
 40
3.000000
 50
91.000526
 51
164.352097
  0
LINE
  8
0
  6
CONTINUOUS
 10
430.779999
 20
27.159491
 11
430.779999
 21
69.959999
  0
LINE
  8
0
  6
CONTINUOUS
 10
409.880493
 20
6.260000
 11
357.679504
 21
6.260000
  0
LINE
  8
0
  6
CONTINUOUS
 10
352.729706
 20
8.310240
 11
351.279999
 21
9.759990
  0
ARC
  8
0
  6
CONTINUOUS
 10
357.679504
 20
13.260000
 40
7.000000
 50
225.000107
 51
270.000000
  0
ARC
  8
0
  6
CONTINUOUS
 10
409.880493
 20
13.260000
 40
7.000000
 50
270.000000
 51
315.000092
  0
ARC
  8
0
  6
CONTINUOUS
 10
423.779999
 20
27.159479
 40
7.000000
 50
-44.999882
 51
0.000000
  0
LINE
  8
0
  6
CONTINUOUS
 10
428.729706
 20
22.209749
 11
420.779999
 21
14.260000
  0
LINE
  8
0
  6
CONTINUOUS
 10
414.830292
 20
8.310250
 11
417.421387
 21
10.901370
  0
LINE
  8
0
  6
CONTINUOUS
 10
457.779999
 20
69.959999
 11
457.779999
 21
87.959999
  0
LINE
  8
0
  6
CONTINUOUS
 10
427.779999
 20
87.959999
 11
457.779999
 21
87.959999
  0
LINE
  8
0
  6
CONTINUOUS
 10
427.779999
 20
69.959999
 11
457.779999
 21
69.959999
  0
LINE
  8
0
  6
CONTINUOUS
 10
427.779999
 20
88.959999
 11
427.779999
 21
68.959999
  0
LINE
  8
0
  6
CONTINUOUS
 10
425.779999
 20
88.959999
 11
427.779999
 21
88.959999
  0
LINE
  8
0
  6
CONTINUOUS
 10
425.779999
 20
68.959999
 11
427.779999
 21
68.959999
  0
ARC
  8
0
  6
CONTINUOUS
 10
433.779999
 20
78.959999
 40
3.000000
 50
90.000000
 51
270.000000
  0
LINE
  8
0
  6
CONTINUOUS
 10
433.779999
 20
81.959999
 11
457.779999
 21
81.959999
  0
LINE
  8
0
  6
CONTINUOUS
 10
433.779999
 20
75.959999
 11
457.779999
 21
75.959999
  0
LINE
  8
0
  6
CONTINUOUS
 10
309.779999
 20
69.959999
 11
309.779999
 21
87.959999
  0
LINE
  8
0
  6
CONTINUOUS
 10
339.779999
 20
87.959999
 11
309.779999
 21
87.959999
  0
LINE
  8
0
  6
CONTINUOUS
 10
339.779999
 20
69.959999
 11
309.779999
 21
69.959999
  0
LINE
  8
0
  6
CONTINUOUS
 10
339.779999
 20
88.959999
 11
339.779999
 21
68.959999
  0
LINE
  8
0
  6
CONTINUOUS
 10
341.779999
 20
88.959999
 11
339.779999
 21
88.959999
  0
LINE
  8
0
  6
CONTINUOUS
 10
341.779999
 20
68.959999
 11
339.779999
 21
68.959999
  0
ARC
  8
0
  6
CONTINUOUS
 10
333.779999
 20
78.959999
 40
3.000000
 50
-90.000000
 51
90.000000
  0
LINE
  8
0
  6
CONTINUOUS
 10
333.779999
 20
81.959999
 11
309.779999
 21
81.959999
  0
LINE
  8
0
  6
CONTINUOUS
 10
333.779999
 20
75.959999
 11
309.779999
 21
75.959999
  0
LINE
  8
0
  6
CONTINUOUS
 10
53.279991
 20
99.760002
 11
111.779999
 21
99.760002
  0
LINE
  8
0
  6
CONTINUOUS
 10
53.279991
 20
99.760002
 11
53.279991
 21
98.260002
  0
LINE
  8
0
  6
CONTINUOUS
 10
99.279984
 20
99.760002
 11
99.279984
 21
98.260002
  0
LINE
  8
0
  6
CONTINUOUS
 10
51.779991
 20
148.759995
 11
51.779991
 21
101.760002
  0
LINE
  8
0
  6
CONTINUOUS
 10
113.779999
 20
148.760025
 11
113.779999
 21
101.760002
  0
LINE
  8
0
  6
CONTINUOUS
 10
113.779999
 20
101.760002
 11
111.779999
 21
99.760002
  0
LINE
  8
0
  6
CONTINUOUS
 10
51.779991
 20
101.760002
 11
53.779991
 21
99.760002
  0
LINE
  8
0
  6
CONTINUOUS
 10
51.779991
 20
101.760002
 11
113.779999
 21
101.760002
  0
LINE
  8
0
  6
CONTINUOUS
 10
51.779991
 20
111.760017
 11
113.779999
 21
111.760017
  0
LINE
  8
0
  6
CENTER
 10
82.779984
 20
153.188995
 11
82.779984
 21
95.165993
  0
LINE
  8
0
  6
CONTINUOUS
 10
51.779991
 20
112.760017
 11
113.779999
 21
112.760017
  0
LINE
  8
0
  6
CONTINUOUS
 10
52.779991
 20
149.759995
 11
112.779999
 21
149.760025
  0
LINE
  8
0
  6
CONTINUOUS
 10
112.779999
 20
149.760025
 11
113.779999
 21
148.760025
  0
LINE
  8
0
  6
CONTINUOUS
 10
51.779991
 20
148.759995
 11
52.779991
 21
149.759995
  0
LINE
  8
0
  6
CONTINUOUS
 10
51.779991
 20
148.759995
 11
113.779999
 21
148.760025
  0
LINE
  8
0
  6
CENTER
 10
49.154991
 20
132.760025
 11
54.904991
 21
132.760025
  0
LINE
  8
0
  6
CONTINUOUS
 10
50.654991
 20
143.260025
 11
53.779991
 21
143.260025
  0
LINE
  8
0
  6
CONTINUOUS
 10
50.654991
 20
122.260017
 11
53.779991
 21
122.260017
  0
LINE
  8
0
  6
CONTINUOUS
 10
414.779999
 20
148.759995
 11
414.779999
 21
117.064713
  0
LINE
  8
0
  6
CONTINUOUS
 10
352.779999
 20
148.759995
 11
352.779999
 21
118.146667
  0
LINE
  8
0
  6
CONTINUOUS
 10
353.779999
 20
149.759995
 11
413.779999
 21
149.759995
  0
LINE
  8
0
  6
CONTINUOUS
 10
413.779999
 20
149.759995
 11
414.779999
 21
148.759995
  0
LINE
  8
0
  6
CONTINUOUS
 10
353.779999
 20
149.759995
 11
352.779999
 21
148.759995
  0
LINE
  8
0
  6
CONTINUOUS
 10
352.779999
 20
148.759995
 11
414.779999
 21
148.759995
  0
LINE
  8
0
  6
CENTER
 10
183.779999
 20
352.680634
 11
183.779999
 21
191.509995
  0
LINE
  8
0
  6
CENTER
 10
-11.468437
 20
271.803131
 11
247.921249
 21
271.803131
  0
LINE
  8
0
  6
CONTINUOUS
 10
230.105881
 20
308.803131
 11
135.228317
 21
308.803131
  0
LINE
  8
0
  6
CONTINUOUS
 10
133.070587
 20
300.805878
 11
133.229004
 21
306.855469
  0
LINE
  8
0
  6
CONTINUOUS
 10
131.122192
 20
316.803131
 11
60.779999
 21
316.803131
  0
LINE
  8
0
  6
CONTINUOUS
 10
113.779984
 20
300.803131
 11
140.122543
 21
300.803131
  0
LINE
  8
0
  6
CONTINUOUS
 10
113.779984
 20
242.803131
 11
131.396881
 21
242.803131
  0
LINE
  8
0
  6
CONTINUOUS
 10
131.253128
 20
226.803131
 11
60.779999
 21
226.803131
  0
LINE
  8
0
  6
CONTINUOUS
 10
132.023071
 20
271.803131
 11
133.279999
 21
223.803131
  0
LINE
  8
0
  6
CONTINUOUS
 10
166.779999
 20
303.803131
 11
166.779999
 21
235.803131
  0
LINE
  8
0
  6
CONTINUOUS
 10
200.779999
 20
303.803131
 11
200.779999
 21
235.803131
  0
LINE
  8
0
  6
CONTINUOUS
 10
140.122543
 20
298.803131
 11
140.122543
 21
235.338120
  0
LINE
  8
0
  6
CONTINUOUS
 10
206.279999
 20
313.803131
 11
161.279999
 21
313.803131
  0
LINE
  8
0
  6
CONTINUOUS
 10
160.279999
 20
312.803131
 11
160.279999
 21
310.803131
  0
LINE
  8
0
  6
CONTINUOUS
 10
207.279999
 20
312.803131
 11
207.279999
 21
310.803131
  0
ARC
  8
0
  6
CONTINUOUS
 10
158.279999
 20
310.803131
 40
2.000000
 50
-90.000000
 51
0.000000
  0
ARC
  8
0
  6
CONTINUOUS
 10
209.279999
 20
310.803131
 40
2.000000
 50
180.000000
 51
270.000000
  0
ARC
  8
0
  6
CONTINUOUS
 10
161.280014
 20
312.803131
 40
1.000000
 50
90.000000
 51
180.000000
  0
ARC
  8
0
  6
CONTINUOUS
 10
206.279999
 20
312.803131
 40
1.000000
 50
0.000000
 51
90.000000
  0
LINE
  8
0
  6
CONTINUOUS
 10
195.279999
 20
345.803131
 11
174.779999
 21
345.803131
  0
LINE
  8
0
  6
CONTINUOUS
 10
174.779999
 20
315.803131
 11
174.779999
 21
345.803131
  0
LINE
  8
0
  6
CONTINUOUS
 10
192.779999
 20
315.803131
 11
192.779999
 21
318.803131
  0
LINE
  8
0
  6
CONTINUOUS
 10
173.779999
 20
315.803131
 11
193.779999
 21
315.803131
  0
LINE
  8
0
  6
CONTINUOUS
 10
173.779999
 20
313.803131
 11
173.779999
 21
315.803131
  0
LINE
  8
0
  6
CONTINUOUS
 10
193.779999
 20
313.803131
 11
193.779999
 21
315.803131
  0
LINE
  8
0
  6
CONTINUOUS
 10
195.279999
 20
345.803131
 11
195.279999
 21
318.803131
  0
LINE
  8
0
  6
CONTINUOUS
 10
195.279999
 20
318.803131
 11
192.264999
 21
318.803131
  0
LINE
  8
0
  6
CONTINUOUS
 10
192.264999
 20
345.803131
 11
192.264999
 21
318.803131
  0
LINE
  8
0
  6
CONTINUOUS
 10
195.279999
 20
197.803131
 11
174.779999
 21
197.803131
  0
LINE
  8
0
  6
CONTINUOUS
 10
174.779999
 20
223.803131
 11
174.779999
 21
197.803131
  0
LINE
  8
0
  6
CONTINUOUS
 10
195.279999
 20
197.803131
 11
195.279999
 21
223.803131
  0
LINE
  8
0
  6
CONTINUOUS
 10
192.264999
 20
197.803131
 11
192.264999
 21
223.803131
  0
LINE
  8
0
  6
CONTINUOUS
 10
133.279999
 20
223.803131
 11
234.279999
 21
223.803131
  0
LINE
  8
0
  6
CONTINUOUS
 10
232.105194
 20
306.855469
 11
234.279999
 21
223.803131
  0
LINE
  8
0
  6
CONTINUOUS
 10
135.071198
 20
233.803131
 11
232.069824
 21
233.803131
  0
ARC
  8
0
  6
CONTINUOUS
 10
232.069824
 20
231.803131
 40
2.000000
 50
1.500000
 51
90.000000
  0
ARC
  8
0
  6
CONTINUOUS
 10
230.105881
 20
306.803131
 40
2.000000
 50
1.500000
 51
90.000000
  0
ARC
  8
0
  6
CONTINUOUS
 10
202.779999
 20
235.803131
 40
2.000000
 50
180.000000
 51
270.000000
  0
ARC
  8
0
  6
CONTINUOUS
 10
164.779999
 20
235.803131
 40
2.000000
 50
-90.000000
 51
0.000000
  0
LINE
  8
0
  6
CONTINUOUS
 10
166.638062
 20
235.063126
 11
200.921936
 21
235.063126
  0
ARC
  8
0
  6
CONTINUOUS
 10
135.071198
 20
231.803131
 40
2.000000
 50
90.000000
 51
181.500000
  0
ARC
  8
0
  6
CONTINUOUS
 10
131.253128
 20
224.803131
 40
2.000000
 50
1.500000
 51
90.000000
  0
LINE
  8
0
  6
CONTINUOUS
 10
133.121521
 20
314.855469
 11
133.229004
 21
310.750763
  0
ARC
  8
0
  6
CONTINUOUS
 10
131.122192
 20
314.803131
 40
2.000000
 50
1.500000
 51
90.000000
  0
ARC
  8
0
  6
CONTINUOUS
 10
135.228317
 20
310.803131
 40
2.000000
 50
181.500000
 51
270.000000
  0
ARC
  8
0
  6
CONTINUOUS
 10
135.228317
 20
306.803131
 40
2.000000
 50
90.000000
 51
178.500000
  0
LINE
  8
0
  6
CENTER
 10
223.779999
 20
216.114532
 11
223.779999
 21
239.977188
  0
LINE
  8
0
  6
DASHED
 10
228.029999
 20
233.803131
 11
228.029999
 21
223.803131
  0
LINE
  8
0
  6
DASHED
 10
219.529999
 20
233.803131
 11
219.529999
 21
223.803131
  0
LINE
  8
0
  6
CENTER
 10
143.779999
 20
216.114532
 11
143.779999
 21
239.977188
  0
LINE
  8
0
  6
DASHED
 10
139.529999
 20
233.803131
 11
139.529999
 21
223.803131
  0
LINE
  8
0
  6
DASHED
 10
148.029999
 20
233.803131
 11
148.029999
 21
223.803131
  0
LINE
  8
0
  6
CONTINUOUS
 10
51.279999
 20
316.803131
 11
60.779999
 21
316.803131
  0
LINE
  8
0
  6
CONTINUOUS
 10
51.779980
 20
300.803131
 11
51.279999
 21
300.803131
  0
LINE
  8
0
  6
CONTINUOUS
 10
51.279999
 20
226.803131
 11
60.779999
 21
226.803131
  0
LINE
  8
0
  6
CONTINUOUS
 10
60.779999
 20
226.803131
 11
60.779999
 21
240.803131
  0
LINE
  8
0
  6
CONTINUOUS
 10
51.779980
 20
242.803131
 11
51.279999
 21
242.803131
  0
LINE
  8
0
  6
CONTINUOUS
 10
60.779999
 20
302.803131
 11
60.779999
 21
316.803131
  0
LINE
  8
0
  6
CONTINUOUS
 10
51.279999
 20
318.803131
 11
51.279999
 21
224.803131
  0
LINE
  8
0
  6
CONTINUOUS
 10
51.279999
 20
300.803131
 11
7.304970
 21
300.803131
  0
LINE
  8
0
  6
CONTINUOUS
 10
51.279999
 20
242.803131
 11
7.304970
 21
242.803131
  0
LINE
  8
0
  6
CONTINUOUS
 10
8.779980
 20
318.803131
 11
51.279999
 21
318.803131
  0
LINE
  8
0
  6
CONTINUOUS
 10
8.779980
 20
224.803131
 11
51.279999
 21
224.803131
  0
ARC
  8
0
  6
CONTINUOUS
 10
8.780010
 20
313.803131
 40
5.000000
 50
90.000000
 51
180.000000
  0
ARC
  8
0
  6
CONTINUOUS
 10
8.779980
 20
229.803131
 40
5.000000
 50
180.000000
 51
270.000000
  0
LINE
  8
0
  6
CONTINUOUS
 10
3.780010
 20
313.803131
 11
3.779980
 21
229.803116
  0
LINE
  8
0
  6
CONTINUOUS
 10
113.779984
 20
242.803131
 11
113.779984
 21
300.803131
  0
LINE
  8
0
  6
CONTINUOUS
 10
51.779980
 20
300.803131
 11
51.779980
 21
242.803131
  0
LINE
  8
0
  6
CENTER
 10
82.779984
 20
235.556870
 11
82.779984
 21
308.249695
  0
LINE
  8
0
  6
CONTINUOUS
 10
111.779984
 20
240.803131
 11
53.779980
 21
240.803131
  0
LINE
  8
0
  6
CONTINUOUS
 10
111.779984
 20
302.803131
 11
53.779980
 21
302.803131
  0
LINE
  8
0
  6
CONTINUOUS
 10
53.779980
 20
240.803131
 11
51.779980
 21
242.803131
  0
LINE
  8
0
  6
CONTINUOUS
 10
51.779980
 20
300.803131
 11
53.779980
 21
302.803131
  0
LINE
  8
0
  6
CONTINUOUS
 10
113.779984
 20
300.803131
 11
111.779984
 21
302.803131
  0
LINE
  8
0
  6
CONTINUOUS
 10
113.779984
 20
242.803131
 11
111.779984
 21
240.803131
  0
LINE
  8
0
  6
CONTINUOUS
 10
59.779980
 20
245.803131
 11
59.779980
 21
240.803131
  0
LINE
  8
0
  6
CONTINUOUS
 10
56.779980
 20
248.803131
 11
51.779980
 21
248.803131
  0
CIRCLE
  8
0
  6
CONTINUOUS
 10
55.779980
 20
244.803131
 40
2.250000
  0
ARC
  8
0
  6
CONTINUOUS
 10
56.779980
 20
245.803131
 40
3.000000
 50
0.000000
 51
90.000000
  0
LINE
  8
0
  6
CONTINUOUS
 10
52.779980
 20
249.803131
 11
52.779980
 21
293.803131
  0
LINE
  8
0
  6
CONTINUOUS
 10
56.779980
 20
249.803131
 11
52.779980
 21
249.803131
  0
ARC
  8
0
  6
CONTINUOUS
 10
56.779980
 20
245.803131
 40
4.000000
 50
0.000000
 51
90.000000
  0
LINE
  8
0
  6
CONTINUOUS
 10
60.779980
 20
241.803131
 11
60.779980
 21
245.803131
  0
LINE
  8
0
  6
CONTINUOUS
 10
52.779980
 20
249.803131
 11
51.779980
 21
248.803131
  0
LINE
  8
0
  6
CONTINUOUS
 10
104.779984
 20
241.803131
 11
60.779980
 21
241.803131
  0
LINE
  8
0
  6
CONTINUOUS
 10
60.779980
 20
241.803131
 11
59.779980
 21
240.803131
  0
LINE
  8
0
  6
CONTINUOUS
 10
108.779984
 20
248.803131
 11
113.779984
 21
248.803131
  0
LINE
  8
0
  6
CONTINUOUS
 10
105.779984
 20
245.803131
 11
105.779984
 21
240.803131
  0
CIRCLE
  8
0
  6
CONTINUOUS
 10
109.779984
 20
244.803131
 40
2.250000
  0
ARC
  8
0
  6
CONTINUOUS
 10
108.779984
 20
245.803131
 40
3.000000
 50
90.000000
 51
180.000000
  0
LINE
  8
0
  6
CONTINUOUS
 10
104.779984
 20
245.803131
 11
104.779984
 21
241.803131
  0
ARC
  8
0
  6
CONTINUOUS
 10
108.779984
 20
245.803131
 40
4.000000
 50
90.000000
 51
180.000000
  0
LINE
  8
0
  6
CONTINUOUS
 10
112.779984
 20
249.803131
 11
108.779984
 21
249.803131
  0
LINE
  8
0
  6
CONTINUOUS
 10
104.779984
 20
241.803131
 11
105.779984
 21
240.803131
  0
LINE
  8
0
  6
CONTINUOUS
 10
112.779984
 20
249.803131
 11
113.779984
 21
248.803131
  0
LINE
  8
0
  6
CONTINUOUS
 10
105.779984
 20
297.803131
 11
105.779984
 21
302.803131
  0
LINE
  8
0
  6
CONTINUOUS
 10
108.779984
 20
294.803131
 11
113.779984
 21
294.803131
  0
CIRCLE
  8
0
  6
CONTINUOUS
 10
109.779984
 20
298.803131
 40
2.250000
  0
ARC
  8
0
  6
CONTINUOUS
 10
108.779984
 20
297.803131
 40
3.000000
 50
180.000000
 51
270.000000
  0
LINE
  8
0
  6
CONTINUOUS
 10
108.779984
 20
293.803131
 11
112.779984
 21
293.803131
  0
ARC
  8
0
  6
CONTINUOUS
 10
108.779984
 20
297.803131
 40
4.000000
 50
180.000000
 51
270.000000
  0
LINE
  8
0
  6
CONTINUOUS
 10
104.779984
 20
301.803131
 11
104.779984
 21
297.803131
  0
LINE
  8
0
  6
CONTINUOUS
 10
112.779984
 20
293.803131
 11
113.779984
 21
294.803131
  0
LINE
  8
0
  6
CONTINUOUS
 10
104.779984
 20
301.803131
 11
105.779984
 21
302.803131
  0
LINE
  8
0
  6
CONTINUOUS
 10
56.779980
 20
294.803131
 11
51.779980
 21
294.803131
  0
LINE
  8
0
  6
CONTINUOUS
 10
59.779980
 20
297.803131
 11
59.779980
 21
302.803131
  0
CIRCLE
  8
0
  6
CONTINUOUS
 10
55.779980
 20
298.803131
 40
2.250000
  0
ARC
  8
0
  6
CONTINUOUS
 10
56.779980
 20
297.803131
 40
3.000000
 50
-90.000000
 51
0.000000
  0
LINE
  8
0
  6
CONTINUOUS
 10
60.779980
 20
297.803131
 11
60.779980
 21
301.803131
  0
ARC
  8
0
  6
CONTINUOUS
 10
56.779980
 20
297.803131
 40
4.000000
 50
-90.000000
 51
0.000000
  0
LINE
  8
0
  6
CONTINUOUS
 10
52.779980
 20
293.803131
 11
56.779980
 21
293.803131
  0
LINE
  8
0
  6
CONTINUOUS
 10
60.779980
 20
301.803131
 11
59.779980
 21
302.803131
  0
LINE
  8
0
  6
CONTINUOUS
 10
52.779980
 20
293.803131
 11
51.779980
 21
294.803131
  0
LINE
  8
0
  6
CONTINUOUS
 10
104.779984
 20
301.803131
 11
60.779980
 21
301.803131
  0
LINE
  8
0
  6
CONTINUOUS
 10
112.779984
 20
249.803131
 11
112.779984
 21
293.803131
  0
TEXT
  8
0
 10
-11.000000
 20
-4.000000
 40
4.000000
 41
1.000000
  1
HFMN-18T-80~240-T60C
 50
0.000000
  0
ENDSEC
  0
EOF
