  0
SECTION
  2
HEADER
  9
$CLAYER
  8
1
  9
$LTSCALE
 40
3.0
  0
ENDSEC
  0
SECTION
  2
TABLES
  0
TABLE
  2
LTYPE
 70
     4
  0
LTYPE
  2
CONTINUOUS
  3
solid line
 70
    64
 72
    65
 73
     0
 40
0.0
  0
LTYPE
  2
DASHED
  3
__ __ __ __ __ __ __ __ __ __ __ __ __ __ __
 70
    64
 72
    65
 73
     2
 40
0.75
 49
0.5
 49
-0.25
  0
LTYPE
  2
CENTER
  3
____ _ ____ _ ____ _ ____ _ ____ _ ____ _ ____
 70
    64
 72
    65
 73
     4
 40
2.0
 49
1.25
 49
-0.25
 49
0.25
 49
-0.25
  0
LTYPE
  2
PHANTOM
  3
_____ _ _ _____ _ _ _____ _ _ _____ _ _ ____
 70
    64
 72
    65
 73
     6
 40
2.5
 49
1.25
 49
-0.25
 49
0.25
 49
-0.25
 49
0.25
 49
-0.25
  0
ENDTAB
  0
TABLE
  2
LAYER
 70
     1
  0
LAYER
  2
0
 70
    64
 62
     7
  6
CONTINUOUS
  0
ENDTAB
  0
TABLE
  2
STYLE
 70
     1
  0
STYLE
  2
STANDARD
 70
     0
 40
0.000000
 41
1.000000
 50
0.000000
 71
     0
 42
3.000000
  3
txt
  4
BIGFONT
  0
ENDTAB
  0
ENDSEC
  0
SECTION
  2
BLOCKS
  0
ENDSEC
  0
SECTION
  2
ENTITIES
  0
LINE
  8
0
  6
CENTER
 10
296.632263
 20
167.150024
 11
296.632263
 21
-0.587500
  0
LINE
  8
0
  6
CENTER
 10
345.544067
 20
102.068764
 11
231.563477
 21
102.068764
  0
LINE
  8
0
  6
CONTINUOUS
 10
346.632263
 20
105.568764
 11
346.632263
 21
61.708073
  0
LINE
  8
0
  6
CONTINUOUS
 10
246.632278
 20
106.429443
 11
246.632278
 21
61.708096
  0
ARC
  8
0
  6
CONTINUOUS
 10
296.632263
 20
84.068771
 40
60.000000
 50
48.189610
 51
131.810394
  0
ARC
  8
0
  6
CONTINUOUS
 10
296.632263
 20
84.068771
 40
60.000000
 50
-131.810303
 51
-48.189701
  0
ARC
  8
0
  6
CONTINUOUS
 10
276.632263
 20
106.429443
 40
30.000000
 50
131.810394
 51
180.000000
  0
CIRCLE
  8
0
  6
CONTINUOUS
 10
296.632263
 20
102.068764
 40
27.500000
  0
ARC
  8
0
  6
CONTINUOUS
 10
296.632263
 20
102.068764
 40
31.750000
 50
7.552597
 51
172.447296
  0
ARC
  8
0
  6
CONTINUOUS
 10
313.382263
 20
60.568764
 40
20.600000
 50
-90.000000
 51
7.552597
  0
ARC
  8
0
  6
CONTINUOUS
 10
279.882263
 20
60.568764
 40
20.600000
 50
172.447296
 51
270.000000
  0
LINE
  8
0
  6
CONTINUOUS
 10
265.157684
 20
106.241920
 11
259.460876
 21
63.276390
  0
LINE
  8
0
  6
CONTINUOUS
 10
333.803467
 20
63.276352
 11
328.106689
 21
106.241859
  0
LINE
  8
0
  6
CONTINUOUS
 10
313.382263
 20
39.968761
 11
279.882263
 21
39.968761
  0
ARC
  8
0
  6
CONTINUOUS
 10
313.382263
 20
60.568764
 40
19.000000
 50
-90.000000
 51
7.552399
  0
ARC
  8
0
  6
CONTINUOUS
 10
279.882263
 20
60.568764
 40
19.000000
 50
172.447296
 51
270.000000
  0
ARC
  8
0
  6
CONTINUOUS
 10
296.632263
 20
102.068764
 40
30.150000
 50
-187.552704
 51
7.552612
  0
LINE
  8
0
  6
CONTINUOUS
 10
332.217285
 20
63.066055
 11
326.520660
 21
106.031578
  0
LINE
  8
0
  6
CONTINUOUS
 10
266.743683
 20
106.031616
 11
261.047089
 21
63.066090
  0
LINE
  8
0
  6
CONTINUOUS
 10
313.382263
 20
41.568760
 11
279.882263
 21
41.568760
  0
ARC
  8
0
  6
CONTINUOUS
 10
316.632263
 20
106.429459
 40
30.000000
 50
-1.671204
 51
48.189610
  0
ARC
  8
0
  6
CONTINUOUS
 10
316.632263
 20
61.708073
 40
30.000000
 50
-48.189701
 51
0.000000
  0
LINE
  8
0
  6
CONTINUOUS
 10
361.382263
 20
128.818756
 11
343.833069
 21
128.818756
  0
LINE
  8
0
  6
CONTINUOUS
 10
355.817688
 20
14.318760
 11
361.382263
 21
14.318760
  0
LINE
  8
0
  6
CONTINUOUS
 10
351.132263
 20
119.068764
 11
361.382263
 21
119.068764
  0
LINE
  8
0
  6
CONTINUOUS
 10
356.393066
 20
24.041321
 11
361.382263
 21
24.068762
  0
LINE
  8
0
  6
CONTINUOUS
 10
354.835266
 20
103.528763
 11
361.382263
 21
103.528763
  0
LINE
  8
0
  6
CONTINUOUS
 10
354.835266
 20
39.608761
 11
361.382263
 21
39.608761
  0
LINE
  8
0
  6
CENTER
 10
351.975952
 20
144.068756
 11
331.399689
 21
144.068756
  0
LINE
  8
0
  6
CENTER
 10
260.194672
 20
144.068756
 11
240.550308
 21
144.068756
  0
LINE
  8
0
  6
CENTER
 10
351.425079
 20
24.068760
 11
332.813477
 21
24.068760
  0
LINE
  8
0
  6
CENTER
 10
260.757263
 20
24.068760
 11
240.811874
 21
24.068760
  0
LINE
  8
0
  6
CENTER
 10
251.632278
 20
153.228134
 11
251.632278
 21
135.087494
  0
LINE
  8
0
  6
CENTER
 10
341.632263
 20
154.409058
 11
341.632263
 21
133.484055
  0
LINE
  8
0
  6
CENTER
 10
341.632263
 20
33.246880
 11
341.632263
 21
12.990937
  0
LINE
  8
0
  6
CENTER
 10
251.632278
 20
33.415642
 11
251.632278
 21
13.165313
  0
CIRCLE
  8
0
  6
CONTINUOUS
 10
251.632278
 20
144.068756
 40
5.500000
  0
CIRCLE
  8
0
  6
CONTINUOUS
 10
341.632263
 20
144.068756
 40
5.500000
  0
CIRCLE
  8
0
  6
CONTINUOUS
 10
341.632263
 20
24.068760
 40
5.500000
  0
CIRCLE
  8
0
  6
CONTINUOUS
 10
251.632278
 20
24.068760
 40
5.500000
  0
ARC
  8
0
  6
CONTINUOUS
 10
251.632278
 20
144.068756
 40
12.000000
 50
90.000000
 51
180.000000
  0
ARC
  8
0
  6
CONTINUOUS
 10
341.632263
 20
144.068756
 40
12.000000
 50
0.000000
 51
90.000000
  0
ARC
  8
0
  6
CONTINUOUS
 10
341.632263
 20
24.068760
 40
12.000000
 50
270.000000
 51
358.060608
  0
ARC
  8
0
  6
CONTINUOUS
 10
251.632278
 20
24.068760
 40
12.000000
 50
180.000000
 51
270.000000
  0
LINE
  8
0
  6
CONTINUOUS
 10
251.632278
 20
156.068756
 11
341.632263
 21
156.068756
  0
LINE
  8
0
  6
CONTINUOUS
 10
341.632080
 20
12.068760
 11
251.632278
 21
12.068760
  0
LINE
  8
0
  6
CONTINUOUS
 10
239.632278
 20
144.068756
 11
239.632278
 21
24.068760
  0
LINE
  8
0
  6
CONTINUOUS
 10
354.290283
 20
23.197161
 11
354.819885
 21
15.252240
  0
ARC
  8
0
  6
CONTINUOUS
 10
355.817688
 20
15.318760
 40
1.000000
 50
-176.185806
 51
-90.000000
  0
LINE
  8
0
  6
CONTINUOUS
 10
286.335876
 20
49.068779
 11
282.175476
 21
49.068779
  0
LINE
  8
0
  6
CONTINUOUS
 10
288.632263
 20
56.037521
 11
288.632263
 21
49.068779
  0
LINE
  8
0
  6
CONTINUOUS
 10
292.632263
 20
58.568771
 11
292.632263
 21
61.068771
  0
LINE
  8
0
  6
CONTINUOUS
 10
300.632263
 20
58.568771
 11
300.632263
 21
61.068771
  0
LINE
  8
0
  6
CONTINUOUS
 10
295.850861
 20
59.600021
 11
295.850861
 21
50.381279
  0
LINE
  8
0
  6
CONTINUOUS
 10
297.350861
 20
59.600021
 11
297.350861
 21
50.381279
  0
LINE
  8
0
  6
CONTINUOUS
 10
305.225861
 20
59.600021
 11
305.225861
 21
50.318779
  0
LINE
  8
0
  6
CONTINUOUS
 10
306.600861
 20
54.678146
 11
306.600861
 21
50.318779
  0
LINE
  8
0
  6
CONTINUOUS
 10
286.734070
 20
59.475021
 11
282.879089
 21
59.475021
  0
LINE
  8
0
  6
CONTINUOUS
 10
282.879089
 20
59.475021
 11
281.975861
 21
58.355026
  0
LINE
  8
0
  6
CONTINUOUS
 10
282.084473
 20
61.068771
 11
280.632263
 21
59.209023
  0
LINE
  8
0
  6
CONTINUOUS
 10
281.975861
 20
51.441681
 11
282.893677
 21
50.475021
  0
LINE
  8
0
  6
CONTINUOUS
 10
280.632263
 20
50.625938
 11
282.175476
 21
49.068779
  0
LINE
  8
0
  6
CONTINUOUS
 10
280.632263
 20
59.209023
 11
280.632263
 21
50.625938
  0
LINE
  8
0
  6
CONTINUOUS
 10
281.975861
 20
58.355026
 11
281.975861
 21
51.441681
  0
LINE
  8
0
  6
CONTINUOUS
 10
287.475861
 20
58.757919
 11
286.718872
 21
59.475021
  0
LINE
  8
0
  6
CONTINUOUS
 10
287.463867
 20
61.068771
 11
288.632263
 21
59.772278
  0
LINE
  8
0
  6
CONTINUOUS
 10
287.475861
 20
58.568771
 11
288.632263
 21
58.568771
  0
LINE
  8
0
  6
CONTINUOUS
 10
282.084473
 20
61.068771
 11
287.463867
 21
61.068771
  0
LINE
  8
0
  6
CONTINUOUS
 10
285.382263
 20
56.037521
 11
288.632263
 21
56.037521
  0
LINE
  8
0
  6
CONTINUOUS
 10
287.475861
 20
54.725021
 11
285.382263
 21
54.725021
  0
LINE
  8
0
  6
CONTINUOUS
 10
284.975861
 20
50.475021
 11
282.893677
 21
50.475021
  0
LINE
  8
0
  6
CONTINUOUS
 10
287.475861
 20
53.475021
 11
287.475861
 21
54.475021
  0
ARC
  8
0
  6
CONTINUOUS
 10
284.975861
 20
52.975021
 40
2.500000
 50
-89.999786
 51
0.000109
  0
LINE
  8
0
  6
CONTINUOUS
 10
287.475861
 20
50.025318
 11
287.475861
 21
49.068779
  0
LINE
  8
0
  6
CONTINUOUS
 10
288.632263
 20
59.772278
 11
288.632263
 21
58.568771
  0
LINE
  8
0
  6
CONTINUOUS
 10
287.475861
 20
54.725021
 11
287.475861
 21
52.975021
  0
LINE
  8
0
  6
CONTINUOUS
 10
285.382263
 20
56.037521
 11
285.382263
 21
54.725021
  0
LINE
  8
0
  6
CONTINUOUS
 10
287.475861
 20
49.068779
 11
288.632263
 21
49.068779
  0
LINE
  8
0
  6
CONTINUOUS
 10
287.475861
 20
50.025318
 11
286.335876
 21
49.068779
  0
LINE
  8
0
  6
CONTINUOUS
 10
297.350861
 20
50.381279
 11
297.850861
 21
50.381279
  0
LINE
  8
0
  6
CONTINUOUS
 10
295.257263
 20
50.381279
 11
295.257263
 21
49.068779
  0
LINE
  8
0
  6
CONTINUOUS
 10
297.850861
 20
50.381279
 11
297.850861
 21
49.068779
  0
LINE
  8
0
  6
CONTINUOUS
 10
299.797668
 20
58.568771
 11
300.632263
 21
58.568771
  0
LINE
  8
0
  6
CONTINUOUS
 10
292.632263
 20
58.568771
 11
293.520264
 21
58.568771
  0
LINE
  8
0
  6
CONTINUOUS
 10
292.632263
 20
61.068771
 11
300.632263
 21
61.068771
  0
LINE
  8
0
  6
CONTINUOUS
 10
295.257263
 20
49.068779
 11
297.850861
 21
49.068779
  0
LINE
  8
0
  6
CONTINUOUS
 10
295.257263
 20
50.381279
 11
295.850861
 21
50.381279
  0
ARC
  8
0
  6
CONTINUOUS
 10
309.429077
 20
57.865646
 40
3.203126
 50
-73.981873
 51
90.003510
  0
ARC
  8
0
  6
CONTINUOUS
 10
309.429077
 20
57.865646
 40
1.954124
 50
-82.585274
 51
62.411850
  0
LINE
  8
0
  6
CONTINUOUS
 10
304.632263
 20
61.068771
 11
309.429077
 21
61.068771
  0
LINE
  8
0
  6
CONTINUOUS
 10
309.681274
 20
55.927864
 11
306.600861
 21
55.927864
  0
LINE
  8
0
  6
CONTINUOUS
 10
304.632263
 20
61.068771
 11
304.632263
 21
59.600021
  0
LINE
  8
0
  6
CONTINUOUS
 10
306.600861
 20
59.600021
 11
306.600861
 21
55.927864
  0
LINE
  8
0
  6
CONTINUOUS
 10
310.312866
 20
54.786880
 11
312.295471
 21
50.318779
  0
LINE
  8
0
  6
CONTINUOUS
 10
309.161469
 20
54.678146
 11
311.037689
 21
50.318779
  0
LINE
  8
0
  6
CONTINUOUS
 10
304.632263
 20
50.318779
 11
305.225861
 21
50.318779
  0
LINE
  8
0
  6
CONTINUOUS
 10
306.600861
 20
50.318779
 11
307.147888
 21
50.318779
  0
LINE
  8
0
  6
CONTINUOUS
 10
307.147888
 20
49.068779
 11
304.632263
 21
49.068779
  0
LINE
  8
0
  6
CONTINUOUS
 10
310.788483
 20
50.318779
 11
311.037689
 21
50.318779
  0
LINE
  8
0
  6
CONTINUOUS
 10
310.788483
 20
49.068779
 11
312.632263
 21
49.068779
  0
LINE
  8
0
  6
CONTINUOUS
 10
310.788483
 20
50.318779
 11
310.788483
 21
49.068779
  0
LINE
  8
0
  6
CONTINUOUS
 10
307.147888
 20
50.318779
 11
307.147888
 21
49.068779
  0
LINE
  8
0
  6
CONTINUOUS
 10
304.632263
 20
50.318779
 11
304.632263
 21
49.068779
  0
LINE
  8
0
  6
CONTINUOUS
 10
293.949890
 20
59.600021
 11
293.520264
 21
58.568771
  0
LINE
  8
0
  6
CONTINUOUS
 10
299.435486
 20
59.600021
 11
299.797668
 21
58.568771
  0
LINE
  8
0
  6
CONTINUOUS
 10
297.350861
 20
59.600021
 11
299.435486
 21
59.600021
  0
LINE
  8
0
  6
CONTINUOUS
 10
295.850861
 20
59.600021
 11
293.949890
 21
59.600021
  0
LINE
  8
0
  6
CONTINUOUS
 10
306.600861
 20
54.678146
 11
309.161469
 21
54.678146
  0
LINE
  8
0
  6
CONTINUOUS
 10
304.632263
 20
59.600021
 11
305.225861
 21
59.600021
  0
LINE
  8
0
  6
CONTINUOUS
 10
306.600861
 20
59.600021
 11
310.334076
 21
59.597595
  0
LINE
  8
0
  6
CONTINUOUS
 10
287.475861
 20
58.757919
 11
287.475861
 21
58.568771
  0
LINE
  8
0
  6
CONTINUOUS
 10
315.070282
 20
146.568756
 11
278.194061
 21
146.568756
  0
LINE
  8
0
  6
CONTINUOUS
 10
315.070282
 20
21.568760
 11
278.194061
 21
21.568760
  0
LINE
  8
0
  6
CONTINUOUS
 10
244.132278
 20
46.688519
 11
244.132278
 21
121.448997
  0
LINE
  8
0
  6
CONTINUOUS
 10
349.132263
 20
121.068764
 11
349.132263
 21
121.448997
  0
LINE
  8
0
  6
CONTINUOUS
 10
341.305267
 20
37.568760
 11
349.382263
 21
37.568760
  0
LINE
  8
0
  6
CONTINUOUS
 10
353.632263
 20
144.068726
 11
353.632263
 21
128.818756
  0
LINE
  8
0
  6
CONTINUOUS
 10
276.632263
 20
155.323715
 11
276.632263
 21
147.127045
  0
LINE
  8
0
  6
CONTINUOUS
 10
316.632263
 20
155.323715
 11
316.632263
 21
147.127045
  0
LINE
  8
0
  6
CONTINUOUS
 10
276.632263
 20
20.228319
 11
276.632263
 21
13.407740
  0
LINE
  8
0
  6
CONTINUOUS
 10
316.632263
 20
20.228319
 11
316.632263
 21
13.407740
  0
LINE
  8
0
  6
CONTINUOUS
 10
246.286072
 20
125.559959
 11
275.348083
 21
145.679718
  0
LINE
  8
0
  6
CONTINUOUS
 10
346.978271
 20
125.559959
 11
317.916260
 21
145.679718
  0
LINE
  8
0
  6
CONTINUOUS
 10
275.348083
 20
22.457800
 11
246.286072
 21
42.577560
  0
LINE
  8
0
  6
CONTINUOUS
 10
338.459076
 20
36.679722
 11
317.916260
 21
22.457800
  0
ARC
  8
0
  6
CONTINUOUS
 10
278.194061
 20
141.568756
 40
5.000000
 50
90.000000
 51
124.695396
  0
ARC
  8
0
  6
CONTINUOUS
 10
315.070282
 20
141.568756
 40
5.000000
 50
55.305019
 51
90.000000
  0
ARC
  8
0
  6
CONTINUOUS
 10
249.132278
 20
121.449020
 40
5.000000
 50
124.695503
 51
180.000000
  0
ARC
  8
0
  6
CONTINUOUS
 10
249.132080
 20
46.688560
 40
5.000000
 50
180.000000
 51
235.305206
  0
ARC
  8
0
  6
CONTINUOUS
 10
278.194061
 20
26.568760
 40
5.000000
 50
235.304794
 51
270.000000
  0
ARC
  8
0
  6
CONTINUOUS
 10
315.070282
 20
26.568760
 40
5.000000
 50
270.000000
 51
304.695190
  0
ARC
  8
0
  6
CONTINUOUS
 10
341.305267
 20
32.568760
 40
5.000000
 50
90.000000
 51
124.695396
  0
ARC
  8
0
  6
CONTINUOUS
 10
344.132263
 20
121.448982
 40
5.000000
 50
0.000000
 51
55.304981
  0
ARC
  8
0
  6
CONTINUOUS
 10
343.832886
 20
133.818756
 40
5.000000
 50
235.304794
 51
270.000000
  0
ARC
  8
0
  6
CONTINUOUS
 10
351.132263
 20
121.068764
 40
2.000000
 50
180.000000
 51
270.000000
  0
LINE
  8
0
  6
CONTINUOUS
 10
354.382263
 20
21.818661
 11
354.382263
 21
117.068764
  0
ARC
  8
0
  6
CONTINUOUS
 10
356.382263
 20
117.068779
 40
2.000000
 50
90.000000
 51
180.000000
  0
ARC
  8
0
  6
CONTINUOUS
 10
356.382263
 20
26.041300
 40
2.000000
 50
180.000000
 51
270.315186
  0
LINE
  8
0
  6
CONTINUOUS
 10
353.791473
 20
23.663900
 11
353.588684
 21
23.663900
  0
ARC
  8
0
  6
CONTINUOUS
 10
353.791473
 20
23.163900
 40
0.500000
 50
3.814180
 51
90.000000
  0
ARC
  8
0
  6
CONTINUOUS
 10
349.382263
 20
32.568741
 40
5.000000
 50
0.000000
 51
90.000000
  0
ARC
  8
0
  6
CONTINUOUS
 10
276.632263
 20
61.708092
 40
30.000000
 50
180.000000
 51
228.189606
  0
LINE
  8
0
  6
CONTINUOUS
 10
289.132263
 20
105.068764
 11
289.132263
 21
99.068764
  0
LINE
  8
0
  6
CONTINUOUS
 10
283.132263
 20
105.068764
 11
283.132263
 21
99.068764
  0
LINE
  8
0
  6
CONTINUOUS
 10
283.132263
 20
105.068764
 11
289.132263
 21
105.068764
  0
LINE
  8
0
  6
CONTINUOUS
 10
283.132263
 20
99.068764
 11
289.132263
 21
99.068764
  0
ARC
  8
0
  6
CONTINUOUS
 10
296.632263
 20
102.068764
 40
11.000000
 50
-164.173401
 51
164.173401
  0
LINE
  8
0
  6
CONTINUOUS
 10
361.382263
 20
129.068878
 11
361.382263
 21
14.068873
  0
LINE
  8
0
  6
CONTINUOUS
 10
312.295471
 20
50.318779
 11
312.632263
 21
50.318779
  0
LINE
  8
0
  6
CONTINUOUS
 10
312.632263
 20
50.318779
 11
312.632263
 21
49.068779
  0
LINE
  8
0
  6
CENTER
 10
234.896667
 20
313.243774
 11
596.922485
 21
313.243774
  0
LINE
  8
0
  6
CONTINUOUS
 10
358.882263
 20
370.493774
 11
361.382263
 21
370.493774
  0
LINE
  8
0
  6
CONTINUOUS
 10
356.864868
 20
255.993759
 11
361.382263
 21
255.993759
  0
LINE
  8
0
  6
CONTINUOUS
 10
354.132263
 20
370.493774
 11
361.382263
 21
370.493774
  0
LINE
  8
0
  6
CONTINUOUS
 10
352.678070
 20
345.243774
 11
361.382263
 21
345.243774
  0
LINE
  8
0
  6
CONTINUOUS
 10
354.115662
 20
360.743774
 11
361.382263
 21
360.743774
  0
LINE
  8
0
  6
CONTINUOUS
 10
356.021881
 20
265.743774
 11
361.382263
 21
265.743774
  0
LINE
  8
0
  6
CONTINUOUS
 10
361.382263
 20
281.243774
 11
244.593475
 21
281.243774
  0
LINE
  8
0
  6
CONTINUOUS
 10
355.865082
 20
256.976257
 11
355.527191
 21
276.331024
  0
ARC
  8
0
  6
CONTINUOUS
 10
356.864990
 20
256.993774
 40
1.000000
 50
181.000702
 51
270.000000
  0
ARC
  8
0
  6
CONTINUOUS
 10
350.527863
 20
276.243774
 40
5.000000
 50
1.000200
 51
90.000000
  0
LINE
  8
0
  6
CONTINUOUS
 10
361.382263
 20
255.743759
 11
361.382263
 21
370.743774
  0
LINE
  8
0
  6
CONTINUOUS
 10
239.632278
 20
371.243774
 11
353.632263
 21
371.243774
  0
LINE
  8
0
  6
CONTINUOUS
 10
316.632263
 20
281.243774
 11
316.632263
 21
358.441467
  0
LINE
  8
0
  6
CONTINUOUS
 10
276.632263
 20
281.243774
 11
276.632263
 21
358.441467
  0
LINE
  8
0
  6
CONTINUOUS
 10
243.093979
 20
282.704468
 11
241.110275
 21
358.441467
  0
ARC
  8
0
  6
CONTINUOUS
 10
244.593582
 20
282.743774
 40
1.500000
 50
181.500198
 51
270.000000
  0
LINE
  8
0
  6
CONTINUOUS
 10
352.632263
 20
359.243774
 11
240.920776
 21
359.243774
  0
LINE
  8
0
  6
CONTINUOUS
 10
353.632263
 20
360.243774
 11
353.632263
 21
371.243774
  0
LINE
  8
0
  6
CONTINUOUS
 10
239.632278
 20
371.243774
 11
239.921082
 21
360.217560
  0
ARC
  8
0
  6
CONTINUOUS
 10
240.920776
 20
360.243774
 40
1.000000
 50
181.500107
 51
270.000000
  0
ARC
  8
0
  6
CONTINUOUS
 10
240.110870
 20
358.415253
 40
1.000000
 50
1.500400
 51
66.108803
  0
ARC
  8
0
  6
CONTINUOUS
 10
354.132263
 20
370.993774
 40
0.500000
 50
180.000000
 51
270.000000
  0
LINE
  8
0
  6
CENTER
 10
403.154999
 20
71.568764
 11
329.438507
 21
71.568764
  0
LINE
  8
0
  6
CONTINUOUS
 10
361.382263
 20
129.068756
 11
361.382263
 21
14.068760
  0
LINE
  8
0
  6
CENTER
 10
63.964455
 20
-2.762500
 11
63.964455
 21
165.266724
  0
LINE
  8
0
  6
CENTER
 10
-4.460000
 20
71.568764
 11
130.224258
 21
71.568764
  0
LINE
  8
0
  6
CENTER
 10
-4.460000
 20
102.068764
 11
162.807251
 21
102.068764
  0
LINE
  8
0
  6
CONTINUOUS
 10
5.964655
 20
102.068764
 11
5.964655
 21
12.068740
  0
LINE
  8
0
  6
CONTINUOUS
 10
17.964655
 20
102.068764
 11
17.964655
 21
154.068756
  0
LINE
  8
0
  6
CONTINUOUS
 10
16.046455
 20
156.068756
 11
5.964655
 21
156.068756
  0
LINE
  8
0
  6
CONTINUOUS
 10
16.046455
 20
12.068780
 11
5.964655
 21
12.068780
  0
LINE
  8
0
  6
CONTINUOUS
 10
95.964455
 20
22.551439
 11
95.964455
 21
145.586075
  0
LINE
  8
0
  6
CONTINUOUS
 10
94.982254
 20
146.585938
 11
19.929855
 21
147.895645
  0
LINE
  8
0
  6
CONTINUOUS
 10
94.982254
 20
21.551620
 11
19.929855
 21
20.241301
  0
LINE
  8
0
  6
CONTINUOUS
 10
19.873655
 20
124.068741
 11
94.897255
 21
124.068741
  0
LINE
  8
0
  6
CONTINUOUS
 10
19.873655
 20
44.068760
 11
94.574257
 21
44.068760
  0
LINE
  8
0
  6
CONTINUOUS
 10
18.461254
 20
13.921740
 11
19.570456
 21
18.061581
  0
LINE
  8
0
  6
CONTINUOUS
 10
18.461254
 20
154.215836
 11
19.570656
 21
150.075317
  0
ARC
  8
0
  6
CONTINUOUS
 10
22.468454
 20
150.851837
 40
3.000000
 50
195.000702
 51
269.000488
  0
ARC
  8
0
  6
CONTINUOUS
 10
15.964655
 20
154.068756
 40
2.000000
 50
0.000000
 51
90.000000
  0
ARC
  8
0
  6
CONTINUOUS
 10
19.964655
 20
149.895355
 40
2.000000
 50
180.000000
 51
269.000610
  0
ARC
  8
0
  6
CONTINUOUS
 10
22.468254
 20
17.285139
 40
3.000000
 50
91.000526
 51
165.000305
  0
ARC
  8
0
  6
CONTINUOUS
 10
19.964655
 20
18.241619
 40
2.000000
 50
91.000633
 51
180.000000
  0
ARC
  8
0
  6
CONTINUOUS
 10
15.964655
 20
14.068780
 40
2.000000
 50
-90.000000
 51
0.000000
  0
ARC
  8
0
  6
CONTINUOUS
 10
94.964455
 20
145.586075
 40
1.000000
 50
0.000000
 51
89.000359
  0
ARC
  8
0
  6
CONTINUOUS
 10
94.964455
 20
22.551439
 40
1.000000
 50
-88.999573
 51
0.000000
  0
LINE
  8
0
  6
CENTER
 10
0.470855
 20
144.068756
 11
23.107454
 21
144.068756
  0
LINE
  8
0
  6
CENTER
 10
0.470855
 20
24.068741
 11
23.107454
 21
24.068741
  0
LINE
  8
0
  6
DASHED
 10
5.964655
 20
149.568756
 11
17.964655
 21
149.568756
  0
LINE
  8
0
  6
DASHED
 10
5.964655
 20
138.568756
 11
17.964655
 21
138.568756
  0
LINE
  8
0
  6
DASHED
 10
5.964655
 20
29.568741
 11
17.964655
 21
29.568741
  0
LINE
  8
0
  6
DASHED
 10
5.964655
 20
18.568741
 11
17.964655
 21
18.568741
  0
LINE
  8
0
  6
CONTINUOUS
 10
111.964455
 20
76.875916
 11
111.964455
 21
127.261597
  0
LINE
  8
0
  6
CONTINUOUS
 10
101.964455
 20
43.873600
 11
101.964455
 21
104.138741
  0
LINE
  8
0
  6
CONTINUOUS
 10
109.734856
 20
130.161041
 11
98.194656
 21
133.226440
  0
LINE
  8
0
  6
CONTINUOUS
 10
109.734856
 20
73.976463
 11
104.194252
 21
72.504807
  0
LINE
  8
0
  6
CONTINUOUS
 10
99.737656
 20
40.974918
 11
98.191658
 21
40.562618
  0
ARC
  8
0
  6
CONTINUOUS
 10
108.964455
 20
127.261597
 40
3.000000
 50
0.000000
 51
75.124413
  0
ARC
  8
0
  6
CONTINUOUS
 10
108.964455
 20
76.875916
 40
3.000000
 50
-75.124207
 51
0.000000
  0
ARC
  8
0
  6
CONTINUOUS
 10
98.964455
 20
43.873600
 40
3.000000
 50
-75.068420
 51
0.000000
  0
ARC
  8
0
  6
CONTINUOUS
 10
98.964455
 20
136.125916
 40
3.000000
 50
180.000000
 51
255.124603
  0
ARC
  8
0
  6
CONTINUOUS
 10
104.964455
 20
69.605370
 40
3.000000
 50
104.876099
 51
180.000000
  0
ARC
  8
0
  6
CONTINUOUS
 10
98.964455
 20
37.663921
 40
3.000000
 50
104.931801
 51
180.000000
  0
LINE
  8
0
  6
CONTINUOUS
 10
111.464455
 20
29.068741
 11
111.464455
 21
38.120098
  0
LINE
  8
0
  6
CONTINUOUS
 10
106.464455
 20
24.068741
 11
97.413452
 21
24.068741
  0
ARC
  8
0
  6
CONTINUOUS
 10
63.964455
 20
71.568764
 40
57.250000
 50
-32.501888
 51
19.914110
  0
ARC
  8
0
  6
CONTINUOUS
 10
63.964455
 20
71.568764
 40
57.250000
 50
243.004898
 51
298.995514
  0
ARC
  8
0
  6
CONTINUOUS
 10
106.464455
 20
29.068741
 40
5.000000
 50
-90.000000
 51
0.000000
  0
ARC
  8
0
  6
CONTINUOUS
 10
116.464455
 20
38.120098
 40
5.000000
 50
147.498093
 51
180.000000
  0
ARC
  8
0
  6
CONTINUOUS
 10
97.413452
 20
19.068741
 40
5.000000
 50
90.000000
 51
106.842003
  0
LINE
  8
0
  6
CONTINUOUS
 10
5.964655
 20
156.068756
 11
5.964655
 21
102.068764
  0
LINE
  8
0
  6
CONTINUOUS
 10
17.964655
 20
14.068780
 11
17.964655
 21
102.068764
  0
LINE
  8
0
  6
CONTINUOUS
 10
153.964462
 20
91.068764
 11
153.964462
 21
113.068741
  0
LINE
  8
0
  6
CONTINUOUS
 10
113.964455
 20
113.068741
 11
153.964462
 21
113.068741
  0
LINE
  8
0
  6
CONTINUOUS
 10
113.964455
 20
91.068764
 11
153.964462
 21
91.068764
  0
LINE
  8
0
  6
CONTINUOUS
 10
113.964455
 20
114.568741
 11
113.964455
 21
89.568764
  0
LINE
  8
0
  6
CONTINUOUS
 10
111.964455
 20
114.568741
 11
113.964455
 21
114.568741
  0
LINE
  8
0
  6
CONTINUOUS
 10
111.964455
 20
89.568764
 11
113.964455
 21
89.568764
  0
ARC
  8
0
  6
CONTINUOUS
 10
121.964455
 20
102.068764
 40
3.000000
 50
90.000000
 51
270.000000
  0
LINE
  8
0
  6
CONTINUOUS
 10
121.964455
 20
105.068741
 11
153.964462
 21
105.068741
  0
LINE
  8
0
  6
CONTINUOUS
 10
121.964455
 20
99.068764
 11
153.964462
 21
99.068764
  0
ARC
  8
0
  6
CONTINUOUS
 10
16.046455
 20
153.568756
 40
2.500000
 50
15.000760
 51
90.000000
  0
ARC
  8
0
  6
CONTINUOUS
 10
16.046455
 20
14.568780
 40
2.500000
 50
270.000000
 51
345.000214
  0
ARC
  8
0
  6
CONTINUOUS
 10
63.964455
 20
71.568764
 40
57.499821
 50
303.815704
 51
303.996307
  0
ARC
  8
0
  6
CONTINUOUS
 10
63.964455
 20
71.568764
 40
57.500000
 50
242.540298
 51
299.460602
  0
ARC
  8
0
  6
CONTINUOUS
 10
63.964455
 20
71.568764
 40
57.500000
 50
-33.996769
 51
19.823891
  0
ARC
  8
0
  6
CONTINUOUS
 10
63.964455
 20
71.568764
 40
57.500000
 50
303.815613
 51
303.997314
  0
LINE
  8
0
  6
CONTINUOUS
 10
350.170563
 20
282.704498
 11
350.373291
 21
290.443756
  0
ARC
  8
0
  6
CONTINUOUS
 10
348.671082
 20
282.743774
 40
1.500000
 50
270.000000
 51
358.499664
  0
ARC
  8
0
  6
CONTINUOUS
 10
352.632263
 20
360.243774
 40
1.000000
 50
-90.000000
 51
0.000000
  0
ARC
  8
0
  6
CONTINUOUS
 10
353.151245
 20
358.312256
 40
1.000000
 50
105.039177
 51
178.499649
  0
LINE
  8
0
  6
CENTER
 10
296.632263
 20
217.042068
 11
296.632263
 21
384.363739
  0
LINE
  8
0
  6
CONTINUOUS
 10
321.825104
 20
265.243774
 11
271.439423
 21
265.243774
  0
LINE
  8
0
  6
CONTINUOUS
 10
266.476013
 20
275.243774
 11
263.189178
 21
275.243774
  0
ARC
  8
0
  6
CONTINUOUS
 10
271.439423
 20
268.243774
 40
3.000000
 50
-165.124313
 51
-90.000000
  0
LINE
  8
0
  6
CONTINUOUS
 10
260.289734
 20
277.473602
 11
259.880585
 21
279.013916
  0
ARC
  8
0
  6
CONTINUOUS
 10
263.189178
 20
278.243774
 40
3.000000
 50
-165.124313
 51
-90.000000
  0
ARC
  8
0
  6
CONTINUOUS
 10
256.981110
 20
278.243774
 40
3.000000
 50
14.875682
 51
90.000000
  0
LINE
  8
0
  6
CONTINUOUS
 10
266.476013
 20
275.243774
 11
268.539978
 21
267.473602
  0
LINE
  8
0
  6
CONTINUOUS
 10
332.974823
 20
277.473602
 11
333.383972
 21
279.013916
  0
ARC
  8
0
  6
CONTINUOUS
 10
330.075378
 20
278.243774
 40
3.000000
 50
270.000000
 51
345.124329
  0
ARC
  8
0
  6
CONTINUOUS
 10
336.283417
 20
278.243774
 40
3.000000
 50
90.000000
 51
165.124313
  0
LINE
  8
0
  6
CONTINUOUS
 10
326.788513
 20
275.243774
 11
330.075378
 21
275.243774
  0
ARC
  8
0
  6
CONTINUOUS
 10
321.825104
 20
268.243774
 40
3.000000
 50
270.000000
 51
345.124329
  0
LINE
  8
0
  6
CONTINUOUS
 10
326.788513
 20
275.243774
 11
324.724579
 21
267.473602
  0
LINE
  8
0
  6
CONTINUOUS
 10
307.632263
 20
223.243759
 11
283.132263
 21
223.243759
  0
LINE
  8
0
  6
CONTINUOUS
 10
285.632263
 20
263.243774
 11
285.632263
 21
258.243774
  0
LINE
  8
0
  6
CONTINUOUS
 10
307.632263
 20
263.243774
 11
307.632263
 21
223.243759
  0
LINE
  8
0
  6
CONTINUOUS
 10
284.132263
 20
265.243774
 11
284.132263
 21
263.243774
  0
LINE
  8
0
  6
CONTINUOUS
 10
309.132263
 20
265.243774
 11
309.132263
 21
263.243774
  0
LINE
  8
0
  6
CONTINUOUS
 10
309.132263
 20
263.243774
 11
284.132263
 21
263.243774
  0
LINE
  8
0
  6
CONTINUOUS
 10
283.132263
 20
258.243774
 11
283.132263
 21
223.243759
  0
LINE
  8
0
  6
CONTINUOUS
 10
286.049255
 20
223.243759
 11
286.049255
 21
258.243774
  0
LINE
  8
0
  6
CONTINUOUS
 10
286.049255
 20
258.243774
 11
283.132263
 21
258.243774
  0
ARC
  8
0
  6
CONTINUOUS
 10
411.816681
 20
311.650085
 40
65.000000
 50
157.957932
 51
199.041382
  0
LINE
  8
0
  6
CONTINUOUS
 10
351.567627
 20
336.043762
 11
352.151581
 21
358.338440
  0
LINE
  8
0
  6
CONTINUOUS
 10
527.382324
 20
98.568741
 11
413.382294
 21
98.568741
  0
LINE
  8
0
  6
CONTINUOUS
 10
527.382324
 20
22.568781
 11
413.382294
 21
22.568781
  0
LINE
  8
0
  6
CONTINUOUS
 10
527.382324
 20
90.817741
 11
421.382294
 21
90.817741
  0
LINE
  8
0
  6
CONTINUOUS
 10
527.382324
 20
30.319780
 11
421.382294
 21
30.319780
  0
LINE
  8
0
  6
CONTINUOUS
 10
421.382294
 20
96.568741
 11
421.382294
 21
24.568760
  0
ARC
  8
0
  6
CONTINUOUS
 10
419.382294
 20
96.568764
 40
2.000000
 50
0.000000
 51
90.000000
  0
ARC
  8
0
  6
CONTINUOUS
 10
419.382294
 20
24.568781
 40
2.000000
 50
-90.000000
 51
0.000000
  0
LINE
  8
0
  6
CONTINUOUS
 10
371.795044
 20
100.021019
 11
413.382294
 21
98.568764
  0
LINE
  8
0
  6
CONTINUOUS
 10
361.382294
 20
20.752880
 11
413.382294
 21
22.568760
  0
LINE
  8
0
  6
CONTINUOUS
 10
369.382294
 20
128.068756
 11
369.382294
 21
101.068764
  0
LINE
  8
0
  6
CONTINUOUS
 10
368.382294
 20
129.068756
 11
361.382263
 21
129.068756
  0
LINE
  8
0
  6
CONTINUOUS
 10
366.882294
 20
14.068760
 11
361.382294
 21
14.068760
  0
LINE
  8
0
  6
CONTINUOUS
 10
369.382294
 20
101.568764
 11
369.382294
 21
30.656103
  0
LINE
  8
0
  6
CONTINUOUS
 10
413.382294
 20
98.568764
 11
413.382294
 21
22.568760
  0
LINE
  8
0
  6
CONTINUOUS
 10
370.795410
 20
111.886566
 11
396.738861
 21
99.362152
  0
ARC
  8
0
  6
CONTINUOUS
 10
368.382294
 20
128.068756
 40
1.000000
 50
0.000000
 51
90.000000
  0
ARC
  8
0
  6
CONTINUOUS
 10
371.882294
 20
114.137939
 40
2.500000
 50
180.000000
 51
244.230682
  0
ARC
  8
0
  6
CONTINUOUS
 10
371.882294
 20
102.519493
 40
2.500000
 50
180.000000
 51
268.000000
  0
ARC
  8
0
  6
CONTINUOUS
 10
397.825714
 20
101.613533
 40
2.500000
 50
-115.769325
 51
-92.000000
  0
LINE
  8
0
  6
CONTINUOUS
 10
368.257202
 20
28.414761
 11
361.382294
 21
28.414761
  0
LINE
  8
0
  6
CONTINUOUS
 10
369.382294
 20
16.568760
 11
369.382294
 21
18.618025
  0
ARC
  8
0
  6
CONTINUOUS
 10
366.882294
 20
16.568760
 40
2.500000
 50
-90.000000
 51
0.000000
  0
ARC
  8
0
  6
CONTINUOUS
 10
371.882294
 20
18.618025
 40
2.500000
 50
92.000000
 51
180.000000
  0
LINE
  8
0
  6
CENTER
 10
598.387512
 20
60.568760
 11
328.632294
 21
60.568760
  0
LINE
  8
0
  6
CONTINUOUS
 10
366.882263
 20
370.743774
 11
361.382263
 21
370.743774
  0
LINE
  8
0
  6
CONTINUOUS
 10
366.882263
 20
255.743759
 11
361.382263
 21
255.743759
  0
LINE
  8
0
  6
CONTINUOUS
 10
369.382263
 20
368.243774
 11
369.382263
 21
258.243774
  0
LINE
  8
0
  6
CONTINUOUS
 10
413.382263
 20
275.243774
 11
413.382263
 21
351.243774
  0
LINE
  8
0
  6
CONTINUOUS
 10
371.795013
 20
273.791504
 11
413.382263
 21
275.243774
  0
LINE
  8
0
  6
CONTINUOUS
 10
371.795013
 20
352.696014
 11
413.382263
 21
351.243774
  0
ARC
  8
0
  6
CONTINUOUS
 10
366.882263
 20
258.243774
 40
2.500000
 50
-90.000000
 51
0.000000
  0
ARC
  8
0
  6
CONTINUOUS
 10
366.882263
 20
368.243774
 40
2.500000
 50
0.000000
 51
90.000000
  0
LINE
  8
0
  6
CONTINUOUS
 10
413.382263
 20
275.243774
 11
413.382263
 21
351.243774
  0
LINE
  8
0
  6
CONTINUOUS
 10
527.382141
 20
275.243774
 11
413.382141
 21
275.243774
  0
LINE
  8
0
  6
CONTINUOUS
 10
527.382141
 20
351.243744
 11
413.382141
 21
351.243744
  0
LINE
  8
0
  6
CONTINUOUS
 10
421.382141
 20
277.243774
 11
421.382141
 21
290.243774
  0
ARC
  8
0
  6
CONTINUOUS
 10
419.382141
 20
277.243774
 40
2.000000
 50
-90.000000
 51
0.000000
  0
ARC
  8
0
  6
CONTINUOUS
 10
419.382141
 20
349.243744
 40
2.000000
 50
0.000000
 51
90.000000
  0
LINE
  8
0
  6
CONTINUOUS
 10
527.382141
 20
290.243774
 11
421.382141
 21
290.243774
  0
LINE
  8
0
  6
CONTINUOUS
 10
527.382141
 20
336.243774
 11
421.382141
 21
336.243774
  0
LINE
  8
0
  6
CONTINUOUS
 10
421.382141
 20
336.243774
 11
421.382141
 21
349.243774
  0
ARC
  8
0
  6
CONTINUOUS
 10
382.212646
 20
313.243774
 40
15.000000
 50
-49.252373
 51
49.252373
  0
LINE
  8
0
  6
CONTINUOUS
 10
370.250458
 20
283.137756
 11
392.003571
 21
301.879883
  0
LINE
  8
0
  6
CONTINUOUS
 10
370.250458
 20
343.349762
 11
392.003571
 21
324.607635
  0
ARC
  8
0
  6
CONTINUOUS
 10
371.882263
 20
281.243774
 40
2.500000
 50
130.747620
 51
180.000000
  0
ARC
  8
0
  6
CONTINUOUS
 10
371.882263
 20
271.293030
 40
2.500000
 50
92.000000
 51
180.000000
  0
ARC
  8
0
  6
CONTINUOUS
 10
371.882263
 20
345.243744
 40
2.500000
 50
180.000000
 51
229.252380
  0
ARC
  8
0
  6
CONTINUOUS
 10
371.882263
 20
355.194489
 40
2.500000
 50
180.000000
 51
268.000000
  0
LINE
  8
0
  6
CONTINUOUS
 10
527.382141
 20
351.243744
 11
527.382141
 21
320.109772
  0
LINE
  8
0
  6
CONTINUOUS
 10
527.382141
 20
351.243744
 11
536.882141
 21
351.243744
  0
LINE
  8
0
  6
CONTINUOUS
 10
527.382141
 20
275.243744
 11
536.882141
 21
275.243744
  0
LINE
  8
0
  6
CONTINUOUS
 10
527.382141
 20
290.243744
 11
536.882141
 21
290.243744
  0
LINE
  8
0
  6
CONTINUOUS
 10
527.382141
 20
336.243744
 11
536.882141
 21
336.243744
  0
LINE
  8
0
  6
CONTINUOUS
 10
533.882141
 20
307.243744
 11
533.882141
 21
319.243744
  0
LINE
  8
0
  6
CONTINUOUS
 10
526.882141
 20
307.243744
 11
526.882141
 21
319.243744
  0
LINE
  8
0
  6
CONTINUOUS
 10
532.882141
 20
320.243744
 11
527.882141
 21
320.243744
  0
LINE
  8
0
  6
CONTINUOUS
 10
527.882141
 20
306.243744
 11
532.882141
 21
306.243744
  0
ARC
  8
0
  6
CONTINUOUS
 10
527.882141
 20
319.243744
 40
1.000000
 50
90.000000
 51
180.000000
  0
ARC
  8
0
  6
CONTINUOUS
 10
532.882141
 20
319.243744
 40
1.000000
 50
0.000000
 51
90.000000
  0
ARC
  8
0
  6
CONTINUOUS
 10
532.882141
 20
307.243744
 40
1.000000
 50
-90.000000
 51
0.000000
  0
ARC
  8
0
  6
CONTINUOUS
 10
527.882141
 20
307.243744
 40
1.000000
 50
180.000000
 51
270.000000
  0
LINE
  8
0
  6
CONTINUOUS
 10
529.382141
 20
309.743744
 11
529.382141
 21
316.743744
  0
LINE
  8
0
  6
CONTINUOUS
 10
531.382141
 20
309.743744
 11
531.382141
 21
316.743744
  0
ARC
  8
0
  6
CONTINUOUS
 10
530.382141
 20
316.743744
 40
1.000000
 50
0.000000
 51
90.000000
  0
ARC
  8
0
  6
CONTINUOUS
 10
530.382141
 20
316.743744
 40
1.000000
 50
90.000000
 51
180.000000
  0
ARC
  8
0
  6
CONTINUOUS
 10
530.382141
 20
309.743744
 40
1.000000
 50
-90.000000
 51
0.000000
  0
ARC
  8
0
  6
CONTINUOUS
 10
530.382141
 20
309.743744
 40
1.000000
 50
180.000000
 51
270.000000
  0
LINE
  8
0
  6
CONTINUOUS
 10
527.382141
 20
306.377716
 11
527.382141
 21
275.243744
  0
LINE
  8
0
  6
CONTINUOUS
 10
536.882141
 20
273.243744
 11
536.882141
 21
353.243744
  0
LINE
  8
0
  6
CONTINUOUS
 10
580.882141
 20
353.243744
 11
536.882141
 21
353.243744
  0
LINE
  8
0
  6
CONTINUOUS
 10
580.882141
 20
273.243744
 11
536.882141
 21
273.243744
  0
LINE
  8
0
  6
CONTINUOUS
 10
585.882141
 20
278.243744
 11
585.882141
 21
348.243744
  0
ARC
  8
0
  6
CONTINUOUS
 10
580.882141
 20
348.243744
 40
5.000000
 50
0.000000
 51
90.000000
  0
ARC
  8
0
  6
CONTINUOUS
 10
580.882141
 20
278.243744
 40
5.000000
 50
-90.000000
 51
0.000000
  0
LINE
  8
0
  6
CONTINUOUS
 10
583.382141
 20
337.243744
 11
536.882141
 21
337.243744
  0
LINE
  8
0
  6
CONTINUOUS
 10
583.382141
 20
287.243744
 11
536.882141
 21
287.243744
  0
LINE
  8
0
  6
CONTINUOUS
 10
536.882324
 20
98.568741
 11
527.382324
 21
98.568741
  0
LINE
  8
0
  6
CONTINUOUS
 10
536.882324
 20
22.568739
 11
527.382324
 21
22.568739
  0
LINE
  8
0
  6
CONTINUOUS
 10
536.882324
 20
20.568739
 11
536.882324
 21
100.568741
  0
LINE
  8
0
  6
CONTINUOUS
 10
526.882324
 20
100.068741
 11
526.882324
 21
98.568741
  0
LINE
  8
0
  6
CONTINUOUS
 10
533.882324
 20
100.068741
 11
533.882324
 21
98.568741
  0
LINE
  8
0
  6
CONTINUOUS
 10
533.882324
 20
100.068741
 11
526.882324
 21
100.068741
  0
LINE
  8
0
  6
CONTINUOUS
 10
529.482300
 20
113.068741
 11
529.482300
 21
100.068741
  0
LINE
  8
0
  6
CONTINUOUS
 10
531.282288
 20
113.693741
 11
531.282288
 21
100.068741
  0
LINE
  8
0
  6
CONTINUOUS
 10
533.082275
 20
111.631241
 11
533.082275
 21
100.068741
  0
LINE
  8
0
  6
CONTINUOUS
 10
527.682312
 20
112.443741
 11
527.682312
 21
100.068741
  0
LINE
  8
0
  6
CONTINUOUS
 10
531.282288
 20
113.693741
 11
529.482300
 21
113.068741
  0
LINE
  8
0
  6
CONTINUOUS
 10
533.082275
 20
111.631241
 11
531.282288
 21
112.256241
  0
LINE
  8
0
  6
CONTINUOUS
 10
527.682312
 20
112.443741
 11
529.481323
 21
111.996040
  0
LINE
  8
0
  6
CONTINUOUS
 10
536.882324
 20
90.817741
 11
527.382324
 21
90.817741
  0
LINE
  8
0
  6
CONTINUOUS
 10
536.882324
 20
30.319738
 11
527.382324
 21
30.319738
  0
LINE
  8
0
  6
CONTINUOUS
 10
580.882324
 20
100.568741
 11
536.882324
 21
100.568741
  0
LINE
  8
0
  6
CONTINUOUS
 10
580.882324
 20
20.568739
 11
536.882324
 21
20.568739
  0
LINE
  8
0
  6
CONTINUOUS
 10
585.882324
 20
25.568739
 11
585.882324
 21
95.568741
  0
ARC
  8
0
  6
CONTINUOUS
 10
580.882324
 20
95.568741
 40
5.000000
 50
0.000000
 51
90.000000
  0
ARC
  8
0
  6
CONTINUOUS
 10
580.882324
 20
25.568739
 40
5.000000
 50
-90.000000
 51
0.000000
  0
LINE
  8
0
  6
CONTINUOUS
 10
583.382324
 20
86.568741
 11
536.882324
 21
86.568741
  0
LINE
  8
0
  6
CONTINUOUS
 10
583.382324
 20
36.568741
 11
536.882324
 21
36.568741
  0
LINE
  8
0
  6
CONTINUOUS
 10
527.382324
 20
22.568760
 11
527.382324
 21
98.568741
  0
LINE
  8
0
  6
CENTER
 10
251.632202
 20
375.768738
 11
251.632202
 21
355.140625
  0
LINE
  8
0
  6
DASHED
 10
257.132202
 20
371.243774
 11
257.132202
 21
359.243774
  0
LINE
  8
0
  6
DASHED
 10
246.132202
 20
371.243774
 11
246.132202
 21
359.243774
  0
LINE
  8
0
  6
DASHED
 10
336.132355
 20
371.243774
 11
336.132355
 21
359.243774
  0
LINE
  8
0
  6
CENTER
 10
341.632355
 20
375.768738
 11
341.632355
 21
355.140625
  0
LINE
  8
0
  6
DASHED
 10
347.132355
 20
371.243774
 11
347.132355
 21
359.243774
  0
ARC
  8
0
  6
CONTINUOUS
 10
536.882141
 20
345.513611
 40
4.500000
 50
-180.000000
 51
-90.000000
  0
ARC
  8
0
  6
CONTINUOUS
 10
536.882141
 20
345.513611
 40
3.000000
 50
-180.000000
 51
-90.000000
  0
ARC
  8
0
  6
CONTINUOUS
 10
536.882141
 20
345.513611
 40
1.500000
 50
-180.000000
 51
-90.000000
  0
LINE
  8
0
  6
CONTINUOUS
 10
535.382141
 20
345.513611
 11
535.382141
 21
350.529236
  0
LINE
  8
0
  6
CONTINUOUS
 10
533.882141
 20
345.513611
 11
533.882141
 21
350.013611
  0
LINE
  8
0
  6
CONTINUOUS
 10
532.382141
 20
345.513611
 11
532.382141
 21
350.013611
  0
LINE
  8
0
  6
CONTINUOUS
 10
535.382141
 20
350.513611
 11
533.882141
 21
350.013611
  0
LINE
  8
0
  6
CONTINUOUS
 10
533.882141
 20
349.513611
 11
532.382141
 21
350.013611
  0
LINE
  8
0
  6
CONTINUOUS
 10
369.382294
 20
51.168758
 11
413.382294
 21
51.168758
  0
LINE
  8
0
  6
CONTINUOUS
 10
369.382294
 20
40.968761
 11
413.382294
 21
40.968761
  0
TEXT
  8
0
 10
-26.000000
 20
-2.000000
 40
4.000000
 41
1.000000
  1
HFMN-22L-300~900-S25
 50
0.000000
  0
ENDSEC
  0
EOF
