  0
SECTION
  2
HEADER
  9
$CLAYER
  8
1
  9
$LTSCALE
 40
3.0
  0
ENDSEC
  0
SECTION
  2
TABLES
  0
TABLE
  2
LTYPE
 70
     4
  0
LTYPE
  2
CONTINUOUS
  3
solid line
 70
    64
 72
    65
 73
     0
 40
0.0
  0
LTYPE
  2
DASHED
  3
__ __ __ __ __ __ __ __ __ __ __ __ __ __ __
 70
    64
 72
    65
 73
     2
 40
0.75
 49
0.5
 49
-0.25
  0
LTYPE
  2
CENTER
  3
____ _ ____ _ ____ _ ____ _ ____ _ ____ _ ____
 70
    64
 72
    65
 73
     4
 40
2.0
 49
1.25
 49
-0.25
 49
0.25
 49
-0.25
  0
LTYPE
  2
PHANTOM
  3
_____ _ _ _____ _ _ _____ _ _ _____ _ _ ____
 70
    64
 72
    65
 73
     6
 40
2.5
 49
1.25
 49
-0.25
 49
0.25
 49
-0.25
 49
0.25
 49
-0.25
  0
ENDTAB
  0
TABLE
  2
LAYER
 70
     1
  0
LAYER
  2
0
 70
    64
 62
     7
  6
CONTINUOUS
  0
ENDTAB
  0
TABLE
  2
STYLE
 70
     1
  0
STYLE
  2
STANDARD
 70
     0
 40
0.000000
 41
1.000000
 50
0.000000
 71
     0
 42
3.000000
  3
txt
  4
BIGFONT
  0
ENDTAB
  0
ENDSEC
  0
SECTION
  2
BLOCKS
  0
ENDSEC
  0
SECTION
  2
ENTITIES
  0
LINE
  8
0
  6
CENTER
 10
305.729156
 20
165.041275
 11
305.729156
 21
-2.696250
  0
LINE
  8
0
  6
CENTER
 10
354.640961
 20
99.960007
 11
240.660355
 21
99.960007
  0
LINE
  8
0
  6
CONTINUOUS
 10
355.729156
 20
103.460007
 11
355.729156
 21
59.599323
  0
LINE
  8
0
  6
CONTINUOUS
 10
255.729156
 20
104.320686
 11
255.729156
 21
59.599342
  0
ARC
  8
0
  6
CONTINUOUS
 10
305.729156
 20
81.960022
 40
60.000000
 50
48.189610
 51
131.810394
  0
ARC
  8
0
  6
CONTINUOUS
 10
305.729156
 20
81.960022
 40
60.000000
 50
-131.810303
 51
-48.189701
  0
ARC
  8
0
  6
CONTINUOUS
 10
285.729156
 20
104.320686
 40
30.000000
 50
131.810394
 51
180.000000
  0
CIRCLE
  8
0
  6
CONTINUOUS
 10
305.729156
 20
99.960007
 40
27.500000
  0
ARC
  8
0
  6
CONTINUOUS
 10
305.729156
 20
99.960007
 40
31.750000
 50
7.552597
 51
172.447296
  0
ARC
  8
0
  6
CONTINUOUS
 10
322.479156
 20
58.460014
 40
20.600000
 50
-90.000000
 51
7.552597
  0
ARC
  8
0
  6
CONTINUOUS
 10
288.979156
 20
58.460014
 40
20.600000
 50
172.447296
 51
270.000000
  0
LINE
  8
0
  6
CONTINUOUS
 10
274.254547
 20
104.133171
 11
268.557739
 21
61.167641
  0
LINE
  8
0
  6
CONTINUOUS
 10
342.900360
 20
61.167603
 11
337.203552
 21
104.133110
  0
LINE
  8
0
  6
CONTINUOUS
 10
322.479156
 20
37.860008
 11
288.979156
 21
37.860008
  0
ARC
  8
0
  6
CONTINUOUS
 10
322.479156
 20
58.460014
 40
19.000000
 50
-90.000000
 51
7.552399
  0
ARC
  8
0
  6
CONTINUOUS
 10
288.979156
 20
58.460014
 40
19.000000
 50
172.447296
 51
270.000000
  0
ARC
  8
0
  6
CONTINUOUS
 10
305.729156
 20
99.960007
 40
30.150000
 50
-187.552704
 51
7.552612
  0
LINE
  8
0
  6
CONTINUOUS
 10
341.314148
 20
60.957302
 11
335.617554
 21
103.922829
  0
LINE
  8
0
  6
CONTINUOUS
 10
275.840546
 20
103.922867
 11
270.143951
 21
60.957340
  0
LINE
  8
0
  6
CONTINUOUS
 10
322.479156
 20
39.460011
 11
288.979156
 21
39.460011
  0
ARC
  8
0
  6
CONTINUOUS
 10
325.729156
 20
104.320709
 40
30.000000
 50
-1.671204
 51
48.189610
  0
ARC
  8
0
  6
CONTINUOUS
 10
325.729156
 20
59.599323
 40
30.000000
 50
-48.189701
 51
0.000000
  0
LINE
  8
0
  6
CONTINUOUS
 10
370.479156
 20
126.710007
 11
352.929962
 21
126.710007
  0
LINE
  8
0
  6
CONTINUOUS
 10
364.914551
 20
12.210010
 11
370.479156
 21
12.210010
  0
LINE
  8
0
  6
CONTINUOUS
 10
360.229156
 20
116.960007
 11
370.479156
 21
116.960007
  0
LINE
  8
0
  6
CONTINUOUS
 10
365.489960
 20
21.932570
 11
370.479156
 21
21.960011
  0
LINE
  8
0
  6
CONTINUOUS
 10
363.932159
 20
101.420013
 11
370.479156
 21
101.420013
  0
LINE
  8
0
  6
CONTINUOUS
 10
363.932159
 20
37.500011
 11
370.479156
 21
37.500011
  0
LINE
  8
0
  6
CENTER
 10
359.375946
 20
141.960007
 11
342.079163
 21
141.960007
  0
LINE
  8
0
  6
CENTER
 10
269.291565
 20
141.960007
 11
244.710342
 21
141.960007
  0
LINE
  8
0
  6
CENTER
 10
360.521942
 20
21.960011
 11
341.910339
 21
21.960011
  0
LINE
  8
0
  6
CENTER
 10
269.854156
 20
21.960011
 11
245.047745
 21
21.960011
  0
LINE
  8
0
  6
CENTER
 10
260.729156
 20
151.119385
 11
260.729156
 21
132.978745
  0
LINE
  8
0
  6
CENTER
 10
350.729156
 20
150.866272
 11
350.729156
 21
133.400635
  0
LINE
  8
0
  6
CENTER
 10
350.729156
 20
31.138130
 11
350.729156
 21
4.728770
  0
LINE
  8
0
  6
CENTER
 10
260.729156
 20
31.306890
 11
260.729156
 21
5.403750
  0
CIRCLE
  8
0
  6
CONTINUOUS
 10
260.729156
 20
141.960007
 40
5.500000
  0
CIRCLE
  8
0
  6
CONTINUOUS
 10
350.729156
 20
141.960007
 40
5.500000
  0
CIRCLE
  8
0
  6
CONTINUOUS
 10
350.729156
 20
21.960011
 40
5.500000
  0
CIRCLE
  8
0
  6
CONTINUOUS
 10
260.729156
 20
21.960011
 40
5.500000
  0
ARC
  8
0
  6
CONTINUOUS
 10
260.729156
 20
141.960007
 40
12.000000
 50
90.000000
 51
180.000000
  0
ARC
  8
0
  6
CONTINUOUS
 10
350.729156
 20
141.960007
 40
12.000000
 50
0.000000
 51
90.000000
  0
ARC
  8
0
  6
CONTINUOUS
 10
350.729156
 20
21.960011
 40
12.000000
 50
270.000000
 51
358.060608
  0
ARC
  8
0
  6
CONTINUOUS
 10
260.729156
 20
21.960011
 40
12.000000
 50
180.000000
 51
270.000000
  0
LINE
  8
0
  6
CONTINUOUS
 10
260.729156
 20
153.960007
 11
350.729156
 21
153.960007
  0
LINE
  8
0
  6
CONTINUOUS
 10
350.728943
 20
9.960010
 11
260.729156
 21
9.960010
  0
LINE
  8
0
  6
CONTINUOUS
 10
248.729156
 20
141.960007
 11
248.729156
 21
21.960011
  0
LINE
  8
0
  6
CONTINUOUS
 10
363.387146
 20
21.088409
 11
363.916748
 21
13.143490
  0
ARC
  8
0
  6
CONTINUOUS
 10
364.914551
 20
13.210010
 40
1.000000
 50
-176.185806
 51
-90.000000
  0
LINE
  8
0
  6
CONTINUOUS
 10
295.432739
 20
46.960030
 11
291.272339
 21
46.960030
  0
LINE
  8
0
  6
CONTINUOUS
 10
297.729156
 20
53.928772
 11
297.729156
 21
46.960030
  0
LINE
  8
0
  6
CONTINUOUS
 10
301.729156
 20
56.460018
 11
301.729156
 21
58.960018
  0
LINE
  8
0
  6
CONTINUOUS
 10
309.729156
 20
56.460018
 11
309.729156
 21
58.960018
  0
LINE
  8
0
  6
CONTINUOUS
 10
304.947754
 20
57.491272
 11
304.947754
 21
48.272530
  0
LINE
  8
0
  6
CONTINUOUS
 10
306.447754
 20
57.491272
 11
306.447754
 21
48.272530
  0
LINE
  8
0
  6
CONTINUOUS
 10
314.322754
 20
57.491272
 11
314.322754
 21
48.210030
  0
LINE
  8
0
  6
CONTINUOUS
 10
315.697754
 20
52.569397
 11
315.697754
 21
48.210030
  0
LINE
  8
0
  6
CONTINUOUS
 10
295.830963
 20
57.366272
 11
291.975952
 21
57.366272
  0
LINE
  8
0
  6
CONTINUOUS
 10
291.975952
 20
57.366272
 11
291.072754
 21
56.246277
  0
LINE
  8
0
  6
CONTINUOUS
 10
291.181335
 20
58.960018
 11
289.729156
 21
57.100273
  0
LINE
  8
0
  6
CONTINUOUS
 10
291.072754
 20
49.332932
 11
291.990540
 21
48.366268
  0
LINE
  8
0
  6
CONTINUOUS
 10
289.729156
 20
48.517189
 11
291.272339
 21
46.960030
  0
LINE
  8
0
  6
CONTINUOUS
 10
289.729156
 20
57.100273
 11
289.729156
 21
48.517189
  0
LINE
  8
0
  6
CONTINUOUS
 10
291.072754
 20
56.246277
 11
291.072754
 21
49.332932
  0
LINE
  8
0
  6
CONTINUOUS
 10
296.572754
 20
56.649170
 11
295.815735
 21
57.366272
  0
LINE
  8
0
  6
CONTINUOUS
 10
296.560760
 20
58.960018
 11
297.729156
 21
57.663528
  0
LINE
  8
0
  6
CONTINUOUS
 10
296.572754
 20
56.460018
 11
297.729156
 21
56.460018
  0
LINE
  8
0
  6
CONTINUOUS
 10
291.181335
 20
58.960018
 11
296.560760
 21
58.960018
  0
LINE
  8
0
  6
CONTINUOUS
 10
294.479156
 20
53.928772
 11
297.729156
 21
53.928772
  0
LINE
  8
0
  6
CONTINUOUS
 10
296.572754
 20
52.616272
 11
294.479156
 21
52.616272
  0
LINE
  8
0
  6
CONTINUOUS
 10
294.072754
 20
48.366268
 11
291.990540
 21
48.366268
  0
LINE
  8
0
  6
CONTINUOUS
 10
296.572754
 20
51.366272
 11
296.572754
 21
52.366272
  0
ARC
  8
0
  6
CONTINUOUS
 10
294.072754
 20
50.866272
 40
2.500000
 50
-89.999786
 51
0.000109
  0
LINE
  8
0
  6
CONTINUOUS
 10
296.572754
 20
47.916569
 11
296.572754
 21
46.960030
  0
LINE
  8
0
  6
CONTINUOUS
 10
297.729156
 20
57.663528
 11
297.729156
 21
56.460018
  0
LINE
  8
0
  6
CONTINUOUS
 10
296.572754
 20
52.616272
 11
296.572754
 21
50.866272
  0
LINE
  8
0
  6
CONTINUOUS
 10
294.479156
 20
53.928772
 11
294.479156
 21
52.616272
  0
LINE
  8
0
  6
CONTINUOUS
 10
296.572754
 20
46.960030
 11
297.729156
 21
46.960030
  0
LINE
  8
0
  6
CONTINUOUS
 10
296.572754
 20
47.916569
 11
295.432739
 21
46.960030
  0
LINE
  8
0
  6
CONTINUOUS
 10
306.447754
 20
48.272530
 11
306.947754
 21
48.272530
  0
LINE
  8
0
  6
CONTINUOUS
 10
304.354156
 20
48.272530
 11
304.354156
 21
46.960030
  0
LINE
  8
0
  6
CONTINUOUS
 10
306.947754
 20
48.272530
 11
306.947754
 21
46.960030
  0
LINE
  8
0
  6
CONTINUOUS
 10
308.894562
 20
56.460018
 11
309.729156
 21
56.460018
  0
LINE
  8
0
  6
CONTINUOUS
 10
301.729156
 20
56.460018
 11
302.617157
 21
56.460018
  0
LINE
  8
0
  6
CONTINUOUS
 10
301.729156
 20
58.960018
 11
309.729156
 21
58.960018
  0
LINE
  8
0
  6
CONTINUOUS
 10
304.354156
 20
46.960030
 11
306.947754
 21
46.960030
  0
LINE
  8
0
  6
CONTINUOUS
 10
304.354156
 20
48.272530
 11
304.947754
 21
48.272530
  0
ARC
  8
0
  6
CONTINUOUS
 10
318.525940
 20
55.756897
 40
3.203126
 50
-73.981873
 51
90.003510
  0
ARC
  8
0
  6
CONTINUOUS
 10
318.525940
 20
55.756897
 40
1.954124
 50
-82.585274
 51
62.411850
  0
LINE
  8
0
  6
CONTINUOUS
 10
313.729156
 20
58.960018
 11
318.525940
 21
58.960018
  0
LINE
  8
0
  6
CONTINUOUS
 10
318.778137
 20
53.819115
 11
315.697754
 21
53.819115
  0
LINE
  8
0
  6
CONTINUOUS
 10
313.729156
 20
58.960018
 11
313.729156
 21
57.491272
  0
LINE
  8
0
  6
CONTINUOUS
 10
315.697754
 20
57.491272
 11
315.697754
 21
53.819115
  0
LINE
  8
0
  6
CONTINUOUS
 10
319.409760
 20
52.678131
 11
321.392365
 21
48.210030
  0
LINE
  8
0
  6
CONTINUOUS
 10
318.258362
 20
52.569397
 11
320.134552
 21
48.210030
  0
LINE
  8
0
  6
CONTINUOUS
 10
313.729156
 20
48.210030
 11
314.322754
 21
48.210030
  0
LINE
  8
0
  6
CONTINUOUS
 10
315.697754
 20
48.210030
 11
316.244751
 21
48.210030
  0
LINE
  8
0
  6
CONTINUOUS
 10
316.244751
 20
46.960030
 11
313.729156
 21
46.960030
  0
LINE
  8
0
  6
CONTINUOUS
 10
319.885345
 20
48.210030
 11
320.134552
 21
48.210030
  0
LINE
  8
0
  6
CONTINUOUS
 10
319.885345
 20
46.960030
 11
321.729156
 21
46.960030
  0
LINE
  8
0
  6
CONTINUOUS
 10
319.885345
 20
48.210030
 11
319.885345
 21
46.960030
  0
LINE
  8
0
  6
CONTINUOUS
 10
316.244751
 20
48.210030
 11
316.244751
 21
46.960030
  0
LINE
  8
0
  6
CONTINUOUS
 10
313.729156
 20
48.210030
 11
313.729156
 21
46.960030
  0
LINE
  8
0
  6
CONTINUOUS
 10
303.046753
 20
57.491272
 11
302.617157
 21
56.460018
  0
LINE
  8
0
  6
CONTINUOUS
 10
308.532349
 20
57.491272
 11
308.894562
 21
56.460018
  0
LINE
  8
0
  6
CONTINUOUS
 10
306.447754
 20
57.491272
 11
308.532349
 21
57.491272
  0
LINE
  8
0
  6
CONTINUOUS
 10
304.947754
 20
57.491272
 11
303.046753
 21
57.491272
  0
LINE
  8
0
  6
CONTINUOUS
 10
315.697754
 20
52.569397
 11
318.258362
 21
52.569397
  0
LINE
  8
0
  6
CONTINUOUS
 10
313.729156
 20
57.491272
 11
314.322754
 21
57.491272
  0
LINE
  8
0
  6
CONTINUOUS
 10
315.697754
 20
57.491272
 11
319.430939
 21
57.488846
  0
LINE
  8
0
  6
CONTINUOUS
 10
296.572754
 20
56.649170
 11
296.572754
 21
56.460018
  0
LINE
  8
0
  6
CONTINUOUS
 10
324.167145
 20
144.460007
 11
287.290955
 21
144.460007
  0
LINE
  8
0
  6
CONTINUOUS
 10
324.167145
 20
19.460011
 11
287.290955
 21
19.460011
  0
LINE
  8
0
  6
CONTINUOUS
 10
253.229156
 20
44.579769
 11
253.229156
 21
119.340248
  0
LINE
  8
0
  6
CONTINUOUS
 10
358.229156
 20
118.960007
 11
358.229156
 21
119.340248
  0
LINE
  8
0
  6
CONTINUOUS
 10
350.402161
 20
35.460011
 11
358.479156
 21
35.460011
  0
LINE
  8
0
  6
CONTINUOUS
 10
362.729156
 20
141.959976
 11
362.729156
 21
126.710007
  0
LINE
  8
0
  6
CONTINUOUS
 10
285.729156
 20
153.214966
 11
285.729156
 21
145.018295
  0
LINE
  8
0
  6
CONTINUOUS
 10
325.729156
 20
153.214966
 11
325.729156
 21
145.018295
  0
LINE
  8
0
  6
CONTINUOUS
 10
285.729156
 20
18.119570
 11
285.729156
 21
11.298990
  0
LINE
  8
0
  6
CONTINUOUS
 10
325.729156
 20
18.119570
 11
325.729156
 21
11.298990
  0
LINE
  8
0
  6
CONTINUOUS
 10
255.382950
 20
123.451210
 11
284.444946
 21
143.570969
  0
LINE
  8
0
  6
CONTINUOUS
 10
356.075165
 20
123.451210
 11
327.013153
 21
143.570969
  0
LINE
  8
0
  6
CONTINUOUS
 10
284.444946
 20
20.349051
 11
255.382950
 21
40.468811
  0
LINE
  8
0
  6
CONTINUOUS
 10
347.555939
 20
34.570969
 11
327.013153
 21
20.349051
  0
ARC
  8
0
  6
CONTINUOUS
 10
287.290955
 20
139.460007
 40
5.000000
 50
90.000000
 51
124.695396
  0
ARC
  8
0
  6
CONTINUOUS
 10
324.167145
 20
139.460007
 40
5.000000
 50
55.305019
 51
90.000000
  0
ARC
  8
0
  6
CONTINUOUS
 10
258.229156
 20
119.340271
 40
5.000000
 50
124.695503
 51
180.000000
  0
ARC
  8
0
  6
CONTINUOUS
 10
258.228943
 20
44.579811
 40
5.000000
 50
180.000000
 51
235.305206
  0
ARC
  8
0
  6
CONTINUOUS
 10
287.290955
 20
24.460011
 40
5.000000
 50
235.304794
 51
270.000000
  0
ARC
  8
0
  6
CONTINUOUS
 10
324.167145
 20
24.460011
 40
5.000000
 50
270.000000
 51
304.695190
  0
ARC
  8
0
  6
CONTINUOUS
 10
350.402161
 20
30.460011
 40
5.000000
 50
90.000000
 51
124.695396
  0
ARC
  8
0
  6
CONTINUOUS
 10
353.229156
 20
119.340233
 40
5.000000
 50
0.000000
 51
55.304981
  0
ARC
  8
0
  6
CONTINUOUS
 10
352.929749
 20
131.710007
 40
5.000000
 50
235.304794
 51
270.000000
  0
ARC
  8
0
  6
CONTINUOUS
 10
360.229156
 20
118.960007
 40
2.000000
 50
180.000000
 51
270.000000
  0
LINE
  8
0
  6
CONTINUOUS
 10
363.479156
 20
19.709909
 11
363.479156
 21
114.960007
  0
ARC
  8
0
  6
CONTINUOUS
 10
365.479156
 20
114.960030
 40
2.000000
 50
90.000000
 51
180.000000
  0
ARC
  8
0
  6
CONTINUOUS
 10
365.479156
 20
23.932550
 40
2.000000
 50
180.000000
 51
270.315186
  0
LINE
  8
0
  6
CONTINUOUS
 10
362.888336
 20
21.555149
 11
362.685547
 21
21.555149
  0
ARC
  8
0
  6
CONTINUOUS
 10
362.888336
 20
21.055149
 40
0.500000
 50
3.814180
 51
90.000000
  0
ARC
  8
0
  6
CONTINUOUS
 10
358.479156
 20
30.459990
 40
5.000000
 50
0.000000
 51
90.000000
  0
ARC
  8
0
  6
CONTINUOUS
 10
285.729156
 20
59.599339
 40
30.000000
 50
180.000000
 51
228.189606
  0
LINE
  8
0
  6
CONTINUOUS
 10
298.229156
 20
102.960007
 11
298.229156
 21
96.960007
  0
LINE
  8
0
  6
CONTINUOUS
 10
292.229156
 20
102.960007
 11
292.229156
 21
96.960007
  0
LINE
  8
0
  6
CONTINUOUS
 10
292.229156
 20
102.960007
 11
298.229156
 21
102.960007
  0
LINE
  8
0
  6
CONTINUOUS
 10
292.229156
 20
96.960007
 11
298.229156
 21
96.960007
  0
ARC
  8
0
  6
CONTINUOUS
 10
305.729156
 20
99.960007
 40
11.000000
 50
-164.173401
 51
164.173401
  0
LINE
  8
0
  6
CONTINUOUS
 10
370.479156
 20
126.960121
 11
370.479156
 21
11.960123
  0
LINE
  8
0
  6
CONTINUOUS
 10
321.392365
 20
48.210030
 11
321.729156
 21
48.210030
  0
LINE
  8
0
  6
CONTINUOUS
 10
321.729156
 20
48.210030
 11
321.729156
 21
46.960030
  0
LINE
  8
0
  6
CENTER
 10
243.993546
 20
311.135010
 11
606.019348
 21
311.135010
  0
LINE
  8
0
  6
CONTINUOUS
 10
367.979156
 20
368.385010
 11
370.479156
 21
368.385010
  0
LINE
  8
0
  6
CONTINUOUS
 10
365.961761
 20
253.885010
 11
370.479156
 21
253.885010
  0
LINE
  8
0
  6
CONTINUOUS
 10
363.229156
 20
368.385010
 11
370.479156
 21
368.385010
  0
LINE
  8
0
  6
CONTINUOUS
 10
361.774933
 20
343.135010
 11
370.479156
 21
343.135010
  0
LINE
  8
0
  6
CONTINUOUS
 10
363.212555
 20
358.635010
 11
370.479156
 21
358.635010
  0
LINE
  8
0
  6
CONTINUOUS
 10
365.118744
 20
263.635010
 11
370.479156
 21
263.635010
  0
LINE
  8
0
  6
CONTINUOUS
 10
370.479156
 20
279.135010
 11
253.690353
 21
279.135010
  0
LINE
  8
0
  6
CONTINUOUS
 10
364.961945
 20
254.867508
 11
364.624084
 21
274.222290
  0
ARC
  8
0
  6
CONTINUOUS
 10
365.961853
 20
254.885010
 40
1.000000
 50
181.000702
 51
270.000000
  0
ARC
  8
0
  6
CONTINUOUS
 10
359.624756
 20
274.135010
 40
5.000000
 50
1.000200
 51
90.000000
  0
LINE
  8
0
  6
CONTINUOUS
 10
370.479156
 20
253.635010
 11
370.479156
 21
368.635010
  0
LINE
  8
0
  6
CONTINUOUS
 10
248.729156
 20
369.135010
 11
362.729156
 21
369.135010
  0
LINE
  8
0
  6
CONTINUOUS
 10
325.729156
 20
279.135010
 11
325.729156
 21
356.332703
  0
LINE
  8
0
  6
CONTINUOUS
 10
285.729156
 20
279.135010
 11
285.729156
 21
356.332703
  0
LINE
  8
0
  6
CONTINUOUS
 10
252.190857
 20
280.595703
 11
250.207153
 21
356.332703
  0
ARC
  8
0
  6
CONTINUOUS
 10
253.690445
 20
280.635010
 40
1.500000
 50
181.500198
 51
270.000000
  0
LINE
  8
0
  6
CONTINUOUS
 10
361.729156
 20
357.135010
 11
250.017654
 21
357.135010
  0
LINE
  8
0
  6
CONTINUOUS
 10
362.729156
 20
358.135010
 11
362.729156
 21
369.135010
  0
LINE
  8
0
  6
CONTINUOUS
 10
248.729156
 20
369.135010
 11
249.017944
 21
358.108795
  0
ARC
  8
0
  6
CONTINUOUS
 10
250.017654
 20
358.135010
 40
1.000000
 50
181.500107
 51
270.000000
  0
ARC
  8
0
  6
CONTINUOUS
 10
249.207748
 20
356.306519
 40
1.000000
 50
1.500400
 51
66.108803
  0
ARC
  8
0
  6
CONTINUOUS
 10
363.229156
 20
368.885010
 40
0.500000
 50
180.000000
 51
270.000000
  0
LINE
  8
0
  6
CENTER
 10
436.519012
 20
69.460007
 11
338.535370
 21
69.460007
  0
LINE
  8
0
  6
CONTINUOUS
 10
370.479156
 20
126.960007
 11
370.479156
 21
11.960010
  0
LINE
  8
0
  6
CENTER
 10
73.061333
 20
-4.871250
 11
73.061333
 21
163.157974
  0
LINE
  8
0
  6
CENTER
 10
4.636875
 20
69.460007
 11
139.321136
 21
69.460007
  0
LINE
  8
0
  6
CENTER
 10
4.636875
 20
99.960007
 11
171.904129
 21
99.960007
  0
LINE
  8
0
  6
CONTINUOUS
 10
15.061530
 20
99.960007
 11
15.061530
 21
9.959990
  0
LINE
  8
0
  6
CONTINUOUS
 10
27.061529
 20
99.960007
 11
27.061529
 21
151.960007
  0
LINE
  8
0
  6
CONTINUOUS
 10
25.143330
 20
153.960007
 11
15.061530
 21
153.960007
  0
LINE
  8
0
  6
CONTINUOUS
 10
25.143330
 20
9.960030
 11
15.061530
 21
9.960030
  0
LINE
  8
0
  6
CONTINUOUS
 10
105.061333
 20
20.442690
 11
105.061333
 21
143.477325
  0
LINE
  8
0
  6
CONTINUOUS
 10
104.079132
 20
144.477188
 11
29.026730
 21
145.786896
  0
LINE
  8
0
  6
CONTINUOUS
 10
104.079132
 20
19.442869
 11
29.026730
 21
18.132549
  0
LINE
  8
0
  6
CONTINUOUS
 10
28.970530
 20
121.959991
 11
103.994133
 21
121.959991
  0
LINE
  8
0
  6
CONTINUOUS
 10
28.970530
 20
41.960011
 11
103.671127
 21
41.960011
  0
LINE
  8
0
  6
CONTINUOUS
 10
27.558130
 20
11.812990
 11
28.667330
 21
15.952830
  0
LINE
  8
0
  6
CONTINUOUS
 10
27.558130
 20
152.107086
 11
28.667530
 21
147.966568
  0
ARC
  8
0
  6
CONTINUOUS
 10
31.565331
 20
148.743088
 40
3.000000
 50
195.000702
 51
269.000488
  0
ARC
  8
0
  6
CONTINUOUS
 10
25.061529
 20
151.960007
 40
2.000000
 50
0.000000
 51
90.000000
  0
ARC
  8
0
  6
CONTINUOUS
 10
29.061529
 20
147.786606
 40
2.000000
 50
180.000000
 51
269.000610
  0
ARC
  8
0
  6
CONTINUOUS
 10
31.565130
 20
15.176390
 40
3.000000
 50
91.000526
 51
165.000305
  0
ARC
  8
0
  6
CONTINUOUS
 10
29.061529
 20
16.132870
 40
2.000000
 50
91.000633
 51
180.000000
  0
ARC
  8
0
  6
CONTINUOUS
 10
25.061529
 20
11.960030
 40
2.000000
 50
-90.000000
 51
0.000000
  0
ARC
  8
0
  6
CONTINUOUS
 10
104.061333
 20
143.477325
 40
1.000000
 50
0.000000
 51
89.000359
  0
ARC
  8
0
  6
CONTINUOUS
 10
104.061333
 20
20.442690
 40
1.000000
 50
-88.999573
 51
0.000000
  0
LINE
  8
0
  6
CENTER
 10
9.567730
 20
141.960007
 11
32.204330
 21
141.960007
  0
LINE
  8
0
  6
CENTER
 10
9.567730
 20
21.959990
 11
32.204330
 21
21.959990
  0
LINE
  8
0
  6
DASHED
 10
15.061530
 20
147.460007
 11
27.061529
 21
147.460007
  0
LINE
  8
0
  6
DASHED
 10
15.061530
 20
136.460007
 11
27.061529
 21
136.460007
  0
LINE
  8
0
  6
DASHED
 10
15.061530
 20
27.459990
 11
27.061529
 21
27.459990
  0
LINE
  8
0
  6
DASHED
 10
15.061530
 20
16.459990
 11
27.061529
 21
16.459990
  0
LINE
  8
0
  6
CONTINUOUS
 10
121.061333
 20
74.767159
 11
121.061333
 21
125.152847
  0
LINE
  8
0
  6
CONTINUOUS
 10
111.061333
 20
41.764851
 11
111.061333
 21
102.029991
  0
LINE
  8
0
  6
CONTINUOUS
 10
118.831734
 20
128.052292
 11
107.291527
 21
131.117691
  0
LINE
  8
0
  6
CONTINUOUS
 10
118.831734
 20
71.867714
 11
113.291130
 21
70.396057
  0
LINE
  8
0
  6
CONTINUOUS
 10
108.834534
 20
38.866169
 11
107.288528
 21
38.453869
  0
ARC
  8
0
  6
CONTINUOUS
 10
118.061333
 20
125.152847
 40
3.000000
 50
0.000000
 51
75.124413
  0
ARC
  8
0
  6
CONTINUOUS
 10
118.061333
 20
74.767159
 40
3.000000
 50
-75.124207
 51
0.000000
  0
ARC
  8
0
  6
CONTINUOUS
 10
108.061333
 20
41.764851
 40
3.000000
 50
-75.068420
 51
0.000000
  0
ARC
  8
0
  6
CONTINUOUS
 10
108.061333
 20
134.017166
 40
3.000000
 50
180.000000
 51
255.124603
  0
ARC
  8
0
  6
CONTINUOUS
 10
114.061333
 20
67.496613
 40
3.000000
 50
104.876099
 51
180.000000
  0
ARC
  8
0
  6
CONTINUOUS
 10
108.061333
 20
35.555168
 40
3.000000
 50
104.931801
 51
180.000000
  0
LINE
  8
0
  6
CONTINUOUS
 10
120.561333
 20
26.959990
 11
120.561333
 21
36.011349
  0
LINE
  8
0
  6
CONTINUOUS
 10
115.561333
 20
21.959990
 11
106.510330
 21
21.959990
  0
ARC
  8
0
  6
CONTINUOUS
 10
73.061333
 20
69.460007
 40
57.250000
 50
-32.501888
 51
19.914110
  0
ARC
  8
0
  6
CONTINUOUS
 10
73.061333
 20
69.460007
 40
57.250000
 50
243.004898
 51
298.995514
  0
ARC
  8
0
  6
CONTINUOUS
 10
115.561333
 20
26.959990
 40
5.000000
 50
-90.000000
 51
0.000000
  0
ARC
  8
0
  6
CONTINUOUS
 10
125.561333
 20
36.011349
 40
5.000000
 50
147.498093
 51
180.000000
  0
ARC
  8
0
  6
CONTINUOUS
 10
106.510330
 20
16.959990
 40
5.000000
 50
90.000000
 51
106.842003
  0
LINE
  8
0
  6
CONTINUOUS
 10
15.061530
 20
153.960007
 11
15.061530
 21
99.960007
  0
LINE
  8
0
  6
CONTINUOUS
 10
27.061529
 20
11.960030
 11
27.061529
 21
99.960007
  0
LINE
  8
0
  6
CONTINUOUS
 10
163.061325
 20
88.960014
 11
163.061325
 21
110.959991
  0
LINE
  8
0
  6
CONTINUOUS
 10
123.061333
 20
110.959991
 11
163.061325
 21
110.959991
  0
LINE
  8
0
  6
CONTINUOUS
 10
123.061333
 20
88.960014
 11
163.061325
 21
88.960014
  0
LINE
  8
0
  6
CONTINUOUS
 10
123.061333
 20
112.459991
 11
123.061333
 21
87.460014
  0
LINE
  8
0
  6
CONTINUOUS
 10
121.061333
 20
112.459991
 11
123.061333
 21
112.459991
  0
LINE
  8
0
  6
CONTINUOUS
 10
121.061333
 20
87.460014
 11
123.061333
 21
87.460014
  0
ARC
  8
0
  6
CONTINUOUS
 10
131.061325
 20
99.960007
 40
3.000000
 50
90.000000
 51
270.000000
  0
LINE
  8
0
  6
CONTINUOUS
 10
131.061325
 20
102.959991
 11
163.061325
 21
102.959991
  0
LINE
  8
0
  6
CONTINUOUS
 10
131.061325
 20
96.960007
 11
163.061325
 21
96.960007
  0
ARC
  8
0
  6
CONTINUOUS
 10
25.143330
 20
151.460007
 40
2.500000
 50
15.000760
 51
90.000000
  0
ARC
  8
0
  6
CONTINUOUS
 10
25.143330
 20
12.460030
 40
2.500000
 50
270.000000
 51
345.000214
  0
ARC
  8
0
  6
CONTINUOUS
 10
73.061333
 20
69.460007
 40
57.499821
 50
303.815704
 51
303.996307
  0
ARC
  8
0
  6
CONTINUOUS
 10
73.061333
 20
69.460007
 40
57.500000
 50
242.540298
 51
299.460602
  0
ARC
  8
0
  6
CONTINUOUS
 10
73.061333
 20
69.460007
 40
57.500000
 50
-33.996769
 51
19.823891
  0
ARC
  8
0
  6
CONTINUOUS
 10
73.061333
 20
69.460007
 40
57.500000
 50
303.815613
 51
303.997314
  0
LINE
  8
0
  6
CONTINUOUS
 10
359.267456
 20
280.595734
 11
359.470154
 21
288.335022
  0
ARC
  8
0
  6
CONTINUOUS
 10
357.767975
 20
280.635010
 40
1.500000
 50
270.000000
 51
358.499664
  0
ARC
  8
0
  6
CONTINUOUS
 10
361.729156
 20
358.135010
 40
1.000000
 50
-90.000000
 51
0.000000
  0
ARC
  8
0
  6
CONTINUOUS
 10
362.248108
 20
356.203522
 40
1.000000
 50
105.039177
 51
178.499649
  0
LINE
  8
0
  6
CENTER
 10
305.729156
 20
214.933319
 11
305.729156
 21
382.255005
  0
LINE
  8
0
  6
CONTINUOUS
 10
330.921997
 20
263.135010
 11
280.536316
 21
263.135010
  0
LINE
  8
0
  6
CONTINUOUS
 10
275.572906
 20
273.135010
 11
272.286072
 21
273.135010
  0
ARC
  8
0
  6
CONTINUOUS
 10
280.536316
 20
266.135010
 40
3.000000
 50
-165.124313
 51
-90.000000
  0
LINE
  8
0
  6
CONTINUOUS
 10
269.386597
 20
275.364838
 11
268.977448
 21
276.905182
  0
ARC
  8
0
  6
CONTINUOUS
 10
272.286072
 20
276.135010
 40
3.000000
 50
-165.124313
 51
-90.000000
  0
ARC
  8
0
  6
CONTINUOUS
 10
266.078003
 20
276.135010
 40
3.000000
 50
14.875682
 51
90.000000
  0
LINE
  8
0
  6
CONTINUOUS
 10
275.572906
 20
273.135010
 11
277.636841
 21
265.364838
  0
LINE
  8
0
  6
CONTINUOUS
 10
342.071686
 20
275.364838
 11
342.480835
 21
276.905182
  0
ARC
  8
0
  6
CONTINUOUS
 10
339.172241
 20
276.135010
 40
3.000000
 50
270.000000
 51
345.124329
  0
ARC
  8
0
  6
CONTINUOUS
 10
345.380310
 20
276.135010
 40
3.000000
 50
90.000000
 51
165.124313
  0
LINE
  8
0
  6
CONTINUOUS
 10
335.885406
 20
273.135010
 11
339.172241
 21
273.135010
  0
ARC
  8
0
  6
CONTINUOUS
 10
330.921997
 20
266.135010
 40
3.000000
 50
270.000000
 51
345.124329
  0
LINE
  8
0
  6
CONTINUOUS
 10
335.885406
 20
273.135010
 11
333.821442
 21
265.364838
  0
LINE
  8
0
  6
CONTINUOUS
 10
316.729156
 20
221.135010
 11
292.229156
 21
221.135010
  0
LINE
  8
0
  6
CONTINUOUS
 10
294.729156
 20
261.135010
 11
294.729156
 21
256.135010
  0
LINE
  8
0
  6
CONTINUOUS
 10
316.729156
 20
261.135010
 11
316.729156
 21
221.135010
  0
LINE
  8
0
  6
CONTINUOUS
 10
293.229156
 20
263.135010
 11
293.229156
 21
261.135010
  0
LINE
  8
0
  6
CONTINUOUS
 10
318.229156
 20
263.135010
 11
318.229156
 21
261.135010
  0
LINE
  8
0
  6
CONTINUOUS
 10
318.229156
 20
261.135010
 11
293.229156
 21
261.135010
  0
LINE
  8
0
  6
CONTINUOUS
 10
292.229156
 20
256.135010
 11
292.229156
 21
221.135010
  0
LINE
  8
0
  6
CONTINUOUS
 10
295.146149
 20
221.135010
 11
295.146149
 21
256.135010
  0
LINE
  8
0
  6
CONTINUOUS
 10
295.146149
 20
256.135010
 11
292.229156
 21
256.135010
  0
ARC
  8
0
  6
CONTINUOUS
 10
420.913574
 20
309.541321
 40
65.000000
 50
157.957932
 51
199.041382
  0
LINE
  8
0
  6
CONTINUOUS
 10
360.664520
 20
333.934998
 11
361.248444
 21
356.229706
  0
LINE
  8
0
  6
CONTINUOUS
 10
536.479187
 20
96.459991
 11
422.479156
 21
96.459991
  0
LINE
  8
0
  6
CONTINUOUS
 10
536.479187
 20
20.460030
 11
422.479156
 21
20.460030
  0
LINE
  8
0
  6
CONTINUOUS
 10
536.479187
 20
88.708992
 11
430.479156
 21
88.708992
  0
LINE
  8
0
  6
CONTINUOUS
 10
536.479187
 20
28.211029
 11
430.479156
 21
28.211029
  0
LINE
  8
0
  6
CONTINUOUS
 10
430.479156
 20
94.459991
 11
430.479156
 21
22.460011
  0
ARC
  8
0
  6
CONTINUOUS
 10
428.479156
 20
94.460007
 40
2.000000
 50
0.000000
 51
90.000000
  0
ARC
  8
0
  6
CONTINUOUS
 10
428.479156
 20
22.460030
 40
2.000000
 50
-90.000000
 51
0.000000
  0
LINE
  8
0
  6
CONTINUOUS
 10
380.891907
 20
97.912270
 11
422.479156
 21
96.460007
  0
LINE
  8
0
  6
CONTINUOUS
 10
370.479156
 20
18.644131
 11
422.479156
 21
20.460011
  0
LINE
  8
0
  6
CONTINUOUS
 10
378.479156
 20
125.960007
 11
378.479156
 21
98.960007
  0
LINE
  8
0
  6
CONTINUOUS
 10
377.479156
 20
126.960007
 11
370.479156
 21
126.960007
  0
LINE
  8
0
  6
CONTINUOUS
 10
375.979156
 20
11.960010
 11
370.479156
 21
11.960010
  0
LINE
  8
0
  6
CONTINUOUS
 10
378.479156
 20
99.460007
 11
378.479156
 21
28.547354
  0
LINE
  8
0
  6
CONTINUOUS
 10
422.479156
 20
96.460007
 11
422.479156
 21
20.460011
  0
LINE
  8
0
  6
CONTINUOUS
 10
379.892303
 20
109.777817
 11
405.835724
 21
97.253403
  0
ARC
  8
0
  6
CONTINUOUS
 10
377.479156
 20
125.960007
 40
1.000000
 50
0.000000
 51
90.000000
  0
ARC
  8
0
  6
CONTINUOUS
 10
380.979156
 20
112.029190
 40
2.500000
 50
180.000000
 51
244.230682
  0
ARC
  8
0
  6
CONTINUOUS
 10
380.979156
 20
100.410744
 40
2.500000
 50
180.000000
 51
268.000000
  0
ARC
  8
0
  6
CONTINUOUS
 10
406.922607
 20
99.504784
 40
2.500000
 50
-115.769325
 51
-92.000000
  0
LINE
  8
0
  6
CONTINUOUS
 10
377.354095
 20
26.306009
 11
370.479156
 21
26.306009
  0
LINE
  8
0
  6
CONTINUOUS
 10
378.479156
 20
14.460010
 11
378.479156
 21
16.509274
  0
ARC
  8
0
  6
CONTINUOUS
 10
375.979156
 20
14.460010
 40
2.500000
 50
-90.000000
 51
0.000000
  0
ARC
  8
0
  6
CONTINUOUS
 10
380.979156
 20
16.509274
 40
2.500000
 50
92.000000
 51
180.000000
  0
LINE
  8
0
  6
CENTER
 10
607.484375
 20
58.460011
 11
337.729156
 21
58.460011
  0
LINE
  8
0
  6
CONTINUOUS
 10
375.979156
 20
368.635010
 11
370.479156
 21
368.635010
  0
LINE
  8
0
  6
CONTINUOUS
 10
375.979156
 20
253.635010
 11
370.479156
 21
253.635010
  0
LINE
  8
0
  6
CONTINUOUS
 10
378.479156
 20
366.135010
 11
378.479156
 21
256.135010
  0
LINE
  8
0
  6
CONTINUOUS
 10
422.479156
 20
273.135010
 11
422.479156
 21
349.135010
  0
LINE
  8
0
  6
CONTINUOUS
 10
380.891907
 20
271.682739
 11
422.479156
 21
273.135010
  0
LINE
  8
0
  6
CONTINUOUS
 10
380.891907
 20
350.587280
 11
422.479156
 21
349.135010
  0
ARC
  8
0
  6
CONTINUOUS
 10
375.979156
 20
256.135010
 40
2.500000
 50
-90.000000
 51
0.000000
  0
ARC
  8
0
  6
CONTINUOUS
 10
375.979156
 20
366.135010
 40
2.500000
 50
0.000000
 51
90.000000
  0
LINE
  8
0
  6
CONTINUOUS
 10
422.479156
 20
273.135010
 11
422.479156
 21
349.135010
  0
LINE
  8
0
  6
CONTINUOUS
 10
536.479004
 20
273.135040
 11
422.479034
 21
273.135040
  0
LINE
  8
0
  6
CONTINUOUS
 10
536.479004
 20
349.134979
 11
422.479034
 21
349.134979
  0
LINE
  8
0
  6
CONTINUOUS
 10
430.479034
 20
275.135040
 11
430.479034
 21
288.135010
  0
ARC
  8
0
  6
CONTINUOUS
 10
428.479034
 20
275.135010
 40
2.000000
 50
-90.000000
 51
0.000000
  0
ARC
  8
0
  6
CONTINUOUS
 10
428.479034
 20
347.134979
 40
2.000000
 50
0.000000
 51
90.000000
  0
LINE
  8
0
  6
CONTINUOUS
 10
483.479156
 20
288.135010
 11
430.479034
 21
288.135010
  0
LINE
  8
0
  6
CONTINUOUS
 10
483.479156
 20
334.135010
 11
430.479034
 21
334.135010
  0
LINE
  8
0
  6
CONTINUOUS
 10
430.479034
 20
334.135010
 11
430.479034
 21
347.135010
  0
ARC
  8
0
  6
CONTINUOUS
 10
391.309509
 20
311.135010
 40
15.000000
 50
-49.252373
 51
49.252373
  0
LINE
  8
0
  6
CONTINUOUS
 10
379.347321
 20
281.029022
 11
401.100433
 21
299.771118
  0
LINE
  8
0
  6
CONTINUOUS
 10
379.347321
 20
341.240997
 11
401.100433
 21
322.498901
  0
ARC
  8
0
  6
CONTINUOUS
 10
380.979156
 20
279.135040
 40
2.500000
 50
130.747620
 51
180.000000
  0
ARC
  8
0
  6
CONTINUOUS
 10
380.979156
 20
269.184265
 40
2.500000
 50
92.000000
 51
180.000000
  0
ARC
  8
0
  6
CONTINUOUS
 10
380.979156
 20
343.134979
 40
2.500000
 50
180.000000
 51
229.252380
  0
ARC
  8
0
  6
CONTINUOUS
 10
380.979156
 20
353.085754
 40
2.500000
 50
180.000000
 51
268.000000
  0
LINE
  8
0
  6
CONTINUOUS
 10
536.479004
 20
349.134979
 11
536.479004
 21
342.135010
  0
LINE
  8
0
  6
CONTINUOUS
 10
536.479004
 20
349.134979
 11
545.979004
 21
349.134979
  0
LINE
  8
0
  6
CONTINUOUS
 10
536.479004
 20
273.134979
 11
545.979004
 21
273.134979
  0
LINE
  8
0
  6
CONTINUOUS
 10
545.479187
 20
288.134979
 11
545.979004
 21
288.134979
  0
LINE
  8
0
  6
CONTINUOUS
 10
545.479187
 20
334.134979
 11
545.979004
 21
334.134979
  0
LINE
  8
0
  6
CONTINUOUS
 10
536.479004
 20
280.135010
 11
536.479004
 21
273.134979
  0
LINE
  8
0
  6
CONTINUOUS
 10
545.979004
 20
271.134979
 11
545.979004
 21
351.134979
  0
LINE
  8
0
  6
CONTINUOUS
 10
589.979004
 20
351.134979
 11
545.979004
 21
351.134979
  0
LINE
  8
0
  6
CONTINUOUS
 10
589.979004
 20
271.134979
 11
545.979004
 21
271.134979
  0
LINE
  8
0
  6
CONTINUOUS
 10
594.979004
 20
276.134979
 11
594.979004
 21
346.134979
  0
ARC
  8
0
  6
CONTINUOUS
 10
589.979004
 20
346.134979
 40
5.000000
 50
0.000000
 51
90.000000
  0
ARC
  8
0
  6
CONTINUOUS
 10
589.979004
 20
276.134979
 40
5.000000
 50
-90.000000
 51
0.000000
  0
LINE
  8
0
  6
CONTINUOUS
 10
592.479004
 20
335.134979
 11
545.979004
 21
335.134979
  0
LINE
  8
0
  6
CONTINUOUS
 10
592.479004
 20
285.134979
 11
545.979004
 21
285.134979
  0
LINE
  8
0
  6
CONTINUOUS
 10
545.979187
 20
96.459991
 11
536.479187
 21
96.459991
  0
LINE
  8
0
  6
CONTINUOUS
 10
545.979187
 20
20.459990
 11
536.479187
 21
20.459990
  0
LINE
  8
0
  6
CONTINUOUS
 10
545.979187
 20
18.459990
 11
545.979187
 21
98.459991
  0
LINE
  8
0
  6
CONTINUOUS
 10
545.979187
 20
88.708992
 11
536.479187
 21
88.708992
  0
LINE
  8
0
  6
CONTINUOUS
 10
545.979187
 20
28.210989
 11
536.479187
 21
28.210989
  0
LINE
  8
0
  6
CONTINUOUS
 10
589.979187
 20
98.459991
 11
545.979187
 21
98.459991
  0
LINE
  8
0
  6
CONTINUOUS
 10
589.979187
 20
18.459990
 11
545.979187
 21
18.459990
  0
LINE
  8
0
  6
CONTINUOUS
 10
594.979187
 20
23.459990
 11
594.979187
 21
93.459991
  0
ARC
  8
0
  6
CONTINUOUS
 10
589.979187
 20
93.459991
 40
5.000000
 50
0.000000
 51
90.000000
  0
ARC
  8
0
  6
CONTINUOUS
 10
589.979187
 20
23.459990
 40
5.000000
 50
-90.000000
 51
0.000000
  0
LINE
  8
0
  6
CONTINUOUS
 10
592.479187
 20
84.459991
 11
545.979187
 21
84.459991
  0
LINE
  8
0
  6
CONTINUOUS
 10
592.479187
 20
34.459988
 11
545.979187
 21
34.459988
  0
LINE
  8
0
  6
CONTINUOUS
 10
536.479187
 20
20.460009
 11
536.479187
 21
96.459991
  0
LINE
  8
0
  6
CENTER
 10
260.729065
 20
373.660004
 11
260.729065
 21
353.031860
  0
LINE
  8
0
  6
DASHED
 10
266.229065
 20
369.135010
 11
266.229065
 21
357.135010
  0
LINE
  8
0
  6
DASHED
 10
255.229065
 20
369.135010
 11
255.229065
 21
357.135010
  0
LINE
  8
0
  6
DASHED
 10
345.229218
 20
369.135010
 11
345.229218
 21
357.135010
  0
LINE
  8
0
  6
CENTER
 10
350.729218
 20
373.660004
 11
350.729218
 21
353.031860
  0
LINE
  8
0
  6
DASHED
 10
356.229218
 20
369.135010
 11
356.229218
 21
357.135010
  0
LINE
  8
0
  6
CONTINUOUS
 10
378.479156
 20
49.060009
 11
422.479156
 21
49.060009
  0
LINE
  8
0
  6
CONTINUOUS
 10
378.479156
 20
38.860008
 11
422.479156
 21
38.860008
  0
LINE
  8
0
  6
CONTINUOUS
 10
545.479187
 20
282.135010
 11
545.479187
 21
340.135010
  0
LINE
  8
0
  6
CONTINUOUS
 10
483.479156
 20
340.135010
 11
483.479156
 21
282.135010
  0
LINE
  8
0
  6
CONTINUOUS
 10
543.479187
 20
280.135010
 11
485.479156
 21
280.135010
  0
LINE
  8
0
  6
CONTINUOUS
 10
543.479187
 20
342.135010
 11
485.479156
 21
342.135010
  0
LINE
  8
0
  6
CONTINUOUS
 10
485.479156
 20
280.135010
 11
483.479156
 21
282.135010
  0
LINE
  8
0
  6
CONTINUOUS
 10
483.479156
 20
340.135010
 11
485.479156
 21
342.135010
  0
LINE
  8
0
  6
CONTINUOUS
 10
545.479187
 20
340.135010
 11
543.479187
 21
342.135010
  0
LINE
  8
0
  6
CONTINUOUS
 10
545.479187
 20
282.135010
 11
543.479187
 21
280.135010
  0
LINE
  8
0
  6
CONTINUOUS
 10
491.479156
 20
285.135010
 11
491.479156
 21
280.135010
  0
LINE
  8
0
  6
CONTINUOUS
 10
488.479156
 20
288.135010
 11
483.479156
 21
288.135010
  0
CIRCLE
  8
0
  6
CONTINUOUS
 10
487.479156
 20
284.135010
 40
2.250000
  0
ARC
  8
0
  6
CONTINUOUS
 10
488.479156
 20
285.135010
 40
3.000000
 50
0.000000
 51
90.000000
  0
LINE
  8
0
  6
CONTINUOUS
 10
484.479156
 20
289.135010
 11
484.479156
 21
333.135010
  0
LINE
  8
0
  6
CONTINUOUS
 10
488.479156
 20
289.135010
 11
484.479156
 21
289.135010
  0
ARC
  8
0
  6
CONTINUOUS
 10
488.479156
 20
285.135010
 40
4.000000
 50
0.000000
 51
90.000000
  0
LINE
  8
0
  6
CONTINUOUS
 10
492.479156
 20
281.135010
 11
492.479156
 21
285.135010
  0
LINE
  8
0
  6
CONTINUOUS
 10
484.479156
 20
289.135010
 11
483.479156
 21
288.135010
  0
LINE
  8
0
  6
CONTINUOUS
 10
536.479187
 20
281.135010
 11
492.479156
 21
281.135010
  0
LINE
  8
0
  6
CONTINUOUS
 10
492.479156
 20
281.135010
 11
491.479156
 21
280.135010
  0
LINE
  8
0
  6
CONTINUOUS
 10
540.479187
 20
288.135010
 11
545.479187
 21
288.135010
  0
LINE
  8
0
  6
CONTINUOUS
 10
537.479187
 20
285.135010
 11
537.479187
 21
280.135010
  0
CIRCLE
  8
0
  6
CONTINUOUS
 10
541.479187
 20
284.135010
 40
2.250000
  0
ARC
  8
0
  6
CONTINUOUS
 10
540.479187
 20
285.135010
 40
3.000000
 50
90.000000
 51
180.000000
  0
LINE
  8
0
  6
CONTINUOUS
 10
536.479187
 20
285.135010
 11
536.479187
 21
281.135010
  0
ARC
  8
0
  6
CONTINUOUS
 10
540.479187
 20
285.135010
 40
4.000000
 50
90.000000
 51
180.000000
  0
LINE
  8
0
  6
CONTINUOUS
 10
544.479187
 20
289.135010
 11
540.479187
 21
289.135010
  0
LINE
  8
0
  6
CONTINUOUS
 10
536.479187
 20
281.135010
 11
537.479187
 21
280.135010
  0
LINE
  8
0
  6
CONTINUOUS
 10
544.479187
 20
289.135010
 11
545.479187
 21
288.135010
  0
LINE
  8
0
  6
CONTINUOUS
 10
537.479187
 20
337.135010
 11
537.479187
 21
342.135010
  0
LINE
  8
0
  6
CONTINUOUS
 10
540.479187
 20
334.135010
 11
545.479187
 21
334.135010
  0
CIRCLE
  8
0
  6
CONTINUOUS
 10
541.479187
 20
338.135010
 40
2.250000
  0
ARC
  8
0
  6
CONTINUOUS
 10
540.479187
 20
337.135010
 40
3.000000
 50
180.000000
 51
270.000000
  0
LINE
  8
0
  6
CONTINUOUS
 10
540.479187
 20
333.135010
 11
544.479187
 21
333.135010
  0
ARC
  8
0
  6
CONTINUOUS
 10
540.479187
 20
337.135010
 40
4.000000
 50
180.000000
 51
270.000000
  0
LINE
  8
0
  6
CONTINUOUS
 10
536.479187
 20
341.135010
 11
536.479187
 21
337.135010
  0
LINE
  8
0
  6
CONTINUOUS
 10
544.479187
 20
333.135010
 11
545.479187
 21
334.135010
  0
LINE
  8
0
  6
CONTINUOUS
 10
536.479187
 20
341.135010
 11
537.479187
 21
342.135010
  0
LINE
  8
0
  6
CONTINUOUS
 10
488.479156
 20
334.135010
 11
483.479156
 21
334.135010
  0
LINE
  8
0
  6
CONTINUOUS
 10
491.479156
 20
337.135010
 11
491.479156
 21
342.135010
  0
CIRCLE
  8
0
  6
CONTINUOUS
 10
487.479156
 20
338.135010
 40
2.250000
  0
ARC
  8
0
  6
CONTINUOUS
 10
488.479156
 20
337.135010
 40
3.000000
 50
-90.000000
 51
0.000000
  0
LINE
  8
0
  6
CONTINUOUS
 10
492.479156
 20
337.135010
 11
492.479156
 21
341.135010
  0
ARC
  8
0
  6
CONTINUOUS
 10
488.479156
 20
337.135010
 40
4.000000
 50
-90.000000
 51
0.000000
  0
LINE
  8
0
  6
CONTINUOUS
 10
484.479156
 20
333.135010
 11
488.479156
 21
333.135010
  0
LINE
  8
0
  6
CONTINUOUS
 10
492.479156
 20
341.135010
 11
491.479156
 21
342.135010
  0
LINE
  8
0
  6
CONTINUOUS
 10
484.479156
 20
333.135010
 11
483.479156
 21
334.135010
  0
LINE
  8
0
  6
CONTINUOUS
 10
536.479187
 20
341.135010
 11
492.479156
 21
341.135010
  0
LINE
  8
0
  6
CONTINUOUS
 10
544.479187
 20
289.135010
 11
544.479187
 21
333.135010
  0
LINE
  8
0
  6
CENTER
 10
514.479187
 20
274.888763
 11
514.479187
 21
347.581573
  0
LINE
  8
0
  6
CONTINUOUS
 10
543.979187
 20
97.960007
 11
485.479156
 21
97.960007
  0
LINE
  8
0
  6
CONTINUOUS
 10
543.979187
 20
97.960007
 11
543.979187
 21
96.460007
  0
LINE
  8
0
  6
CONTINUOUS
 10
497.979156
 20
97.960007
 11
497.979156
 21
96.460007
  0
LINE
  8
0
  6
CONTINUOUS
 10
545.479187
 20
146.960007
 11
545.479187
 21
99.960007
  0
LINE
  8
0
  6
CONTINUOUS
 10
483.479156
 20
146.960037
 11
483.479156
 21
99.960007
  0
LINE
  8
0
  6
CONTINUOUS
 10
483.479156
 20
99.960007
 11
485.479156
 21
97.960007
  0
LINE
  8
0
  6
CONTINUOUS
 10
545.479187
 20
99.960007
 11
543.479187
 21
97.960007
  0
LINE
  8
0
  6
CONTINUOUS
 10
545.479187
 20
99.960007
 11
483.479156
 21
99.960007
  0
LINE
  8
0
  6
CONTINUOUS
 10
545.479187
 20
109.960030
 11
483.479156
 21
109.960030
  0
LINE
  8
0
  6
CONTINUOUS
 10
545.479187
 20
110.960030
 11
483.479156
 21
110.960030
  0
LINE
  8
0
  6
CONTINUOUS
 10
544.479187
 20
147.960007
 11
484.479156
 21
147.960037
  0
LINE
  8
0
  6
CONTINUOUS
 10
484.479156
 20
147.960037
 11
483.479156
 21
146.960037
  0
LINE
  8
0
  6
CONTINUOUS
 10
545.479187
 20
146.960007
 11
544.479187
 21
147.960007
  0
LINE
  8
0
  6
CONTINUOUS
 10
545.479187
 20
146.960007
 11
483.479156
 21
146.960037
  0
LINE
  8
0
  6
CENTER
 10
548.104187
 20
130.960037
 11
542.354187
 21
130.960037
  0
LINE
  8
0
  6
CONTINUOUS
 10
546.604187
 20
141.460037
 11
543.479187
 21
141.460037
  0
LINE
  8
0
  6
CONTINUOUS
 10
546.604187
 20
120.460030
 11
543.479187
 21
120.460030
  0
LINE
  8
0
  6
CENTER
 10
514.479187
 20
151.389008
 11
514.479187
 21
93.365990
  0
LINE
  8
0
  6
CONTINUOUS
 10
104.061333
 20
146.959991
 11
104.061333
 21
144.477509
  0
LINE
  8
0
  6
CONTINUOUS
 10
42.061329
 20
146.959991
 11
42.061329
 21
145.559433
  0
LINE
  8
0
  6
CONTINUOUS
 10
43.061329
 20
147.959991
 11
103.061333
 21
147.959991
  0
LINE
  8
0
  6
CONTINUOUS
 10
103.061333
 20
147.959991
 11
104.061333
 21
146.959991
  0
LINE
  8
0
  6
CONTINUOUS
 10
43.061329
 20
147.959991
 11
42.061329
 21
146.959991
  0
LINE
  8
0
  6
CONTINUOUS
 10
42.061329
 20
146.959991
 11
104.061333
 21
146.959991
  0
TEXT
  8
0
 10
-30.000000
 20
-4.000000
 40
4.000000
 41
1.000000
  1
HFMN-22L-300~450-T60WC
 50
0.000000
  0
ENDSEC
  0
EOF
