  0
SECTION
  2
HEADER
  9
$CLAYER
  8
1
  9
$LTSCALE
 40
3.0
  0
ENDSEC
  0
SECTION
  2
TABLES
  0
TABLE
  2
LTYPE
 70
     4
  0
LTYPE
  2
CONTINUOUS
  3
solid line
 70
    64
 72
    65
 73
     0
 40
0.0
  0
LTYPE
  2
DASHED
  3
__ __ __ __ __ __ __ __ __ __ __ __ __ __ __
 70
    64
 72
    65
 73
     2
 40
0.75
 49
0.5
 49
-0.25
  0
LTYPE
  2
CENTER
  3
____ _ ____ _ ____ _ ____ _ ____ _ ____ _ ____
 70
    64
 72
    65
 73
     4
 40
2.0
 49
1.25
 49
-0.25
 49
0.25
 49
-0.25
  0
LTYPE
  2
PHANTOM
  3
_____ _ _ _____ _ _ _____ _ _ _____ _ _ ____
 70
    64
 72
    65
 73
     6
 40
2.5
 49
1.25
 49
-0.25
 49
0.25
 49
-0.25
 49
0.25
 49
-0.25
  0
ENDTAB
  0
TABLE
  2
LAYER
 70
     1
  0
LAYER
  2
0
 70
    64
 62
     7
  6
CONTINUOUS
  0
ENDTAB
  0
TABLE
  2
STYLE
 70
     1
  0
STYLE
  2
STANDARD
 70
     0
 40
0.000000
 41
1.000000
 50
0.000000
 71
     0
 42
3.000000
  3
txt
  4
BIGFONT
  0
ENDTAB
  0
ENDSEC
  0
SECTION
  2
BLOCKS
  0
ENDSEC
  0
SECTION
  2
ENTITIES
  0
LINE
  8
0
  6
CENTER
 10
350.715118
 20
304.368774
 11
-9.305000
 21
304.368774
  0
LINE
  8
0
  6
CONTINUOUS
 10
226.729538
 20
247.118759
 11
224.229538
 21
247.118759
  0
LINE
  8
0
  6
CONTINUOUS
 10
228.746933
 20
361.618774
 11
224.229538
 21
361.618774
  0
LINE
  8
0
  6
CONTINUOUS
 10
231.479538
 20
247.118759
 11
224.229538
 21
247.118759
  0
LINE
  8
0
  6
CONTINUOUS
 10
232.933746
 20
272.368774
 11
224.229538
 21
272.368774
  0
LINE
  8
0
  6
CONTINUOUS
 10
231.496124
 20
256.868774
 11
224.229538
 21
256.868774
  0
LINE
  8
0
  6
CONTINUOUS
 10
229.589935
 20
351.868774
 11
224.229538
 21
351.868774
  0
LINE
  8
0
  6
CONTINUOUS
 10
224.229538
 20
336.368774
 11
341.018341
 21
336.368774
  0
LINE
  8
0
  6
CONTINUOUS
 10
229.746735
 20
360.636261
 11
230.084610
 21
341.281494
  0
ARC
  8
0
  6
CONTINUOUS
 10
228.746826
 20
360.618774
 40
1.000000
 50
1.000700
 51
90.000000
  0
ARC
  8
0
  6
CONTINUOUS
 10
235.083939
 20
341.368774
 40
5.000000
 50
-178.999802
 51
-90.000000
  0
LINE
  8
0
  6
CONTINUOUS
 10
224.229538
 20
361.868774
 11
224.229538
 21
246.868759
  0
LINE
  8
0
  6
CONTINUOUS
 10
345.979523
 20
246.368759
 11
231.979538
 21
246.368759
  0
LINE
  8
0
  6
CONTINUOUS
 10
268.979523
 20
336.368774
 11
268.979523
 21
259.171051
  0
LINE
  8
0
  6
CONTINUOUS
 10
308.979523
 20
336.368774
 11
308.979523
 21
259.171051
  0
LINE
  8
0
  6
CONTINUOUS
 10
342.517822
 20
334.908051
 11
344.501526
 21
259.171051
  0
ARC
  8
0
  6
CONTINUOUS
 10
341.018219
 20
334.868774
 40
1.500000
 50
1.500200
 51
90.000000
  0
LINE
  8
0
  6
CONTINUOUS
 10
232.979538
 20
258.368774
 11
344.691040
 21
258.368774
  0
LINE
  8
0
  6
CONTINUOUS
 10
231.979538
 20
257.368774
 11
231.979538
 21
246.368759
  0
LINE
  8
0
  6
CONTINUOUS
 10
345.979523
 20
246.368759
 11
345.690735
 21
257.394958
  0
ARC
  8
0
  6
CONTINUOUS
 10
344.691040
 20
257.368774
 40
1.000000
 50
1.500100
 51
90.000000
  0
ARC
  8
0
  6
CONTINUOUS
 10
345.500946
 20
259.197266
 40
1.000000
 50
-178.499603
 51
-113.891197
  0
ARC
  8
0
  6
CONTINUOUS
 10
231.479538
 20
246.618759
 40
0.500000
 50
0.000000
 51
90.000000
  0
LINE
  8
0
  6
CENTER
 10
158.189682
 20
62.693760
 11
256.173340
 21
62.693760
  0
LINE
  8
0
  6
CENTER
 10
288.979523
 20
158.275024
 11
288.979523
 21
-9.462500
  0
LINE
  8
0
  6
CENTER
 10
233.387497
 20
93.193764
 11
354.048401
 21
93.193764
  0
LINE
  8
0
  6
CONTINUOUS
 10
238.979446
 20
97.554459
 11
238.979446
 21
52.833073
  0
LINE
  8
0
  6
CONTINUOUS
 10
338.979614
 20
97.554420
 11
338.979614
 21
52.833073
  0
ARC
  8
0
  6
CONTINUOUS
 10
288.979523
 20
75.193771
 40
60.000000
 50
48.189621
 51
131.810394
  0
ARC
  8
0
  6
CONTINUOUS
 10
288.979523
 20
75.193771
 40
60.000000
 50
228.189697
 51
311.810303
  0
ARC
  8
0
  6
CONTINUOUS
 10
308.979614
 20
97.554420
 40
30.000000
 50
0.000000
 51
48.189629
  0
CIRCLE
  8
0
  6
CONTINUOUS
 10
288.979523
 20
93.193764
 40
27.500000
  0
ARC
  8
0
  6
CONTINUOUS
 10
288.979523
 20
93.193764
 40
31.750000
 50
7.552697
 51
172.447403
  0
ARC
  8
0
  6
CONTINUOUS
 10
272.229523
 20
51.693764
 40
20.600000
 50
172.447403
 51
270.000000
  0
ARC
  8
0
  6
CONTINUOUS
 10
305.729523
 20
51.693764
 40
20.600000
 50
-90.000000
 51
7.552700
  0
LINE
  8
0
  6
CONTINUOUS
 10
320.454224
 20
97.366920
 11
326.150818
 21
54.401390
  0
LINE
  8
0
  6
CONTINUOUS
 10
251.808136
 20
54.401352
 11
257.504944
 21
97.366859
  0
LINE
  8
0
  6
CONTINUOUS
 10
272.229523
 20
31.093760
 11
305.729523
 21
31.093760
  0
ARC
  8
0
  6
CONTINUOUS
 10
272.229523
 20
51.693764
 40
19.000000
 50
172.447601
 51
270.000000
  0
ARC
  8
0
  6
CONTINUOUS
 10
305.729523
 20
51.693764
 40
19.000000
 50
-90.000000
 51
7.552700
  0
ARC
  8
0
  6
CONTINUOUS
 10
288.979523
 20
93.193764
 40
30.150000
 50
-187.552597
 51
7.552697
  0
LINE
  8
0
  6
CONTINUOUS
 10
253.394333
 20
54.191055
 11
259.091125
 21
97.156578
  0
LINE
  8
0
  6
CONTINUOUS
 10
318.868011
 20
97.156601
 11
324.564819
 21
54.191090
  0
LINE
  8
0
  6
CONTINUOUS
 10
272.229523
 20
32.693760
 11
305.729523
 21
32.693760
  0
LINE
  8
0
  6
CONTINUOUS
 10
278.683136
 20
40.193760
 11
274.522736
 21
40.193760
  0
LINE
  8
0
  6
CONTINUOUS
 10
280.979523
 20
47.162514
 11
280.979523
 21
40.193760
  0
LINE
  8
0
  6
CONTINUOUS
 10
284.979523
 20
49.693764
 11
284.979523
 21
52.193764
  0
LINE
  8
0
  6
CONTINUOUS
 10
292.979523
 20
49.693764
 11
292.979523
 21
52.193764
  0
LINE
  8
0
  6
CONTINUOUS
 10
288.198334
 20
50.725014
 11
288.198334
 21
41.506260
  0
LINE
  8
0
  6
CONTINUOUS
 10
289.698334
 20
50.725014
 11
289.698334
 21
41.506260
  0
LINE
  8
0
  6
CONTINUOUS
 10
297.573334
 20
50.725014
 11
297.573334
 21
41.443760
  0
LINE
  8
0
  6
CONTINUOUS
 10
298.948334
 20
45.803139
 11
298.948334
 21
41.443760
  0
LINE
  8
0
  6
CONTINUOUS
 10
279.081543
 20
50.600014
 11
275.226532
 21
50.600014
  0
LINE
  8
0
  6
CONTINUOUS
 10
275.226532
 20
50.600014
 11
274.323334
 21
49.480019
  0
LINE
  8
0
  6
CONTINUOUS
 10
274.431946
 20
52.193764
 11
272.979523
 21
50.334007
  0
LINE
  8
0
  6
CONTINUOUS
 10
274.323334
 20
42.566700
 11
275.240936
 21
41.599998
  0
LINE
  8
0
  6
CONTINUOUS
 10
272.979523
 20
41.750938
 11
274.522736
 21
40.193760
  0
LINE
  8
0
  6
CONTINUOUS
 10
272.979523
 20
50.334007
 11
272.979523
 21
41.750938
  0
LINE
  8
0
  6
CONTINUOUS
 10
274.323334
 20
49.480019
 11
274.323334
 21
42.566700
  0
LINE
  8
0
  6
CONTINUOUS
 10
279.823334
 20
49.882912
 11
279.066345
 21
50.600014
  0
LINE
  8
0
  6
CONTINUOUS
 10
279.811340
 20
52.193764
 11
280.979523
 21
50.897270
  0
LINE
  8
0
  6
CONTINUOUS
 10
279.823334
 20
49.693764
 11
280.979523
 21
49.693764
  0
LINE
  8
0
  6
CONTINUOUS
 10
274.431946
 20
52.193764
 11
279.811340
 21
52.193764
  0
LINE
  8
0
  6
CONTINUOUS
 10
277.729523
 20
47.162514
 11
280.979523
 21
47.162514
  0
LINE
  8
0
  6
CONTINUOUS
 10
279.823334
 20
45.850018
 11
277.729523
 21
45.850018
  0
LINE
  8
0
  6
CONTINUOUS
 10
277.323334
 20
41.599998
 11
275.240936
 21
41.599998
  0
LINE
  8
0
  6
CONTINUOUS
 10
279.823334
 20
44.600018
 11
279.823334
 21
45.600018
  0
ARC
  8
0
  6
CONTINUOUS
 10
277.323334
 20
44.100006
 40
2.500000
 50
-89.999786
 51
0.000109
  0
LINE
  8
0
  6
CONTINUOUS
 10
279.823334
 20
41.150318
 11
279.823334
 21
40.193760
  0
LINE
  8
0
  6
CONTINUOUS
 10
280.979523
 20
50.897270
 11
280.979523
 21
49.693764
  0
LINE
  8
0
  6
CONTINUOUS
 10
279.823334
 20
45.850018
 11
279.823334
 21
44.100018
  0
LINE
  8
0
  6
CONTINUOUS
 10
277.729523
 20
47.162514
 11
277.729523
 21
45.850018
  0
LINE
  8
0
  6
CONTINUOUS
 10
279.823334
 20
40.193760
 11
280.979523
 21
40.193760
  0
LINE
  8
0
  6
CONTINUOUS
 10
279.823334
 20
41.150318
 11
278.683136
 21
40.193760
  0
LINE
  8
0
  6
CONTINUOUS
 10
289.698334
 20
41.506260
 11
290.198334
 21
41.506260
  0
LINE
  8
0
  6
CONTINUOUS
 10
287.604523
 20
41.506260
 11
287.604523
 21
40.193760
  0
LINE
  8
0
  6
CONTINUOUS
 10
290.198334
 20
41.506260
 11
290.198334
 21
40.193760
  0
LINE
  8
0
  6
CONTINUOUS
 10
292.145142
 20
49.693764
 11
292.979523
 21
49.693764
  0
LINE
  8
0
  6
CONTINUOUS
 10
284.979523
 20
49.693764
 11
285.867523
 21
49.693764
  0
LINE
  8
0
  6
CONTINUOUS
 10
284.979523
 20
52.193764
 11
292.979523
 21
52.193764
  0
LINE
  8
0
  6
CONTINUOUS
 10
287.604523
 20
40.193760
 11
290.198334
 21
40.193760
  0
LINE
  8
0
  6
CONTINUOUS
 10
287.604523
 20
41.506260
 11
288.198334
 21
41.506260
  0
ARC
  8
0
  6
CONTINUOUS
 10
301.776337
 20
48.990639
 40
3.203126
 50
-73.981873
 51
90.003510
  0
ARC
  8
0
  6
CONTINUOUS
 10
301.776337
 20
48.990639
 40
1.954124
 50
-82.585274
 51
62.411850
  0
LINE
  8
0
  6
CONTINUOUS
 10
296.979523
 20
52.193764
 11
301.776337
 21
52.193764
  0
LINE
  8
0
  6
CONTINUOUS
 10
302.028534
 20
47.052849
 11
298.948334
 21
47.052849
  0
LINE
  8
0
  6
CONTINUOUS
 10
296.979523
 20
52.193764
 11
296.979523
 21
50.725014
  0
LINE
  8
0
  6
CONTINUOUS
 10
298.948334
 20
50.725014
 11
298.948334
 21
47.052849
  0
LINE
  8
0
  6
CONTINUOUS
 10
302.660339
 20
45.911873
 11
304.642761
 21
41.443760
  0
LINE
  8
0
  6
CONTINUOUS
 10
301.508759
 20
45.803139
 11
303.384918
 21
41.443760
  0
LINE
  8
0
  6
CONTINUOUS
 10
296.979523
 20
41.443760
 11
297.573334
 21
41.443760
  0
LINE
  8
0
  6
CONTINUOUS
 10
298.948334
 20
41.443760
 11
299.495117
 21
41.443760
  0
LINE
  8
0
  6
CONTINUOUS
 10
299.495117
 20
40.193760
 11
296.979523
 21
40.193760
  0
LINE
  8
0
  6
CONTINUOUS
 10
303.135742
 20
41.443760
 11
303.384918
 21
41.443760
  0
LINE
  8
0
  6
CONTINUOUS
 10
303.135742
 20
40.193760
 11
304.979523
 21
40.193760
  0
LINE
  8
0
  6
CONTINUOUS
 10
303.135742
 20
41.443760
 11
303.135742
 21
40.193760
  0
LINE
  8
0
  6
CONTINUOUS
 10
299.495117
 20
41.443760
 11
299.495117
 21
40.193760
  0
LINE
  8
0
  6
CONTINUOUS
 10
296.979523
 20
41.443760
 11
296.979523
 21
40.193760
  0
LINE
  8
0
  6
CONTINUOUS
 10
286.297333
 20
50.725014
 11
285.867523
 21
49.693764
  0
LINE
  8
0
  6
CONTINUOUS
 10
291.782745
 20
50.725014
 11
292.145142
 21
49.693764
  0
LINE
  8
0
  6
CONTINUOUS
 10
289.698334
 20
50.725014
 11
291.782745
 21
50.725014
  0
LINE
  8
0
  6
CONTINUOUS
 10
288.198334
 20
50.725014
 11
286.297333
 21
50.725014
  0
LINE
  8
0
  6
CONTINUOUS
 10
298.948334
 20
45.803139
 11
301.508759
 21
45.803139
  0
LINE
  8
0
  6
CONTINUOUS
 10
296.979523
 20
50.725014
 11
297.573334
 21
50.725014
  0
LINE
  8
0
  6
CONTINUOUS
 10
298.948334
 20
50.725014
 11
302.681335
 21
50.722588
  0
LINE
  8
0
  6
CONTINUOUS
 10
279.823334
 20
49.882912
 11
279.823334
 21
49.693764
  0
ARC
  8
0
  6
CONTINUOUS
 10
268.979523
 20
97.554459
 40
30.000000
 50
131.810394
 51
180.000000
  0
ARC
  8
0
  6
CONTINUOUS
 10
268.979523
 20
52.833073
 40
30.000000
 50
180.000000
 51
228.189697
  0
LINE
  8
0
  6
CONTINUOUS
 10
224.229553
 20
119.943741
 11
231.979446
 21
119.943741
  0
LINE
  8
0
  6
CONTINUOUS
 10
229.793915
 20
5.443740
 11
224.229553
 21
5.443740
  0
LINE
  8
0
  6
CONTINUOUS
 10
230.776337
 20
110.193741
 11
224.229553
 21
110.193741
  0
LINE
  8
0
  6
CONTINUOUS
 10
224.229553
 20
15.193740
 11
231.979446
 21
15.193740
  0
LINE
  8
0
  6
CONTINUOUS
 10
230.776337
 20
94.653778
 11
224.229553
 21
94.653778
  0
LINE
  8
0
  6
CONTINUOUS
 10
230.776337
 20
30.733780
 11
224.229553
 21
30.733780
  0
LINE
  8
0
  6
CENTER
 10
235.332565
 20
135.193756
 11
252.629532
 21
135.193756
  0
LINE
  8
0
  6
CENTER
 10
325.417206
 20
135.193756
 11
349.998413
 21
135.193756
  0
LINE
  8
0
  6
CENTER
 10
234.186493
 20
15.193740
 11
252.798126
 21
15.193740
  0
LINE
  8
0
  6
CENTER
 10
324.854614
 20
15.193740
 11
349.660797
 21
15.193740
  0
LINE
  8
0
  6
CENTER
 10
333.979614
 20
144.353165
 11
333.979614
 21
126.212502
  0
LINE
  8
0
  6
CENTER
 10
243.979446
 20
144.100037
 11
243.979446
 21
126.634361
  0
LINE
  8
0
  6
CENTER
 10
243.979446
 20
24.371861
 11
243.979446
 21
-2.037480
  0
LINE
  8
0
  6
CENTER
 10
333.979614
 20
24.540640
 11
333.979614
 21
-1.362500
  0
CIRCLE
  8
0
  6
CONTINUOUS
 10
333.979614
 20
135.193756
 40
5.500000
  0
CIRCLE
  8
0
  6
CONTINUOUS
 10
243.979446
 20
135.193756
 40
5.500000
  0
CIRCLE
  8
0
  6
CONTINUOUS
 10
243.979446
 20
15.193740
 40
5.500000
  0
CIRCLE
  8
0
  6
CONTINUOUS
 10
333.979614
 20
15.193740
 40
5.500000
  0
ARC
  8
0
  6
CONTINUOUS
 10
333.979614
 20
135.193756
 40
12.000000
 50
0.000000
 51
90.000000
  0
ARC
  8
0
  6
CONTINUOUS
 10
243.979446
 20
135.193756
 40
12.000000
 50
90.000000
 51
180.000000
  0
ARC
  8
0
  6
CONTINUOUS
 10
243.979446
 20
15.193740
 40
12.000000
 50
180.000000
 51
270.000000
  0
ARC
  8
0
  6
CONTINUOUS
 10
333.979614
 20
15.193740
 40
12.000000
 50
-90.000000
 51
0.000000
  0
LINE
  8
0
  6
CONTINUOUS
 10
333.979614
 20
147.193756
 11
243.979446
 21
147.193756
  0
LINE
  8
0
  6
CONTINUOUS
 10
243.979538
 20
3.193740
 11
333.979614
 21
3.193740
  0
LINE
  8
0
  6
CONTINUOUS
 10
345.979614
 20
135.193756
 11
345.979614
 21
15.193740
  0
LINE
  8
0
  6
CONTINUOUS
 10
231.979446
 20
135.193726
 11
231.979446
 21
15.193720
  0
LINE
  8
0
  6
CONTINUOUS
 10
316.979614
 20
8.193740
 11
260.979523
 21
8.193740
  0
LINE
  8
0
  6
CONTINUOUS
 10
260.979523
 20
142.193756
 11
316.979614
 21
142.193756
  0
LINE
  8
0
  6
CONTINUOUS
 10
340.979614
 20
118.193741
 11
340.979614
 21
32.193760
  0
LINE
  8
0
  6
CONTINUOUS
 10
236.979446
 20
118.193741
 11
236.979446
 21
32.193760
  0
ARC
  8
0
  6
CONTINUOUS
 10
333.979614
 20
135.193756
 40
11.000000
 50
180.000000
 51
270.000000
  0
ARC
  8
0
  6
CONTINUOUS
 10
243.979446
 20
135.193756
 40
11.000000
 50
-90.000000
 51
0.000000
  0
ARC
  8
0
  6
CONTINUOUS
 10
243.979446
 20
15.193740
 40
11.000000
 50
0.000000
 51
90.000000
  0
ARC
  8
0
  6
CONTINUOUS
 10
333.979614
 20
15.193740
 40
11.000000
 50
90.000000
 51
180.000000
  0
LINE
  8
0
  6
CONTINUOUS
 10
242.979446
 20
26.193741
 11
243.979446
 21
26.193741
  0
LINE
  8
0
  6
CONTINUOUS
 10
254.979538
 20
14.193740
 11
254.979538
 21
15.193740
  0
ARC
  8
0
  6
CONTINUOUS
 10
242.979446
 20
32.193760
 40
6.000000
 50
180.000000
 51
270.000000
  0
ARC
  8
0
  6
CONTINUOUS
 10
260.979523
 20
14.193740
 40
6.000000
 50
180.000000
 51
270.000000
  0
LINE
  8
0
  6
CONTINUOUS
 10
334.979614
 20
26.193741
 11
333.979614
 21
26.193741
  0
LINE
  8
0
  6
CONTINUOUS
 10
322.979614
 20
14.193740
 11
322.979614
 21
15.193720
  0
ARC
  8
0
  6
CONTINUOUS
 10
334.979614
 20
32.193760
 40
6.000000
 50
-90.000000
 51
0.000000
  0
ARC
  8
0
  6
CONTINUOUS
 10
316.979614
 20
14.193740
 40
6.000000
 50
-90.000000
 51
0.000000
  0
LINE
  8
0
  6
CONTINUOUS
 10
334.979614
 20
124.193741
 11
333.979614
 21
124.193741
  0
LINE
  8
0
  6
CONTINUOUS
 10
322.979614
 20
136.193756
 11
322.979614
 21
135.193726
  0
ARC
  8
0
  6
CONTINUOUS
 10
316.979614
 20
136.193756
 40
6.000000
 50
0.000000
 51
90.000000
  0
ARC
  8
0
  6
CONTINUOUS
 10
334.979614
 20
118.193741
 40
6.000000
 50
0.000000
 51
90.000000
  0
LINE
  8
0
  6
CONTINUOUS
 10
242.979446
 20
124.193741
 11
243.979446
 21
124.193741
  0
LINE
  8
0
  6
CONTINUOUS
 10
254.979538
 20
136.193756
 11
254.979538
 21
135.193756
  0
ARC
  8
0
  6
CONTINUOUS
 10
260.979523
 20
136.193817
 40
6.000000
 50
90.000000
 51
180.000000
  0
ARC
  8
0
  6
CONTINUOUS
 10
242.979492
 20
118.193802
 40
6.000000
 50
90.000000
 51
180.000000
  0
LINE
  8
0
  6
CONTINUOUS
 10
230.791672
 20
6.377240
 11
231.342117
 21
14.633660
  0
ARC
  8
0
  6
CONTINUOUS
 10
231.940811
 20
14.593760
 40
0.600000
 50
90.000000
 51
176.186096
  0
ARC
  8
0
  6
CONTINUOUS
 10
229.793915
 20
6.443740
 40
1.000000
 50
270.000000
 51
356.185791
  0
ARC
  8
0
  6
CONTINUOUS
 10
308.979614
 20
52.833084
 40
30.000000
 50
-48.189449
 51
0.000000
  0
LINE
  8
0
  6
CONTINUOUS
 10
296.479523
 20
90.193764
 11
296.479523
 21
96.193741
  0
LINE
  8
0
  6
CONTINUOUS
 10
302.479523
 20
90.193718
 11
302.479523
 21
96.193718
  0
LINE
  8
0
  6
CONTINUOUS
 10
302.479523
 20
90.193718
 11
296.479523
 21
90.193764
  0
LINE
  8
0
  6
CONTINUOUS
 10
302.479523
 20
96.193718
 11
296.479523
 21
96.193741
  0
ARC
  8
0
  6
CONTINUOUS
 10
288.979523
 20
93.193764
 40
11.000000
 50
-344.173401
 51
-15.826600
  0
LINE
  8
0
  6
CONTINUOUS
 10
224.229553
 20
120.193764
 11
224.229553
 21
5.193760
  0
LINE
  8
0
  6
CENTER
 10
511.973358
 20
-14.352460
 11
511.973358
 21
156.391724
  0
LINE
  8
0
  6
CENTER
 10
440.006775
 20
62.693760
 11
578.233154
 21
62.693760
  0
LINE
  8
0
  6
CENTER
 10
408.973572
 20
93.193764
 11
569.647339
 21
93.193764
  0
LINE
  8
0
  6
CONTINUOUS
 10
453.973572
 20
82.193764
 11
453.973572
 21
3.193740
  0
LINE
  8
0
  6
CONTINUOUS
 10
465.973572
 20
123.443741
 11
465.973572
 21
145.193756
  0
LINE
  8
0
  6
CONTINUOUS
 10
464.055359
 20
147.193756
 11
453.973572
 21
147.193756
  0
LINE
  8
0
  6
CONTINUOUS
 10
464.055359
 20
3.193780
 11
453.973572
 21
3.193780
  0
LINE
  8
0
  6
CONTINUOUS
 10
543.973389
 20
13.676440
 11
543.973389
 21
136.711075
  0
LINE
  8
0
  6
CONTINUOUS
 10
542.991150
 20
137.710938
 11
467.938751
 21
139.020645
  0
LINE
  8
0
  6
CONTINUOUS
 10
542.991150
 20
12.676620
 11
467.938751
 21
11.366300
  0
LINE
  8
0
  6
CONTINUOUS
 10
470.530151
 20
115.193741
 11
542.906189
 21
115.193741
  0
LINE
  8
0
  6
CONTINUOUS
 10
467.882568
 20
35.193760
 11
542.583191
 21
35.193760
  0
LINE
  8
0
  6
CONTINUOUS
 10
466.470154
 20
5.046740
 11
467.579376
 21
9.186580
  0
LINE
  8
0
  6
CONTINUOUS
 10
466.470154
 20
145.340836
 11
467.579559
 21
141.200317
  0
ARC
  8
0
  6
CONTINUOUS
 10
470.477356
 20
141.976837
 40
3.000000
 50
195.000702
 51
269.000488
  0
ARC
  8
0
  6
CONTINUOUS
 10
463.973572
 20
145.193756
 40
2.000000
 50
0.000000
 51
90.000000
  0
ARC
  8
0
  6
CONTINUOUS
 10
467.973572
 20
141.020355
 40
2.000000
 50
180.000000
 51
269.000610
  0
ARC
  8
0
  6
CONTINUOUS
 10
470.477173
 20
8.410140
 40
3.000000
 50
91.000526
 51
165.000305
  0
ARC
  8
0
  6
CONTINUOUS
 10
467.973572
 20
9.366620
 40
2.000000
 50
91.000633
 51
180.000000
  0
ARC
  8
0
  6
CONTINUOUS
 10
463.973572
 20
5.193780
 40
2.000000
 50
-90.000000
 51
0.000000
  0
ARC
  8
0
  6
CONTINUOUS
 10
542.973389
 20
136.711075
 40
1.000000
 50
0.000000
 51
89.000359
  0
ARC
  8
0
  6
CONTINUOUS
 10
542.973389
 20
13.676440
 40
1.000000
 50
-88.999573
 51
0.000000
  0
LINE
  8
0
  6
CENTER
 10
448.479767
 20
135.193756
 11
471.116364
 21
135.193756
  0
LINE
  8
0
  6
CENTER
 10
448.479767
 20
15.193740
 11
471.116364
 21
15.193740
  0
LINE
  8
0
  6
DASHED
 10
453.973572
 20
140.693756
 11
465.973572
 21
140.693756
  0
LINE
  8
0
  6
DASHED
 10
453.973572
 20
129.693756
 11
465.973572
 21
129.693756
  0
LINE
  8
0
  6
DASHED
 10
453.973572
 20
20.693741
 11
465.973572
 21
20.693741
  0
LINE
  8
0
  6
DASHED
 10
453.973572
 20
9.693740
 11
465.973572
 21
9.693740
  0
LINE
  8
0
  6
CONTINUOUS
 10
559.973389
 20
68.000916
 11
559.973389
 21
118.386597
  0
LINE
  8
0
  6
CONTINUOUS
 10
549.973389
 20
34.998600
 11
549.973389
 21
95.263741
  0
LINE
  8
0
  6
CONTINUOUS
 10
557.743774
 20
121.286041
 11
546.203552
 21
124.351440
  0
LINE
  8
0
  6
CONTINUOUS
 10
557.743774
 20
65.101463
 11
552.203186
 21
63.629803
  0
LINE
  8
0
  6
CONTINUOUS
 10
547.746582
 20
32.099918
 11
546.200562
 21
31.687620
  0
ARC
  8
0
  6
CONTINUOUS
 10
556.973389
 20
118.386597
 40
3.000000
 50
0.000000
 51
75.124413
  0
ARC
  8
0
  6
CONTINUOUS
 10
556.973389
 20
68.000916
 40
3.000000
 50
-75.124207
 51
0.000000
  0
ARC
  8
0
  6
CONTINUOUS
 10
546.973389
 20
34.998600
 40
3.000000
 50
-75.068420
 51
0.000000
  0
ARC
  8
0
  6
CONTINUOUS
 10
546.973389
 20
127.250923
 40
3.000000
 50
180.000000
 51
255.124603
  0
ARC
  8
0
  6
CONTINUOUS
 10
552.973389
 20
60.730366
 40
3.000000
 50
104.876099
 51
180.000000
  0
ARC
  8
0
  6
CONTINUOUS
 10
546.973389
 20
28.788919
 40
3.000000
 50
104.931801
 51
180.000000
  0
LINE
  8
0
  6
CONTINUOUS
 10
559.473389
 20
20.193741
 11
559.473389
 21
29.245100
  0
LINE
  8
0
  6
CONTINUOUS
 10
554.473389
 20
15.193740
 11
545.422363
 21
15.193740
  0
ARC
  8
0
  6
CONTINUOUS
 10
511.973358
 20
62.693760
 40
57.250000
 50
-32.501888
 51
33.025517
  0
ARC
  8
0
  6
CONTINUOUS
 10
511.973358
 20
62.693760
 40
57.250000
 50
243.004898
 51
298.995514
  0
ARC
  8
0
  6
CONTINUOUS
 10
554.473389
 20
20.193741
 40
5.000000
 50
-90.000000
 51
0.000000
  0
ARC
  8
0
  6
CONTINUOUS
 10
564.473389
 20
29.245100
 40
5.000000
 50
147.498093
 51
180.000000
  0
ARC
  8
0
  6
CONTINUOUS
 10
545.422363
 20
10.193740
 40
5.000000
 50
90.000000
 51
106.842003
  0
LINE
  8
0
  6
CONTINUOUS
 10
463.973572
 20
68.000908
 11
463.973572
 21
118.386597
  0
LINE
  8
0
  6
CONTINUOUS
 10
466.203552
 20
65.101456
 11
469.004761
 21
64.357368
  0
LINE
  8
0
  6
CONTINUOUS
 10
466.203552
 20
121.286041
 11
468.027161
 21
121.770477
  0
ARC
  8
0
  6
CONTINUOUS
 10
466.973755
 20
118.386597
 40
3.000000
 50
104.876099
 51
180.000000
  0
ARC
  8
0
  6
CONTINUOUS
 10
466.973572
 20
68.000931
 40
3.000000
 50
180.000000
 51
255.124603
  0
LINE
  8
0
  6
CONTINUOUS
 10
471.473572
 20
112.943741
 11
472.973572
 21
106.693741
  0
LINE
  8
0
  6
CONTINUOUS
 10
472.973572
 20
106.693741
 11
471.973572
 21
101.193741
  0
LINE
  8
0
  6
CONTINUOUS
 10
471.973572
 20
101.193741
 11
474.223572
 21
95.443741
  0
LINE
  8
0
  6
CONTINUOUS
 10
474.223572
 20
95.443741
 11
472.473572
 21
89.693764
  0
LINE
  8
0
  6
CONTINUOUS
 10
472.473572
 20
89.693764
 11
470.473572
 21
84.693764
  0
LINE
  8
0
  6
CONTINUOUS
 10
470.473572
 20
84.693764
 11
470.973572
 21
75.943764
  0
LINE
  8
0
  6
CONTINUOUS
 10
470.973572
 20
75.943764
 11
469.723572
 21
71.443764
  0
LINE
  8
0
  6
CONTINUOUS
 10
469.723572
 20
71.443764
 11
469.723572
 21
66.693764
  0
LINE
  8
0
  6
CONTINUOUS
 10
469.723572
 20
66.693764
 11
467.723572
 21
60.193760
  0
LINE
  8
0
  6
CONTINUOUS
 10
467.723572
 20
60.193760
 11
467.973572
 21
56.193760
  0
LINE
  8
0
  6
CONTINUOUS
 10
467.973572
 20
56.193760
 11
466.973572
 21
51.818760
  0
LINE
  8
0
  6
CONTINUOUS
 10
466.973572
 20
51.818760
 11
463.473572
 21
49.193760
  0
LINE
  8
0
  6
CONTINUOUS
 10
463.473572
 20
49.193760
 11
460.848572
 21
45.943764
  0
LINE
  8
0
  6
CONTINUOUS
 10
460.848572
 20
45.943764
 11
457.973572
 21
44.193764
  0
LINE
  8
0
  6
CONTINUOUS
 10
457.973572
 20
44.193764
 11
455.598572
 21
42.068760
  0
LINE
  8
0
  6
CONTINUOUS
 10
455.598572
 20
42.068760
 11
453.973572
 21
41.697338
  0
LINE
  8
0
  6
CONTINUOUS
 10
463.848572
 20
125.068741
 11
460.348572
 21
125.943741
  0
LINE
  8
0
  6
CONTINUOUS
 10
460.348572
 20
125.943741
 11
456.973572
 21
126.568741
  0
LINE
  8
0
  6
CONTINUOUS
 10
456.973572
 20
126.568741
 11
453.973572
 21
127.568764
  0
LINE
  8
0
  6
CONTINUOUS
 10
453.973572
 20
147.193756
 11
453.973572
 21
104.193741
  0
LINE
  8
0
  6
CONTINUOUS
 10
465.973572
 20
5.193780
 11
465.973572
 21
51.068760
  0
LINE
  8
0
  6
CONTINUOUS
 10
463.848572
 20
125.068741
 11
465.973572
 21
123.443741
  0
LINE
  8
0
  6
CONTINUOUS
 10
465.973572
 20
123.443741
 11
469.348572
 21
120.693741
  0
LINE
  8
0
  6
CONTINUOUS
 10
469.348572
 20
120.693741
 11
469.848572
 21
116.818741
  0
LINE
  8
0
  6
CONTINUOUS
 10
469.848572
 20
116.818741
 11
471.473572
 21
112.943741
  0
LINE
  8
0
  6
CONTINUOUS
 10
460.973572
 20
82.193764
 11
460.973572
 21
46.098522
  0
LINE
  8
0
  6
CONTINUOUS
 10
460.973572
 20
125.787521
 11
460.973572
 21
104.193741
  0
LINE
  8
0
  6
CONTINUOUS
 10
421.973755
 20
82.193764
 11
421.973755
 21
104.193741
  0
LINE
  8
0
  6
CONTINUOUS
 10
461.973755
 20
104.193741
 11
421.973755
 21
104.193741
  0
LINE
  8
0
  6
CONTINUOUS
 10
461.973755
 20
82.193764
 11
421.973755
 21
82.193764
  0
LINE
  8
0
  6
CONTINUOUS
 10
461.973755
 20
105.693741
 11
461.973755
 21
80.693764
  0
LINE
  8
0
  6
CONTINUOUS
 10
463.973755
 20
105.693741
 11
461.973755
 21
105.693741
  0
LINE
  8
0
  6
CONTINUOUS
 10
463.973755
 20
80.693764
 11
461.973755
 21
80.693764
  0
ARC
  8
0
  6
CONTINUOUS
 10
453.973755
 20
93.193764
 40
3.000000
 50
-90.000000
 51
90.000000
  0
LINE
  8
0
  6
CONTINUOUS
 10
453.973755
 20
96.193741
 11
421.973755
 21
96.193741
  0
LINE
  8
0
  6
CONTINUOUS
 10
453.973755
 20
90.193764
 11
421.973755
 21
90.193764
  0
ARC
  8
0
  6
CONTINUOUS
 10
464.055359
 20
144.693756
 40
2.500000
 50
15.000760
 51
90.000000
  0
ARC
  8
0
  6
CONTINUOUS
 10
464.055359
 20
5.693780
 40
2.500000
 50
270.000000
 51
345.000214
  0
ARC
  8
0
  6
CONTINUOUS
 10
511.973358
 20
62.693760
 40
57.499821
 50
303.815704
 51
303.996307
  0
ARC
  8
0
  6
CONTINUOUS
 10
511.973358
 20
62.693760
 40
57.500000
 50
242.540298
 51
299.460602
  0
ARC
  8
0
  6
CONTINUOUS
 10
511.973358
 20
62.693760
 40
57.500000
 50
-33.996769
 51
33.406792
  0
ARC
  8
0
  6
CONTINUOUS
 10
511.973358
 20
62.693760
 40
57.500000
 50
303.815613
 51
303.997314
  0
LINE
  8
0
  6
CONTINUOUS
 10
235.441223
 20
334.908020
 11
235.238525
 21
327.168762
  0
ARC
  8
0
  6
CONTINUOUS
 10
236.940720
 20
334.868774
 40
1.500000
 50
90.000000
 51
178.499649
  0
ARC
  8
0
  6
CONTINUOUS
 10
232.979538
 20
257.368774
 40
1.000000
 50
90.000000
 51
180.000000
  0
ARC
  8
0
  6
CONTINUOUS
 10
232.460571
 20
259.300262
 40
1.000000
 50
285.039185
 51
358.499664
  0
LINE
  8
0
  6
CENTER
 10
288.979523
 20
363.344055
 11
288.979523
 21
204.144806
  0
LINE
  8
0
  6
CONTINUOUS
 10
263.786682
 20
352.368774
 11
314.172363
 21
352.368774
  0
LINE
  8
0
  6
CONTINUOUS
 10
319.135773
 20
342.368774
 11
322.422638
 21
342.368774
  0
ARC
  8
0
  6
CONTINUOUS
 10
314.172363
 20
349.368774
 40
3.000000
 50
-345.124329
 51
-270.000000
  0
LINE
  8
0
  6
CONTINUOUS
 10
325.322083
 20
340.138916
 11
325.731232
 21
338.598602
  0
ARC
  8
0
  6
CONTINUOUS
 10
322.422638
 20
339.368774
 40
3.000000
 50
-345.124329
 51
-270.000000
  0
ARC
  8
0
  6
CONTINUOUS
 10
328.630676
 20
339.368774
 40
3.000000
 50
-165.124313
 51
-90.000000
  0
LINE
  8
0
  6
CONTINUOUS
 10
319.135773
 20
342.368774
 11
317.071838
 21
350.138916
  0
LINE
  8
0
  6
CONTINUOUS
 10
252.636978
 20
340.138916
 11
252.227829
 21
338.598602
  0
ARC
  8
0
  6
CONTINUOUS
 10
255.536438
 20
339.368774
 40
3.000000
 50
90.000000
 51
165.124313
  0
ARC
  8
0
  6
CONTINUOUS
 10
249.328369
 20
339.368774
 40
3.000000
 50
-90.000000
 51
-14.875682
  0
LINE
  8
0
  6
CONTINUOUS
 10
258.823273
 20
342.368774
 11
255.536438
 21
342.368774
  0
ARC
  8
0
  6
CONTINUOUS
 10
263.786682
 20
349.368774
 40
3.000000
 50
90.000000
 51
165.124313
  0
LINE
  8
0
  6
CONTINUOUS
 10
258.823273
 20
342.368774
 11
260.887238
 21
350.138916
  0
LINE
  8
0
  6
CONTINUOUS
 10
277.979523
 20
214.368759
 11
302.479523
 21
214.368759
  0
LINE
  8
0
  6
CONTINUOUS
 10
277.979523
 20
246.368759
 11
277.979523
 21
214.368759
  0
LINE
  8
0
  6
CONTINUOUS
 10
302.479523
 20
246.368759
 11
302.479523
 21
214.368759
  0
LINE
  8
0
  6
CONTINUOUS
 10
299.562531
 20
214.368759
 11
299.562531
 21
246.368759
  0
ARC
  8
0
  6
CONTINUOUS
 10
173.795120
 20
305.962433
 40
65.000000
 50
-22.042076
 51
19.041388
  0
LINE
  8
0
  6
CONTINUOUS
 10
234.044174
 20
281.568756
 11
233.460236
 21
259.274078
  0
LINE
  8
0
  6
CONTINUOUS
 10
58.229530
 20
89.693741
 11
172.229538
 21
89.693741
  0
LINE
  8
0
  6
CONTINUOUS
 10
58.229530
 20
13.693780
 11
172.229538
 21
13.693780
  0
LINE
  8
0
  6
CONTINUOUS
 10
58.229530
 20
81.942741
 11
164.229538
 21
81.942741
  0
LINE
  8
0
  6
CONTINUOUS
 10
58.229530
 20
21.444780
 11
164.229538
 21
21.444780
  0
LINE
  8
0
  6
CONTINUOUS
 10
164.229538
 20
87.693741
 11
164.229538
 21
15.693760
  0
ARC
  8
0
  6
CONTINUOUS
 10
166.229538
 20
87.693764
 40
2.000000
 50
90.000000
 51
180.000000
  0
ARC
  8
0
  6
CONTINUOUS
 10
166.229538
 20
15.693780
 40
2.000000
 50
180.000000
 51
270.000000
  0
LINE
  8
0
  6
CONTINUOUS
 10
213.816772
 20
91.146019
 11
172.229523
 21
89.693764
  0
LINE
  8
0
  6
CONTINUOUS
 10
224.229538
 20
11.877880
 11
172.229523
 21
13.693760
  0
LINE
  8
0
  6
CONTINUOUS
 10
216.229538
 20
119.193764
 11
216.229538
 21
92.193764
  0
LINE
  8
0
  6
CONTINUOUS
 10
217.229538
 20
120.193764
 11
224.229553
 21
120.193764
  0
LINE
  8
0
  6
CONTINUOUS
 10
218.729538
 20
5.193760
 11
224.229538
 21
5.193760
  0
LINE
  8
0
  6
CONTINUOUS
 10
216.229538
 20
92.693764
 11
216.229538
 21
21.781103
  0
LINE
  8
0
  6
CONTINUOUS
 10
172.229538
 20
89.693764
 11
172.229538
 21
13.693760
  0
LINE
  8
0
  6
CONTINUOUS
 10
214.816406
 20
103.011566
 11
188.872971
 21
90.487152
  0
ARC
  8
0
  6
CONTINUOUS
 10
217.229538
 20
119.193764
 40
1.000000
 50
90.000000
 51
180.000000
  0
ARC
  8
0
  6
CONTINUOUS
 10
213.729538
 20
105.262939
 40
2.500000
 50
-64.230675
 51
0.000000
  0
ARC
  8
0
  6
CONTINUOUS
 10
213.729538
 20
93.644493
 40
2.500000
 50
-88.000000
 51
0.000000
  0
ARC
  8
0
  6
CONTINUOUS
 10
187.786102
 20
92.738533
 40
2.500000
 50
272.000000
 51
295.769318
  0
LINE
  8
0
  6
CONTINUOUS
 10
217.354614
 20
19.539761
 11
224.229538
 21
19.539761
  0
LINE
  8
0
  6
CONTINUOUS
 10
216.229538
 20
7.693760
 11
216.229538
 21
9.743024
  0
ARC
  8
0
  6
CONTINUOUS
 10
218.729538
 20
7.693760
 40
2.500000
 50
180.000000
 51
270.000000
  0
ARC
  8
0
  6
CONTINUOUS
 10
213.729538
 20
9.743024
 40
2.500000
 50
0.000000
 51
88.000000
  0
LINE
  8
0
  6
CENTER
 10
-10.770000
 20
51.693760
 11
256.979523
 21
51.693760
  0
LINE
  8
0
  6
CONTINUOUS
 10
218.729538
 20
246.868759
 11
224.229538
 21
246.868759
  0
LINE
  8
0
  6
CONTINUOUS
 10
218.729538
 20
361.868774
 11
224.229538
 21
361.868774
  0
LINE
  8
0
  6
CONTINUOUS
 10
216.229538
 20
249.368759
 11
216.229538
 21
359.368774
  0
LINE
  8
0
  6
CONTINUOUS
 10
172.229538
 20
342.368774
 11
172.229538
 21
266.368774
  0
LINE
  8
0
  6
CONTINUOUS
 10
213.816772
 20
343.821014
 11
172.229538
 21
342.368774
  0
LINE
  8
0
  6
CONTINUOUS
 10
213.816772
 20
264.916504
 11
172.229538
 21
266.368774
  0
ARC
  8
0
  6
CONTINUOUS
 10
218.729538
 20
359.368774
 40
2.500000
 50
90.000000
 51
180.000000
  0
ARC
  8
0
  6
CONTINUOUS
 10
218.729538
 20
249.368759
 40
2.500000
 50
180.000000
 51
270.000000
  0
LINE
  8
0
  6
CONTINUOUS
 10
172.229538
 20
342.368774
 11
172.229538
 21
266.368774
  0
LINE
  8
0
  6
CONTINUOUS
 10
58.229652
 20
342.368744
 11
172.229660
 21
342.368744
  0
LINE
  8
0
  6
CONTINUOUS
 10
58.229652
 20
266.368774
 11
172.229660
 21
266.368774
  0
LINE
  8
0
  6
CONTINUOUS
 10
164.229660
 20
340.368744
 11
164.229660
 21
327.368774
  0
ARC
  8
0
  6
CONTINUOUS
 10
166.229660
 20
340.368774
 40
2.000000
 50
90.000000
 51
180.000000
  0
ARC
  8
0
  6
CONTINUOUS
 10
166.229660
 20
268.368774
 40
2.000000
 50
180.000000
 51
270.000000
  0
LINE
  8
0
  6
CONTINUOUS
 10
111.229523
 20
327.368774
 11
164.229660
 21
327.368774
  0
LINE
  8
0
  6
CONTINUOUS
 10
111.229523
 20
281.368774
 11
164.229660
 21
281.368774
  0
LINE
  8
0
  6
CONTINUOUS
 10
164.229660
 20
281.368774
 11
164.229660
 21
268.368774
  0
ARC
  8
0
  6
CONTINUOUS
 10
203.399170
 20
304.368774
 40
15.000000
 50
130.747620
 51
229.252380
  0
LINE
  8
0
  6
CONTINUOUS
 10
215.361359
 20
334.474762
 11
193.608246
 21
315.732635
  0
LINE
  8
0
  6
CONTINUOUS
 10
215.361359
 20
274.262756
 11
193.608246
 21
293.004883
  0
ARC
  8
0
  6
CONTINUOUS
 10
213.729538
 20
336.368744
 40
2.500000
 50
-49.252373
 51
0.000000
  0
ARC
  8
0
  6
CONTINUOUS
 10
213.729538
 20
346.319489
 40
2.500000
 50
-88.000000
 51
0.000000
  0
ARC
  8
0
  6
CONTINUOUS
 10
213.729538
 20
272.368774
 40
2.500000
 50
0.000000
 51
49.252373
  0
ARC
  8
0
  6
CONTINUOUS
 10
213.729538
 20
262.418030
 40
2.500000
 50
0.000000
 51
88.000000
  0
LINE
  8
0
  6
CONTINUOUS
 10
58.229652
 20
342.368744
 11
58.229652
 21
335.368774
  0
LINE
  8
0
  6
CONTINUOUS
 10
58.229652
 20
342.368744
 11
48.729652
 21
342.368744
  0
LINE
  8
0
  6
CONTINUOUS
 10
58.229652
 20
266.368744
 11
48.729652
 21
266.368744
  0
LINE
  8
0
  6
CONTINUOUS
 10
49.229523
 20
281.368744
 11
48.729652
 21
281.368744
  0
LINE
  8
0
  6
CONTINUOUS
 10
49.229523
 20
327.368744
 11
48.729652
 21
327.368744
  0
LINE
  8
0
  6
CONTINUOUS
 10
58.229652
 20
273.368774
 11
58.229652
 21
266.368744
  0
LINE
  8
0
  6
CONTINUOUS
 10
48.729652
 20
264.368744
 11
48.729652
 21
344.368744
  0
LINE
  8
0
  6
CONTINUOUS
 10
4.729653
 20
344.368744
 11
48.729652
 21
344.368744
  0
LINE
  8
0
  6
CONTINUOUS
 10
4.729653
 20
264.368744
 11
48.729652
 21
264.368744
  0
LINE
  8
0
  6
CONTINUOUS
 10
-0.270347
 20
269.368744
 11
-0.270347
 21
339.368744
  0
ARC
  8
0
  6
CONTINUOUS
 10
4.729653
 20
339.368744
 40
5.000000
 50
90.000000
 51
180.000000
  0
ARC
  8
0
  6
CONTINUOUS
 10
4.729653
 20
269.368744
 40
5.000000
 50
180.000000
 51
270.000000
  0
LINE
  8
0
  6
CONTINUOUS
 10
2.229653
 20
328.368744
 11
48.729652
 21
328.368744
  0
LINE
  8
0
  6
CONTINUOUS
 10
2.229653
 20
278.368744
 11
48.729652
 21
278.368744
  0
LINE
  8
0
  6
CONTINUOUS
 10
48.729530
 20
89.693741
 11
58.229530
 21
89.693741
  0
LINE
  8
0
  6
CONTINUOUS
 10
48.729530
 20
13.693740
 11
58.229530
 21
13.693740
  0
LINE
  8
0
  6
CONTINUOUS
 10
48.729530
 20
11.693740
 11
48.729530
 21
91.693741
  0
LINE
  8
0
  6
CONTINUOUS
 10
48.729530
 20
81.942741
 11
58.229530
 21
81.942741
  0
LINE
  8
0
  6
CONTINUOUS
 10
48.729530
 20
21.444740
 11
58.229530
 21
21.444740
  0
LINE
  8
0
  6
CONTINUOUS
 10
4.729531
 20
91.693741
 11
48.729530
 21
91.693741
  0
LINE
  8
0
  6
CONTINUOUS
 10
4.729531
 20
11.693740
 11
48.729530
 21
11.693740
  0
LINE
  8
0
  6
CONTINUOUS
 10
-0.270469
 20
16.693741
 11
-0.270469
 21
86.693741
  0
ARC
  8
0
  6
CONTINUOUS
 10
4.729531
 20
86.693741
 40
5.000000
 50
90.000000
 51
180.000000
  0
ARC
  8
0
  6
CONTINUOUS
 10
4.729531
 20
16.693741
 40
5.000000
 50
180.000000
 51
270.000000
  0
LINE
  8
0
  6
CONTINUOUS
 10
2.229531
 20
77.693741
 11
48.729530
 21
77.693741
  0
LINE
  8
0
  6
CONTINUOUS
 10
2.229531
 20
27.693741
 11
48.729530
 21
27.693741
  0
LINE
  8
0
  6
CONTINUOUS
 10
58.229530
 20
13.693760
 11
58.229530
 21
89.693741
  0
LINE
  8
0
  6
CENTER
 10
243.979446
 20
262.893738
 11
243.979446
 21
242.265625
  0
LINE
  8
0
  6
DASHED
 10
249.479446
 20
258.368774
 11
249.479446
 21
246.368759
  0
LINE
  8
0
  6
DASHED
 10
238.479446
 20
258.368774
 11
238.479446
 21
246.368759
  0
LINE
  8
0
  6
DASHED
 10
328.479614
 20
258.368774
 11
328.479614
 21
246.368759
  0
LINE
  8
0
  6
CENTER
 10
333.979614
 20
262.893738
 11
333.979614
 21
242.265625
  0
LINE
  8
0
  6
DASHED
 10
339.479614
 20
258.368774
 11
339.479614
 21
246.368759
  0
LINE
  8
0
  6
CONTINUOUS
 10
172.229538
 20
42.293758
 11
216.229538
 21
42.293758
  0
LINE
  8
0
  6
CONTINUOUS
 10
172.229538
 20
32.093761
 11
216.229538
 21
32.093761
  0
LINE
  8
0
  6
CONTINUOUS
 10
50.729530
 20
91.193764
 11
109.229530
 21
91.193764
  0
LINE
  8
0
  6
CONTINUOUS
 10
50.729530
 20
91.193764
 11
50.729530
 21
89.693764
  0
LINE
  8
0
  6
CONTINUOUS
 10
96.729530
 20
91.193764
 11
96.729530
 21
89.693764
  0
LINE
  8
0
  6
CONTINUOUS
 10
49.229530
 20
140.193756
 11
49.229530
 21
93.193764
  0
LINE
  8
0
  6
CONTINUOUS
 10
111.229530
 20
140.193787
 11
111.229530
 21
93.193764
  0
LINE
  8
0
  6
CONTINUOUS
 10
111.229530
 20
93.193764
 11
109.229530
 21
91.193764
  0
LINE
  8
0
  6
CONTINUOUS
 10
49.229530
 20
93.193764
 11
51.229530
 21
91.193764
  0
LINE
  8
0
  6
CONTINUOUS
 10
49.229530
 20
93.193764
 11
111.229530
 21
93.193764
  0
LINE
  8
0
  6
CONTINUOUS
 10
49.229530
 20
103.193779
 11
111.229530
 21
103.193779
  0
LINE
  8
0
  6
CONTINUOUS
 10
49.229530
 20
104.193779
 11
111.229530
 21
104.193779
  0
LINE
  8
0
  6
CONTINUOUS
 10
50.229530
 20
141.193756
 11
110.229530
 21
141.193787
  0
LINE
  8
0
  6
CONTINUOUS
 10
110.229530
 20
141.193787
 11
111.229530
 21
140.193787
  0
LINE
  8
0
  6
CONTINUOUS
 10
49.229530
 20
140.193756
 11
50.229530
 21
141.193756
  0
LINE
  8
0
  6
CONTINUOUS
 10
49.229530
 20
140.193756
 11
111.229530
 21
140.193787
  0
LINE
  8
0
  6
CENTER
 10
46.604530
 20
124.193779
 11
52.354530
 21
124.193779
  0
LINE
  8
0
  6
CONTINUOUS
 10
48.104530
 20
134.693787
 11
51.229530
 21
134.693787
  0
LINE
  8
0
  6
CONTINUOUS
 10
48.104530
 20
113.693779
 11
51.229530
 21
113.693779
  0
LINE
  8
0
  6
CENTER
 10
80.229530
 20
144.622757
 11
80.229530
 21
86.599739
  0
LINE
  8
0
  6
CONTINUOUS
 10
49.229523
 20
275.368774
 11
49.229523
 21
333.368774
  0
LINE
  8
0
  6
CONTINUOUS
 10
111.229523
 20
333.368774
 11
111.229523
 21
275.368774
  0
LINE
  8
0
  6
CONTINUOUS
 10
51.229523
 20
273.368774
 11
109.229523
 21
273.368774
  0
LINE
  8
0
  6
CONTINUOUS
 10
51.229523
 20
335.368774
 11
109.229523
 21
335.368774
  0
LINE
  8
0
  6
CONTINUOUS
 10
109.229523
 20
273.368774
 11
111.229523
 21
275.368774
  0
LINE
  8
0
  6
CONTINUOUS
 10
111.229523
 20
333.368774
 11
109.229523
 21
335.368774
  0
LINE
  8
0
  6
CONTINUOUS
 10
49.229523
 20
333.368774
 11
51.229523
 21
335.368774
  0
LINE
  8
0
  6
CONTINUOUS
 10
49.229523
 20
275.368774
 11
51.229523
 21
273.368774
  0
LINE
  8
0
  6
CONTINUOUS
 10
103.229523
 20
278.368774
 11
103.229523
 21
273.368774
  0
LINE
  8
0
  6
CONTINUOUS
 10
106.229523
 20
281.368774
 11
111.229523
 21
281.368774
  0
CIRCLE
  8
0
  6
CONTINUOUS
 10
107.229523
 20
277.368774
 40
2.250000
  0
ARC
  8
0
  6
CONTINUOUS
 10
106.229523
 20
278.368774
 40
3.000000
 50
90.000000
 51
180.000000
  0
LINE
  8
0
  6
CONTINUOUS
 10
110.229523
 20
282.368774
 11
110.229523
 21
326.368774
  0
LINE
  8
0
  6
CONTINUOUS
 10
106.229523
 20
282.368774
 11
110.229523
 21
282.368774
  0
ARC
  8
0
  6
CONTINUOUS
 10
106.229523
 20
278.368774
 40
4.000000
 50
90.000000
 51
180.000000
  0
LINE
  8
0
  6
CONTINUOUS
 10
102.229523
 20
274.368774
 11
102.229523
 21
278.368774
  0
LINE
  8
0
  6
CONTINUOUS
 10
110.229523
 20
282.368774
 11
111.229523
 21
281.368774
  0
LINE
  8
0
  6
CONTINUOUS
 10
58.229523
 20
274.368774
 11
102.229523
 21
274.368774
  0
LINE
  8
0
  6
CONTINUOUS
 10
102.229523
 20
274.368774
 11
103.229523
 21
273.368774
  0
LINE
  8
0
  6
CONTINUOUS
 10
54.229523
 20
281.368774
 11
49.229523
 21
281.368774
  0
LINE
  8
0
  6
CONTINUOUS
 10
57.229523
 20
278.368774
 11
57.229523
 21
273.368774
  0
CIRCLE
  8
0
  6
CONTINUOUS
 10
53.229523
 20
277.368774
 40
2.250000
  0
ARC
  8
0
  6
CONTINUOUS
 10
54.229523
 20
278.368774
 40
3.000000
 50
0.000000
 51
90.000000
  0
LINE
  8
0
  6
CONTINUOUS
 10
58.229523
 20
278.368774
 11
58.229523
 21
274.368774
  0
ARC
  8
0
  6
CONTINUOUS
 10
54.229523
 20
278.368774
 40
4.000000
 50
0.000000
 51
90.000000
  0
LINE
  8
0
  6
CONTINUOUS
 10
50.229523
 20
282.368774
 11
54.229523
 21
282.368774
  0
LINE
  8
0
  6
CONTINUOUS
 10
58.229523
 20
274.368774
 11
57.229523
 21
273.368774
  0
LINE
  8
0
  6
CONTINUOUS
 10
50.229523
 20
282.368774
 11
49.229523
 21
281.368774
  0
LINE
  8
0
  6
CONTINUOUS
 10
57.229523
 20
330.368774
 11
57.229523
 21
335.368774
  0
LINE
  8
0
  6
CONTINUOUS
 10
54.229523
 20
327.368774
 11
49.229523
 21
327.368774
  0
CIRCLE
  8
0
  6
CONTINUOUS
 10
53.229523
 20
331.368774
 40
2.250000
  0
ARC
  8
0
  6
CONTINUOUS
 10
54.229523
 20
330.368774
 40
3.000000
 50
-90.000000
 51
0.000000
  0
LINE
  8
0
  6
CONTINUOUS
 10
54.229523
 20
326.368774
 11
50.229523
 21
326.368774
  0
ARC
  8
0
  6
CONTINUOUS
 10
54.229523
 20
330.368774
 40
4.000000
 50
-90.000000
 51
0.000000
  0
LINE
  8
0
  6
CONTINUOUS
 10
58.229523
 20
334.368774
 11
58.229523
 21
330.368774
  0
LINE
  8
0
  6
CONTINUOUS
 10
50.229523
 20
326.368774
 11
49.229523
 21
327.368774
  0
LINE
  8
0
  6
CONTINUOUS
 10
58.229523
 20
334.368774
 11
57.229523
 21
335.368774
  0
LINE
  8
0
  6
CONTINUOUS
 10
106.229523
 20
327.368774
 11
111.229523
 21
327.368774
  0
LINE
  8
0
  6
CONTINUOUS
 10
103.229523
 20
330.368774
 11
103.229523
 21
335.368774
  0
CIRCLE
  8
0
  6
CONTINUOUS
 10
107.229523
 20
331.368774
 40
2.250000
  0
ARC
  8
0
  6
CONTINUOUS
 10
106.229523
 20
330.368774
 40
3.000000
 50
180.000000
 51
270.000000
  0
LINE
  8
0
  6
CONTINUOUS
 10
102.229523
 20
330.368774
 11
102.229523
 21
334.368774
  0
ARC
  8
0
  6
CONTINUOUS
 10
106.229523
 20
330.368774
 40
4.000000
 50
180.000000
 51
270.000000
  0
LINE
  8
0
  6
CONTINUOUS
 10
110.229523
 20
326.368774
 11
106.229523
 21
326.368774
  0
LINE
  8
0
  6
CONTINUOUS
 10
102.229523
 20
334.368774
 11
103.229523
 21
335.368774
  0
LINE
  8
0
  6
CONTINUOUS
 10
110.229523
 20
326.368774
 11
111.229523
 21
327.368774
  0
LINE
  8
0
  6
CONTINUOUS
 10
58.229523
 20
334.368774
 11
102.229523
 21
334.368774
  0
LINE
  8
0
  6
CONTINUOUS
 10
50.229523
 20
282.368774
 11
50.229523
 21
326.368774
  0
LINE
  8
0
  6
CENTER
 10
80.229523
 20
268.122498
 11
80.229523
 21
340.815338
  0
LINE
  8
0
  6
CONTINUOUS
 10
542.973389
 20
140.193741
 11
542.973389
 21
137.711258
  0
LINE
  8
0
  6
CONTINUOUS
 10
480.973358
 20
140.193741
 11
480.973358
 21
138.793182
  0
LINE
  8
0
  6
CONTINUOUS
 10
481.973358
 20
141.193741
 11
541.973389
 21
141.193741
  0
LINE
  8
0
  6
CONTINUOUS
 10
541.973389
 20
141.193741
 11
542.973389
 21
140.193741
  0
LINE
  8
0
  6
CONTINUOUS
 10
481.973358
 20
141.193741
 11
480.973358
 21
140.193741
  0
LINE
  8
0
  6
CONTINUOUS
 10
480.973358
 20
140.193741
 11
542.973389
 21
140.193741
  0
TEXT
  8
0
 10
-10.000000
 20
-14.000000
 40
4.000000
 41
1.000000
  1
HFMN-22R-300~1800-S15WC
 50
0.000000
  0
ENDSEC
  0
EOF
