  0
SECTION
  2
HEADER
  9
$CLAYER
  8
1
  9
$LTSCALE
 40
3.0
  0
ENDSEC
  0
SECTION
  2
TABLES
  0
TABLE
  2
LTYPE
 70
     4
  0
LTYPE
  2
CONTINUOUS
  3
solid line
 70
    64
 72
    65
 73
     0
 40
0.0
  0
LTYPE
  2
DASHED
  3
__ __ __ __ __ __ __ __ __ __ __ __ __ __ __
 70
    64
 72
    65
 73
     2
 40
0.75
 49
0.5
 49
-0.25
  0
LTYPE
  2
CENTER
  3
____ _ ____ _ ____ _ ____ _ ____ _ ____ _ ____
 70
    64
 72
    65
 73
     4
 40
2.0
 49
1.25
 49
-0.25
 49
0.25
 49
-0.25
  0
LTYPE
  2
PHANTOM
  3
_____ _ _ _____ _ _ _____ _ _ _____ _ _ ____
 70
    64
 72
    65
 73
     6
 40
2.5
 49
1.25
 49
-0.25
 49
0.25
 49
-0.25
 49
0.25
 49
-0.25
  0
ENDTAB
  0
TABLE
  2
LAYER
 70
     1
  0
LAYER
  2
0
 70
    64
 62
     7
  6
CONTINUOUS
  0
ENDTAB
  0
TABLE
  2
STYLE
 70
     1
  0
STYLE
  2
STANDARD
 70
     0
 40
0.000000
 41
1.000000
 50
0.000000
 71
     0
 42
3.000000
  3
txt
  4
BIGFONT
  0
ENDTAB
  0
ENDSEC
  0
SECTION
  2
BLOCKS
  0
ENDSEC
  0
SECTION
  2
ENTITIES
  0
LINE
  8
0
  6
CENTER
 10
355.100128
 20
303.478760
 11
-4.920000
 21
303.478760
  0
LINE
  8
0
  6
CONTINUOUS
 10
231.114532
 20
246.228760
 11
228.614532
 21
246.228760
  0
LINE
  8
0
  6
CONTINUOUS
 10
233.131927
 20
360.728760
 11
228.614532
 21
360.728760
  0
LINE
  8
0
  6
CONTINUOUS
 10
235.864532
 20
246.228760
 11
228.614532
 21
246.228760
  0
LINE
  8
0
  6
CONTINUOUS
 10
237.318756
 20
271.478760
 11
228.614532
 21
271.478760
  0
LINE
  8
0
  6
CONTINUOUS
 10
235.881134
 20
255.978760
 11
228.614532
 21
255.978760
  0
LINE
  8
0
  6
CONTINUOUS
 10
233.974930
 20
350.978760
 11
228.614532
 21
350.978760
  0
LINE
  8
0
  6
CONTINUOUS
 10
228.614532
 20
335.478760
 11
345.403320
 21
335.478760
  0
LINE
  8
0
  6
CONTINUOUS
 10
234.131729
 20
359.746246
 11
234.469604
 21
340.391479
  0
ARC
  8
0
  6
CONTINUOUS
 10
233.131836
 20
359.728760
 40
1.000000
 50
1.000700
 51
90.000000
  0
ARC
  8
0
  6
CONTINUOUS
 10
239.468933
 20
340.478760
 40
5.000000
 50
-178.999802
 51
-90.000000
  0
LINE
  8
0
  6
CONTINUOUS
 10
228.614532
 20
360.978760
 11
228.614532
 21
245.978760
  0
LINE
  8
0
  6
CONTINUOUS
 10
350.364532
 20
245.478760
 11
236.364532
 21
245.478760
  0
LINE
  8
0
  6
CONTINUOUS
 10
273.364532
 20
335.478760
 11
273.364532
 21
258.281067
  0
LINE
  8
0
  6
CONTINUOUS
 10
313.364532
 20
335.478760
 11
313.364532
 21
258.281067
  0
LINE
  8
0
  6
CONTINUOUS
 10
346.902832
 20
334.018066
 11
348.886536
 21
258.281067
  0
ARC
  8
0
  6
CONTINUOUS
 10
345.403229
 20
333.978760
 40
1.500000
 50
1.500200
 51
90.000000
  0
LINE
  8
0
  6
CONTINUOUS
 10
237.364532
 20
257.478760
 11
349.076019
 21
257.478760
  0
LINE
  8
0
  6
CONTINUOUS
 10
236.364532
 20
256.478760
 11
236.364532
 21
245.478760
  0
LINE
  8
0
  6
CONTINUOUS
 10
350.364532
 20
245.478760
 11
350.075745
 21
256.504974
  0
ARC
  8
0
  6
CONTINUOUS
 10
349.076019
 20
256.478760
 40
1.000000
 50
1.500100
 51
90.000000
  0
ARC
  8
0
  6
CONTINUOUS
 10
349.885925
 20
258.307251
 40
1.000000
 50
-178.499603
 51
-113.891197
  0
ARC
  8
0
  6
CONTINUOUS
 10
235.864532
 20
245.728760
 40
0.500000
 50
0.000000
 51
90.000000
  0
LINE
  8
0
  6
CENTER
 10
189.946243
 20
61.803761
 11
260.558319
 21
61.803761
  0
LINE
  8
0
  6
CENTER
 10
293.364532
 20
157.385025
 11
293.364532
 21
-10.352500
  0
LINE
  8
0
  6
CENTER
 10
237.772507
 20
92.303757
 11
358.433411
 21
92.303757
  0
LINE
  8
0
  6
CONTINUOUS
 10
243.364456
 20
96.664459
 11
243.364456
 21
51.943073
  0
LINE
  8
0
  6
CONTINUOUS
 10
343.364624
 20
96.664421
 11
343.364624
 21
51.943073
  0
ARC
  8
0
  6
CONTINUOUS
 10
293.364532
 20
74.303772
 40
60.000000
 50
48.189621
 51
131.810394
  0
ARC
  8
0
  6
CONTINUOUS
 10
293.364532
 20
74.303772
 40
60.000000
 50
228.189697
 51
311.810303
  0
ARC
  8
0
  6
CONTINUOUS
 10
313.364624
 20
96.664421
 40
30.000000
 50
0.000000
 51
48.189629
  0
CIRCLE
  8
0
  6
CONTINUOUS
 10
293.364532
 20
92.303757
 40
27.500000
  0
ARC
  8
0
  6
CONTINUOUS
 10
293.364532
 20
92.303757
 40
31.750000
 50
7.552697
 51
172.447403
  0
ARC
  8
0
  6
CONTINUOUS
 10
276.614532
 20
50.803764
 40
20.600000
 50
172.447403
 51
270.000000
  0
ARC
  8
0
  6
CONTINUOUS
 10
310.114532
 20
50.803764
 40
20.600000
 50
-90.000000
 51
7.552700
  0
LINE
  8
0
  6
CONTINUOUS
 10
324.839203
 20
96.476921
 11
330.535797
 21
53.511391
  0
LINE
  8
0
  6
CONTINUOUS
 10
256.193146
 20
53.511353
 11
261.889954
 21
96.476860
  0
LINE
  8
0
  6
CONTINUOUS
 10
276.614532
 20
30.203760
 11
310.114532
 21
30.203760
  0
ARC
  8
0
  6
CONTINUOUS
 10
276.614532
 20
50.803764
 40
19.000000
 50
172.447601
 51
270.000000
  0
ARC
  8
0
  6
CONTINUOUS
 10
310.114532
 20
50.803764
 40
19.000000
 50
-90.000000
 51
7.552700
  0
ARC
  8
0
  6
CONTINUOUS
 10
293.364532
 20
92.303757
 40
30.150000
 50
-187.552597
 51
7.552697
  0
LINE
  8
0
  6
CONTINUOUS
 10
257.779327
 20
53.301056
 11
263.476135
 21
96.266579
  0
LINE
  8
0
  6
CONTINUOUS
 10
323.253021
 20
96.266602
 11
328.949799
 21
53.301090
  0
LINE
  8
0
  6
CONTINUOUS
 10
276.614532
 20
31.803761
 11
310.114532
 21
31.803761
  0
LINE
  8
0
  6
CONTINUOUS
 10
283.068146
 20
39.303761
 11
278.907745
 21
39.303761
  0
LINE
  8
0
  6
CONTINUOUS
 10
285.364532
 20
46.272514
 11
285.364532
 21
39.303761
  0
LINE
  8
0
  6
CONTINUOUS
 10
289.364532
 20
48.803764
 11
289.364532
 21
51.303764
  0
LINE
  8
0
  6
CONTINUOUS
 10
297.364532
 20
48.803764
 11
297.364532
 21
51.303764
  0
LINE
  8
0
  6
CONTINUOUS
 10
292.583344
 20
49.835014
 11
292.583344
 21
40.616261
  0
LINE
  8
0
  6
CONTINUOUS
 10
294.083344
 20
49.835014
 11
294.083344
 21
40.616261
  0
LINE
  8
0
  6
CONTINUOUS
 10
301.958344
 20
49.835014
 11
301.958344
 21
40.553761
  0
LINE
  8
0
  6
CONTINUOUS
 10
303.333344
 20
44.913139
 11
303.333344
 21
40.553761
  0
LINE
  8
0
  6
CONTINUOUS
 10
283.466553
 20
49.710014
 11
279.611542
 21
49.710014
  0
LINE
  8
0
  6
CONTINUOUS
 10
279.611542
 20
49.710014
 11
278.708344
 21
48.590019
  0
LINE
  8
0
  6
CONTINUOUS
 10
278.816956
 20
51.303764
 11
277.364532
 21
49.444008
  0
LINE
  8
0
  6
CONTINUOUS
 10
278.708344
 20
41.676701
 11
279.625946
 21
40.709999
  0
LINE
  8
0
  6
CONTINUOUS
 10
277.364532
 20
40.860939
 11
278.907745
 21
39.303761
  0
LINE
  8
0
  6
CONTINUOUS
 10
277.364532
 20
49.444008
 11
277.364532
 21
40.860939
  0
LINE
  8
0
  6
CONTINUOUS
 10
278.708344
 20
48.590019
 11
278.708344
 21
41.676701
  0
LINE
  8
0
  6
CONTINUOUS
 10
284.208344
 20
48.992912
 11
283.451355
 21
49.710014
  0
LINE
  8
0
  6
CONTINUOUS
 10
284.196320
 20
51.303764
 11
285.364532
 21
50.007271
  0
LINE
  8
0
  6
CONTINUOUS
 10
284.208344
 20
48.803764
 11
285.364532
 21
48.803764
  0
LINE
  8
0
  6
CONTINUOUS
 10
278.816956
 20
51.303764
 11
284.196320
 21
51.303764
  0
LINE
  8
0
  6
CONTINUOUS
 10
282.114532
 20
46.272514
 11
285.364532
 21
46.272514
  0
LINE
  8
0
  6
CONTINUOUS
 10
284.208344
 20
44.960014
 11
282.114532
 21
44.960014
  0
LINE
  8
0
  6
CONTINUOUS
 10
281.708344
 20
40.709999
 11
279.625946
 21
40.709999
  0
LINE
  8
0
  6
CONTINUOUS
 10
284.208344
 20
43.710014
 11
284.208344
 21
44.710014
  0
ARC
  8
0
  6
CONTINUOUS
 10
281.708344
 20
43.210007
 40
2.500000
 50
-89.999786
 51
0.000109
  0
LINE
  8
0
  6
CONTINUOUS
 10
284.208344
 20
40.260319
 11
284.208344
 21
39.303761
  0
LINE
  8
0
  6
CONTINUOUS
 10
285.364532
 20
50.007271
 11
285.364532
 21
48.803764
  0
LINE
  8
0
  6
CONTINUOUS
 10
284.208344
 20
44.960014
 11
284.208344
 21
43.210014
  0
LINE
  8
0
  6
CONTINUOUS
 10
282.114532
 20
46.272514
 11
282.114532
 21
44.960014
  0
LINE
  8
0
  6
CONTINUOUS
 10
284.208344
 20
39.303761
 11
285.364532
 21
39.303761
  0
LINE
  8
0
  6
CONTINUOUS
 10
284.208344
 20
40.260319
 11
283.068146
 21
39.303761
  0
LINE
  8
0
  6
CONTINUOUS
 10
294.083344
 20
40.616261
 11
294.583344
 21
40.616261
  0
LINE
  8
0
  6
CONTINUOUS
 10
291.989532
 20
40.616261
 11
291.989532
 21
39.303761
  0
LINE
  8
0
  6
CONTINUOUS
 10
294.583344
 20
40.616261
 11
294.583344
 21
39.303761
  0
LINE
  8
0
  6
CONTINUOUS
 10
296.530121
 20
48.803764
 11
297.364532
 21
48.803764
  0
LINE
  8
0
  6
CONTINUOUS
 10
289.364532
 20
48.803764
 11
290.252533
 21
48.803764
  0
LINE
  8
0
  6
CONTINUOUS
 10
289.364532
 20
51.303764
 11
297.364532
 21
51.303764
  0
LINE
  8
0
  6
CONTINUOUS
 10
291.989532
 20
39.303761
 11
294.583344
 21
39.303761
  0
LINE
  8
0
  6
CONTINUOUS
 10
291.989532
 20
40.616261
 11
292.583344
 21
40.616261
  0
ARC
  8
0
  6
CONTINUOUS
 10
306.161316
 20
48.100639
 40
3.203126
 50
-73.981873
 51
90.003510
  0
ARC
  8
0
  6
CONTINUOUS
 10
306.161316
 20
48.100639
 40
1.954124
 50
-82.585274
 51
62.411850
  0
LINE
  8
0
  6
CONTINUOUS
 10
301.364532
 20
51.303764
 11
306.161316
 21
51.303764
  0
LINE
  8
0
  6
CONTINUOUS
 10
306.413544
 20
46.162849
 11
303.333344
 21
46.162849
  0
LINE
  8
0
  6
CONTINUOUS
 10
301.364532
 20
51.303764
 11
301.364532
 21
49.835014
  0
LINE
  8
0
  6
CONTINUOUS
 10
303.333344
 20
49.835014
 11
303.333344
 21
46.162849
  0
LINE
  8
0
  6
CONTINUOUS
 10
307.045319
 20
45.021873
 11
309.027740
 21
40.553761
  0
LINE
  8
0
  6
CONTINUOUS
 10
305.893738
 20
44.913139
 11
307.769928
 21
40.553761
  0
LINE
  8
0
  6
CONTINUOUS
 10
301.364532
 20
40.553761
 11
301.958344
 21
40.553761
  0
LINE
  8
0
  6
CONTINUOUS
 10
303.333344
 20
40.553761
 11
303.880127
 21
40.553761
  0
LINE
  8
0
  6
CONTINUOUS
 10
303.880127
 20
39.303761
 11
301.364532
 21
39.303761
  0
LINE
  8
0
  6
CONTINUOUS
 10
307.520721
 20
40.553761
 11
307.769928
 21
40.553761
  0
LINE
  8
0
  6
CONTINUOUS
 10
307.520721
 20
39.303761
 11
309.364532
 21
39.303761
  0
LINE
  8
0
  6
CONTINUOUS
 10
307.520721
 20
40.553761
 11
307.520721
 21
39.303761
  0
LINE
  8
0
  6
CONTINUOUS
 10
303.880127
 20
40.553761
 11
303.880127
 21
39.303761
  0
LINE
  8
0
  6
CONTINUOUS
 10
301.364532
 20
40.553761
 11
301.364532
 21
39.303761
  0
LINE
  8
0
  6
CONTINUOUS
 10
290.682343
 20
49.835014
 11
290.252533
 21
48.803764
  0
LINE
  8
0
  6
CONTINUOUS
 10
296.167755
 20
49.835014
 11
296.530121
 21
48.803764
  0
LINE
  8
0
  6
CONTINUOUS
 10
294.083344
 20
49.835014
 11
296.167755
 21
49.835014
  0
LINE
  8
0
  6
CONTINUOUS
 10
292.583344
 20
49.835014
 11
290.682343
 21
49.835014
  0
LINE
  8
0
  6
CONTINUOUS
 10
303.333344
 20
44.913139
 11
305.893738
 21
44.913139
  0
LINE
  8
0
  6
CONTINUOUS
 10
301.364532
 20
49.835014
 11
301.958344
 21
49.835014
  0
LINE
  8
0
  6
CONTINUOUS
 10
303.333344
 20
49.835014
 11
307.066345
 21
49.832588
  0
LINE
  8
0
  6
CONTINUOUS
 10
284.208344
 20
48.992912
 11
284.208344
 21
48.803764
  0
ARC
  8
0
  6
CONTINUOUS
 10
273.364532
 20
96.664459
 40
30.000000
 50
131.810394
 51
180.000000
  0
ARC
  8
0
  6
CONTINUOUS
 10
273.364532
 20
51.943073
 40
30.000000
 50
180.000000
 51
228.189697
  0
LINE
  8
0
  6
CONTINUOUS
 10
228.614548
 20
119.053741
 11
236.364456
 21
119.053741
  0
LINE
  8
0
  6
CONTINUOUS
 10
234.178909
 20
4.553740
 11
228.614548
 21
4.553740
  0
LINE
  8
0
  6
CONTINUOUS
 10
235.161331
 20
109.303741
 11
228.614548
 21
109.303741
  0
LINE
  8
0
  6
CONTINUOUS
 10
228.614548
 20
14.303740
 11
236.364456
 21
14.303740
  0
LINE
  8
0
  6
CONTINUOUS
 10
235.161331
 20
93.763779
 11
228.614548
 21
93.763779
  0
LINE
  8
0
  6
CONTINUOUS
 10
235.161331
 20
29.843781
 11
228.614548
 21
29.843781
  0
LINE
  8
0
  6
CENTER
 10
239.717575
 20
134.303757
 11
257.014526
 21
134.303757
  0
LINE
  8
0
  6
CENTER
 10
329.802216
 20
134.303757
 11
347.929993
 21
134.303757
  0
LINE
  8
0
  6
CENTER
 10
238.571487
 20
14.303740
 11
257.183136
 21
14.303740
  0
LINE
  8
0
  6
CENTER
 10
329.239624
 20
14.303740
 11
349.237823
 21
14.303740
  0
LINE
  8
0
  6
CENTER
 10
338.364624
 20
143.463165
 11
338.364624
 21
125.322502
  0
LINE
  8
0
  6
CENTER
 10
248.364456
 20
143.210037
 11
248.364456
 21
125.744362
  0
LINE
  8
0
  6
CENTER
 10
248.364456
 20
23.481859
 11
248.364456
 21
3.937812
  0
LINE
  8
0
  6
CENTER
 10
338.364624
 20
23.650640
 11
338.364624
 21
3.589063
  0
CIRCLE
  8
0
  6
CONTINUOUS
 10
338.364624
 20
134.303757
 40
5.500000
  0
CIRCLE
  8
0
  6
CONTINUOUS
 10
248.364456
 20
134.303757
 40
5.500000
  0
CIRCLE
  8
0
  6
CONTINUOUS
 10
248.364456
 20
14.303740
 40
5.500000
  0
CIRCLE
  8
0
  6
CONTINUOUS
 10
338.364624
 20
14.303740
 40
5.500000
  0
ARC
  8
0
  6
CONTINUOUS
 10
338.364624
 20
134.303757
 40
12.000000
 50
0.000000
 51
90.000000
  0
ARC
  8
0
  6
CONTINUOUS
 10
248.364456
 20
134.303757
 40
12.000000
 50
90.000000
 51
180.000000
  0
ARC
  8
0
  6
CONTINUOUS
 10
248.364456
 20
14.303740
 40
12.000000
 50
180.000000
 51
270.000000
  0
ARC
  8
0
  6
CONTINUOUS
 10
338.364624
 20
14.303740
 40
12.000000
 50
-90.000000
 51
0.000000
  0
LINE
  8
0
  6
CONTINUOUS
 10
338.364624
 20
146.303757
 11
248.364456
 21
146.303757
  0
LINE
  8
0
  6
CONTINUOUS
 10
248.364532
 20
2.303740
 11
338.364624
 21
2.303740
  0
LINE
  8
0
  6
CONTINUOUS
 10
350.364624
 20
134.303757
 11
350.364624
 21
14.303740
  0
LINE
  8
0
  6
CONTINUOUS
 10
236.364456
 20
134.303726
 11
236.364456
 21
14.303720
  0
LINE
  8
0
  6
CONTINUOUS
 10
321.364624
 20
7.303740
 11
265.364532
 21
7.303740
  0
LINE
  8
0
  6
CONTINUOUS
 10
265.364532
 20
141.303757
 11
321.364624
 21
141.303757
  0
LINE
  8
0
  6
CONTINUOUS
 10
345.364624
 20
117.303741
 11
345.364624
 21
31.303761
  0
LINE
  8
0
  6
CONTINUOUS
 10
241.364456
 20
117.303741
 11
241.364456
 21
31.303761
  0
ARC
  8
0
  6
CONTINUOUS
 10
338.364624
 20
134.303757
 40
11.000000
 50
180.000000
 51
270.000000
  0
ARC
  8
0
  6
CONTINUOUS
 10
248.364456
 20
134.303757
 40
11.000000
 50
-90.000000
 51
0.000000
  0
ARC
  8
0
  6
CONTINUOUS
 10
248.364456
 20
14.303740
 40
11.000000
 50
0.000000
 51
90.000000
  0
ARC
  8
0
  6
CONTINUOUS
 10
338.364624
 20
14.303740
 40
11.000000
 50
90.000000
 51
180.000000
  0
LINE
  8
0
  6
CONTINUOUS
 10
247.364456
 20
25.303740
 11
248.364456
 21
25.303740
  0
LINE
  8
0
  6
CONTINUOUS
 10
259.364532
 20
13.303740
 11
259.364532
 21
14.303740
  0
ARC
  8
0
  6
CONTINUOUS
 10
247.364456
 20
31.303761
 40
6.000000
 50
180.000000
 51
270.000000
  0
ARC
  8
0
  6
CONTINUOUS
 10
265.364532
 20
13.303740
 40
6.000000
 50
180.000000
 51
270.000000
  0
LINE
  8
0
  6
CONTINUOUS
 10
339.364624
 20
25.303740
 11
338.364624
 21
25.303740
  0
LINE
  8
0
  6
CONTINUOUS
 10
327.364624
 20
13.303740
 11
327.364624
 21
14.303720
  0
ARC
  8
0
  6
CONTINUOUS
 10
339.364624
 20
31.303761
 40
6.000000
 50
-90.000000
 51
0.000000
  0
ARC
  8
0
  6
CONTINUOUS
 10
321.364624
 20
13.303740
 40
6.000000
 50
-90.000000
 51
0.000000
  0
LINE
  8
0
  6
CONTINUOUS
 10
339.364624
 20
123.303741
 11
338.364624
 21
123.303741
  0
LINE
  8
0
  6
CONTINUOUS
 10
327.364624
 20
135.303757
 11
327.364624
 21
134.303726
  0
ARC
  8
0
  6
CONTINUOUS
 10
321.364624
 20
135.303757
 40
6.000000
 50
0.000000
 51
90.000000
  0
ARC
  8
0
  6
CONTINUOUS
 10
339.364624
 20
117.303741
 40
6.000000
 50
0.000000
 51
90.000000
  0
LINE
  8
0
  6
CONTINUOUS
 10
247.364456
 20
123.303741
 11
248.364456
 21
123.303741
  0
LINE
  8
0
  6
CONTINUOUS
 10
259.364532
 20
135.303757
 11
259.364532
 21
134.303757
  0
ARC
  8
0
  6
CONTINUOUS
 10
265.364532
 20
135.303818
 40
6.000000
 50
90.000000
 51
180.000000
  0
ARC
  8
0
  6
CONTINUOUS
 10
247.364487
 20
117.303802
 40
6.000000
 50
90.000000
 51
180.000000
  0
LINE
  8
0
  6
CONTINUOUS
 10
235.176666
 20
5.487240
 11
235.727112
 21
13.743660
  0
ARC
  8
0
  6
CONTINUOUS
 10
236.325806
 20
13.703760
 40
0.600000
 50
90.000000
 51
176.186096
  0
ARC
  8
0
  6
CONTINUOUS
 10
234.178909
 20
5.553740
 40
1.000000
 50
270.000000
 51
356.185791
  0
ARC
  8
0
  6
CONTINUOUS
 10
313.364624
 20
51.943085
 40
30.000000
 50
-48.189449
 51
0.000000
  0
LINE
  8
0
  6
CONTINUOUS
 10
300.864532
 20
89.303757
 11
300.864532
 21
95.303741
  0
LINE
  8
0
  6
CONTINUOUS
 10
306.864532
 20
89.303719
 11
306.864532
 21
95.303719
  0
LINE
  8
0
  6
CONTINUOUS
 10
306.864532
 20
89.303719
 11
300.864532
 21
89.303757
  0
LINE
  8
0
  6
CONTINUOUS
 10
306.864532
 20
95.303719
 11
300.864532
 21
95.303741
  0
ARC
  8
0
  6
CONTINUOUS
 10
293.364532
 20
92.303757
 40
11.000000
 50
-344.173401
 51
-15.826600
  0
LINE
  8
0
  6
CONTINUOUS
 10
228.614548
 20
119.303757
 11
228.614548
 21
4.303760
  0
LINE
  8
0
  6
CENTER
 10
516.358337
 20
-15.242460
 11
516.358337
 21
155.501724
  0
LINE
  8
0
  6
CENTER
 10
444.391754
 20
61.803761
 11
582.618164
 21
61.803761
  0
LINE
  8
0
  6
CENTER
 10
413.358551
 20
92.303757
 11
574.032349
 21
92.303757
  0
LINE
  8
0
  6
CONTINUOUS
 10
458.358551
 20
81.303757
 11
458.358551
 21
2.303740
  0
LINE
  8
0
  6
CONTINUOUS
 10
470.358551
 20
122.553741
 11
470.358551
 21
144.303757
  0
LINE
  8
0
  6
CONTINUOUS
 10
468.440369
 20
146.303757
 11
458.358551
 21
146.303757
  0
LINE
  8
0
  6
CONTINUOUS
 10
468.440369
 20
2.303780
 11
458.358551
 21
2.303780
  0
LINE
  8
0
  6
CONTINUOUS
 10
548.358337
 20
12.786440
 11
548.358337
 21
135.821075
  0
LINE
  8
0
  6
CONTINUOUS
 10
547.376160
 20
136.820938
 11
472.323761
 21
138.130646
  0
LINE
  8
0
  6
CONTINUOUS
 10
547.376160
 20
11.786620
 11
472.323761
 21
10.476300
  0
LINE
  8
0
  6
CONTINUOUS
 10
474.915161
 20
114.303741
 11
547.291138
 21
114.303741
  0
LINE
  8
0
  6
CONTINUOUS
 10
472.267548
 20
34.303761
 11
546.968140
 21
34.303761
  0
LINE
  8
0
  6
CONTINUOUS
 10
470.855164
 20
4.156740
 11
471.964355
 21
8.296580
  0
LINE
  8
0
  6
CONTINUOUS
 10
470.855164
 20
144.450836
 11
471.964569
 21
140.310318
  0
ARC
  8
0
  6
CONTINUOUS
 10
474.862366
 20
141.086838
 40
3.000000
 50
195.000702
 51
269.000488
  0
ARC
  8
0
  6
CONTINUOUS
 10
468.358551
 20
144.303757
 40
2.000000
 50
0.000000
 51
90.000000
  0
ARC
  8
0
  6
CONTINUOUS
 10
472.358551
 20
140.130356
 40
2.000000
 50
180.000000
 51
269.000610
  0
ARC
  8
0
  6
CONTINUOUS
 10
474.862152
 20
7.520140
 40
3.000000
 50
91.000526
 51
165.000305
  0
ARC
  8
0
  6
CONTINUOUS
 10
472.358551
 20
8.476620
 40
2.000000
 50
91.000633
 51
180.000000
  0
ARC
  8
0
  6
CONTINUOUS
 10
468.358551
 20
4.303780
 40
2.000000
 50
-90.000000
 51
0.000000
  0
ARC
  8
0
  6
CONTINUOUS
 10
547.358337
 20
135.821075
 40
1.000000
 50
0.000000
 51
89.000359
  0
ARC
  8
0
  6
CONTINUOUS
 10
547.358337
 20
12.786440
 40
1.000000
 50
-88.999573
 51
0.000000
  0
LINE
  8
0
  6
CENTER
 10
452.864746
 20
134.303757
 11
475.501373
 21
134.303757
  0
LINE
  8
0
  6
CENTER
 10
452.864746
 20
14.303740
 11
475.501373
 21
14.303740
  0
LINE
  8
0
  6
DASHED
 10
458.358551
 20
139.803757
 11
470.358551
 21
139.803757
  0
LINE
  8
0
  6
DASHED
 10
458.358551
 20
128.803757
 11
470.358551
 21
128.803757
  0
LINE
  8
0
  6
DASHED
 10
458.358551
 20
19.803740
 11
470.358551
 21
19.803740
  0
LINE
  8
0
  6
DASHED
 10
458.358551
 20
8.803740
 11
470.358551
 21
8.803740
  0
LINE
  8
0
  6
CONTINUOUS
 10
564.358337
 20
67.110909
 11
564.358337
 21
117.496597
  0
LINE
  8
0
  6
CONTINUOUS
 10
554.358337
 20
34.108601
 11
554.358337
 21
94.373741
  0
LINE
  8
0
  6
CONTINUOUS
 10
562.128784
 20
120.396042
 11
550.588562
 21
123.461441
  0
LINE
  8
0
  6
CONTINUOUS
 10
562.128784
 20
64.211464
 11
556.588135
 21
62.739803
  0
LINE
  8
0
  6
CONTINUOUS
 10
552.131531
 20
31.209921
 11
550.585571
 21
30.797621
  0
ARC
  8
0
  6
CONTINUOUS
 10
561.358337
 20
117.496597
 40
3.000000
 50
0.000000
 51
75.124413
  0
ARC
  8
0
  6
CONTINUOUS
 10
561.358337
 20
67.110909
 40
3.000000
 50
-75.124207
 51
0.000000
  0
ARC
  8
0
  6
CONTINUOUS
 10
551.358337
 20
34.108601
 40
3.000000
 50
-75.068420
 51
0.000000
  0
ARC
  8
0
  6
CONTINUOUS
 10
551.358337
 20
126.360924
 40
3.000000
 50
180.000000
 51
255.124603
  0
ARC
  8
0
  6
CONTINUOUS
 10
557.358337
 20
59.840366
 40
3.000000
 50
104.876099
 51
180.000000
  0
ARC
  8
0
  6
CONTINUOUS
 10
551.358337
 20
27.898920
 40
3.000000
 50
104.931801
 51
180.000000
  0
LINE
  8
0
  6
CONTINUOUS
 10
563.858337
 20
19.303740
 11
563.858337
 21
28.355101
  0
LINE
  8
0
  6
CONTINUOUS
 10
558.858337
 20
14.303740
 11
549.807373
 21
14.303740
  0
ARC
  8
0
  6
CONTINUOUS
 10
516.358337
 20
61.803761
 40
57.250000
 50
-32.501888
 51
33.025517
  0
ARC
  8
0
  6
CONTINUOUS
 10
516.358337
 20
61.803761
 40
57.250000
 50
243.004898
 51
298.995514
  0
ARC
  8
0
  6
CONTINUOUS
 10
558.858337
 20
19.303740
 40
5.000000
 50
-90.000000
 51
0.000000
  0
ARC
  8
0
  6
CONTINUOUS
 10
568.858337
 20
28.355101
 40
5.000000
 50
147.498093
 51
180.000000
  0
ARC
  8
0
  6
CONTINUOUS
 10
549.807373
 20
9.303740
 40
5.000000
 50
90.000000
 51
106.842003
  0
LINE
  8
0
  6
CONTINUOUS
 10
468.358551
 20
67.110909
 11
468.358551
 21
117.496597
  0
LINE
  8
0
  6
CONTINUOUS
 10
470.588562
 20
64.211449
 11
473.389771
 21
63.467365
  0
LINE
  8
0
  6
CONTINUOUS
 10
470.588562
 20
120.396042
 11
472.412170
 21
120.880478
  0
ARC
  8
0
  6
CONTINUOUS
 10
471.358765
 20
117.496597
 40
3.000000
 50
104.876099
 51
180.000000
  0
ARC
  8
0
  6
CONTINUOUS
 10
471.358551
 20
67.110931
 40
3.000000
 50
180.000000
 51
255.124603
  0
LINE
  8
0
  6
CONTINUOUS
 10
475.858551
 20
112.053741
 11
477.358551
 21
105.803741
  0
LINE
  8
0
  6
CONTINUOUS
 10
477.358551
 20
105.803741
 11
476.358551
 21
100.303741
  0
LINE
  8
0
  6
CONTINUOUS
 10
476.358551
 20
100.303741
 11
478.608551
 21
94.553741
  0
LINE
  8
0
  6
CONTINUOUS
 10
478.608551
 20
94.553741
 11
476.858551
 21
88.803757
  0
LINE
  8
0
  6
CONTINUOUS
 10
476.858551
 20
88.803757
 11
474.858551
 21
83.803757
  0
LINE
  8
0
  6
CONTINUOUS
 10
474.858551
 20
83.803757
 11
475.358551
 21
75.053757
  0
LINE
  8
0
  6
CONTINUOUS
 10
475.358551
 20
75.053757
 11
474.108551
 21
70.553757
  0
LINE
  8
0
  6
CONTINUOUS
 10
474.108551
 20
70.553757
 11
474.108551
 21
65.803757
  0
LINE
  8
0
  6
CONTINUOUS
 10
474.108551
 20
65.803757
 11
472.108551
 21
59.303761
  0
LINE
  8
0
  6
CONTINUOUS
 10
472.108551
 20
59.303761
 11
472.358551
 21
55.303761
  0
LINE
  8
0
  6
CONTINUOUS
 10
472.358551
 20
55.303761
 11
471.358551
 21
50.928761
  0
LINE
  8
0
  6
CONTINUOUS
 10
471.358551
 20
50.928761
 11
467.858551
 21
48.303761
  0
LINE
  8
0
  6
CONTINUOUS
 10
467.858551
 20
48.303761
 11
465.233551
 21
45.053761
  0
LINE
  8
0
  6
CONTINUOUS
 10
465.233551
 20
45.053761
 11
462.358551
 21
43.303761
  0
LINE
  8
0
  6
CONTINUOUS
 10
462.358551
 20
43.303761
 11
459.983551
 21
41.178761
  0
LINE
  8
0
  6
CONTINUOUS
 10
459.983551
 20
41.178761
 11
458.358551
 21
40.807339
  0
LINE
  8
0
  6
CONTINUOUS
 10
468.233551
 20
124.178741
 11
464.733551
 21
125.053741
  0
LINE
  8
0
  6
CONTINUOUS
 10
464.733551
 20
125.053741
 11
461.358551
 21
125.678741
  0
LINE
  8
0
  6
CONTINUOUS
 10
461.358551
 20
125.678741
 11
458.358551
 21
126.678757
  0
LINE
  8
0
  6
CONTINUOUS
 10
458.358551
 20
146.303757
 11
458.358551
 21
103.303741
  0
LINE
  8
0
  6
CONTINUOUS
 10
470.358551
 20
4.303780
 11
470.358551
 21
50.178761
  0
LINE
  8
0
  6
CONTINUOUS
 10
468.233551
 20
124.178741
 11
470.358551
 21
122.553741
  0
LINE
  8
0
  6
CONTINUOUS
 10
470.358551
 20
122.553741
 11
473.733551
 21
119.803741
  0
LINE
  8
0
  6
CONTINUOUS
 10
473.733551
 20
119.803741
 11
474.233551
 21
115.928741
  0
LINE
  8
0
  6
CONTINUOUS
 10
474.233551
 20
115.928741
 11
475.858551
 21
112.053741
  0
LINE
  8
0
  6
CONTINUOUS
 10
465.358551
 20
81.303757
 11
465.358551
 21
45.208523
  0
LINE
  8
0
  6
CONTINUOUS
 10
465.358551
 20
124.897522
 11
465.358551
 21
103.303741
  0
LINE
  8
0
  6
CONTINUOUS
 10
426.358765
 20
81.303764
 11
426.358765
 21
103.303741
  0
LINE
  8
0
  6
CONTINUOUS
 10
466.358765
 20
103.303741
 11
426.358765
 21
103.303741
  0
LINE
  8
0
  6
CONTINUOUS
 10
466.358765
 20
81.303764
 11
426.358765
 21
81.303764
  0
LINE
  8
0
  6
CONTINUOUS
 10
466.358765
 20
104.803741
 11
466.358765
 21
79.803764
  0
LINE
  8
0
  6
CONTINUOUS
 10
468.358765
 20
104.803741
 11
466.358765
 21
104.803741
  0
LINE
  8
0
  6
CONTINUOUS
 10
468.358765
 20
79.803764
 11
466.358765
 21
79.803764
  0
ARC
  8
0
  6
CONTINUOUS
 10
458.358765
 20
92.303757
 40
3.000000
 50
-90.000000
 51
90.000000
  0
LINE
  8
0
  6
CONTINUOUS
 10
458.358765
 20
95.303741
 11
426.358765
 21
95.303741
  0
LINE
  8
0
  6
CONTINUOUS
 10
458.358765
 20
89.303757
 11
426.358765
 21
89.303757
  0
ARC
  8
0
  6
CONTINUOUS
 10
468.440369
 20
143.803757
 40
2.500000
 50
15.000760
 51
90.000000
  0
ARC
  8
0
  6
CONTINUOUS
 10
468.440369
 20
4.803780
 40
2.500000
 50
270.000000
 51
345.000214
  0
ARC
  8
0
  6
CONTINUOUS
 10
516.358337
 20
61.803761
 40
57.499821
 50
303.815704
 51
303.996307
  0
ARC
  8
0
  6
CONTINUOUS
 10
516.358337
 20
61.803761
 40
57.500000
 50
242.540298
 51
299.460602
  0
ARC
  8
0
  6
CONTINUOUS
 10
516.358337
 20
61.803761
 40
57.500000
 50
-33.996769
 51
33.406792
  0
ARC
  8
0
  6
CONTINUOUS
 10
516.358337
 20
61.803761
 40
57.500000
 50
303.815613
 51
303.997314
  0
LINE
  8
0
  6
CONTINUOUS
 10
239.826233
 20
334.018036
 11
239.623520
 21
326.278748
  0
ARC
  8
0
  6
CONTINUOUS
 10
241.325714
 20
333.978760
 40
1.500000
 50
90.000000
 51
178.499649
  0
ARC
  8
0
  6
CONTINUOUS
 10
237.364532
 20
256.478760
 40
1.000000
 50
90.000000
 51
180.000000
  0
ARC
  8
0
  6
CONTINUOUS
 10
236.845566
 20
258.410248
 40
1.000000
 50
285.039185
 51
358.499664
  0
LINE
  8
0
  6
CENTER
 10
293.364532
 20
362.454071
 11
293.364532
 21
203.254807
  0
LINE
  8
0
  6
CONTINUOUS
 10
268.171692
 20
351.478760
 11
318.557373
 21
351.478760
  0
LINE
  8
0
  6
CONTINUOUS
 10
323.520782
 20
341.478760
 11
326.807617
 21
341.478760
  0
ARC
  8
0
  6
CONTINUOUS
 10
318.557373
 20
348.478760
 40
3.000000
 50
-345.124329
 51
-270.000000
  0
LINE
  8
0
  6
CONTINUOUS
 10
329.707092
 20
339.248932
 11
330.116241
 21
337.708588
  0
ARC
  8
0
  6
CONTINUOUS
 10
326.807617
 20
338.478760
 40
3.000000
 50
-345.124329
 51
-270.000000
  0
ARC
  8
0
  6
CONTINUOUS
 10
333.015686
 20
338.478760
 40
3.000000
 50
-165.124313
 51
-90.000000
  0
LINE
  8
0
  6
CONTINUOUS
 10
323.520782
 20
341.478760
 11
321.456818
 21
349.248932
  0
LINE
  8
0
  6
CONTINUOUS
 10
257.021973
 20
339.248932
 11
256.612823
 21
337.708588
  0
ARC
  8
0
  6
CONTINUOUS
 10
259.921448
 20
338.478760
 40
3.000000
 50
90.000000
 51
165.124313
  0
ARC
  8
0
  6
CONTINUOUS
 10
253.713379
 20
338.478760
 40
3.000000
 50
-90.000000
 51
-14.875682
  0
LINE
  8
0
  6
CONTINUOUS
 10
263.208282
 20
341.478760
 11
259.921448
 21
341.478760
  0
ARC
  8
0
  6
CONTINUOUS
 10
268.171692
 20
348.478760
 40
3.000000
 50
90.000000
 51
165.124313
  0
LINE
  8
0
  6
CONTINUOUS
 10
263.208282
 20
341.478760
 11
265.272217
 21
349.248932
  0
LINE
  8
0
  6
CONTINUOUS
 10
282.364532
 20
213.478760
 11
306.864532
 21
213.478760
  0
LINE
  8
0
  6
CONTINUOUS
 10
282.364532
 20
245.478760
 11
282.364532
 21
213.478760
  0
LINE
  8
0
  6
CONTINUOUS
 10
306.864532
 20
245.478760
 11
306.864532
 21
213.478760
  0
LINE
  8
0
  6
CONTINUOUS
 10
303.947540
 20
213.478760
 11
303.947540
 21
245.478760
  0
ARC
  8
0
  6
CONTINUOUS
 10
178.180115
 20
305.072449
 40
65.000000
 50
-22.042076
 51
19.041388
  0
LINE
  8
0
  6
CONTINUOUS
 10
238.429169
 20
280.678772
 11
237.845230
 21
258.384064
  0
LINE
  8
0
  6
CONTINUOUS
 10
62.614532
 20
88.803741
 11
176.614532
 21
88.803741
  0
LINE
  8
0
  6
CONTINUOUS
 10
62.614532
 20
12.803780
 11
176.614532
 21
12.803780
  0
LINE
  8
0
  6
CONTINUOUS
 10
62.614532
 20
81.052742
 11
168.614532
 21
81.052742
  0
LINE
  8
0
  6
CONTINUOUS
 10
62.614532
 20
20.554779
 11
168.614532
 21
20.554779
  0
LINE
  8
0
  6
CONTINUOUS
 10
168.614532
 20
86.803741
 11
168.614532
 21
14.803760
  0
ARC
  8
0
  6
CONTINUOUS
 10
170.614532
 20
86.803757
 40
2.000000
 50
90.000000
 51
180.000000
  0
ARC
  8
0
  6
CONTINUOUS
 10
170.614532
 20
14.803780
 40
2.000000
 50
180.000000
 51
270.000000
  0
LINE
  8
0
  6
CONTINUOUS
 10
218.201782
 20
90.256020
 11
176.614532
 21
88.803757
  0
LINE
  8
0
  6
CONTINUOUS
 10
228.614532
 20
10.987880
 11
176.614532
 21
12.803760
  0
LINE
  8
0
  6
CONTINUOUS
 10
220.614532
 20
118.303757
 11
220.614532
 21
91.303757
  0
LINE
  8
0
  6
CONTINUOUS
 10
221.614532
 20
119.303757
 11
228.614548
 21
119.303757
  0
LINE
  8
0
  6
CONTINUOUS
 10
223.114532
 20
4.303760
 11
228.614532
 21
4.303760
  0
LINE
  8
0
  6
CONTINUOUS
 10
220.614532
 20
91.803757
 11
220.614532
 21
20.891104
  0
LINE
  8
0
  6
CONTINUOUS
 10
176.614532
 20
88.803757
 11
176.614532
 21
12.803760
  0
LINE
  8
0
  6
CONTINUOUS
 10
219.201401
 20
102.121567
 11
193.257980
 21
89.597153
  0
ARC
  8
0
  6
CONTINUOUS
 10
221.614532
 20
118.303757
 40
1.000000
 50
90.000000
 51
180.000000
  0
ARC
  8
0
  6
CONTINUOUS
 10
218.114532
 20
104.372940
 40
2.500000
 50
-64.230675
 51
0.000000
  0
ARC
  8
0
  6
CONTINUOUS
 10
218.114532
 20
92.754494
 40
2.500000
 50
-88.000000
 51
0.000000
  0
ARC
  8
0
  6
CONTINUOUS
 10
192.171097
 20
91.848534
 40
2.500000
 50
272.000000
 51
295.769318
  0
LINE
  8
0
  6
CONTINUOUS
 10
221.739609
 20
18.649759
 11
228.614532
 21
18.649759
  0
LINE
  8
0
  6
CONTINUOUS
 10
220.614532
 20
6.803760
 11
220.614532
 21
8.853024
  0
ARC
  8
0
  6
CONTINUOUS
 10
223.114532
 20
6.803760
 40
2.500000
 50
180.000000
 51
270.000000
  0
ARC
  8
0
  6
CONTINUOUS
 10
218.114532
 20
8.853024
 40
2.500000
 50
0.000000
 51
88.000000
  0
LINE
  8
0
  6
CENTER
 10
-6.385000
 20
50.803761
 11
261.364532
 21
50.803761
  0
LINE
  8
0
  6
CONTINUOUS
 10
223.114532
 20
245.978760
 11
228.614532
 21
245.978760
  0
LINE
  8
0
  6
CONTINUOUS
 10
223.114532
 20
360.978760
 11
228.614532
 21
360.978760
  0
LINE
  8
0
  6
CONTINUOUS
 10
220.614532
 20
248.478760
 11
220.614532
 21
358.478760
  0
LINE
  8
0
  6
CONTINUOUS
 10
176.614532
 20
341.478760
 11
176.614532
 21
265.478760
  0
LINE
  8
0
  6
CONTINUOUS
 10
218.201782
 20
342.931030
 11
176.614532
 21
341.478760
  0
LINE
  8
0
  6
CONTINUOUS
 10
218.201782
 20
264.026489
 11
176.614532
 21
265.478760
  0
ARC
  8
0
  6
CONTINUOUS
 10
223.114532
 20
358.478760
 40
2.500000
 50
90.000000
 51
180.000000
  0
ARC
  8
0
  6
CONTINUOUS
 10
223.114532
 20
248.478760
 40
2.500000
 50
180.000000
 51
270.000000
  0
LINE
  8
0
  6
CONTINUOUS
 10
176.614532
 20
341.478760
 11
176.614532
 21
265.478760
  0
LINE
  8
0
  6
CONTINUOUS
 10
62.614655
 20
341.478729
 11
176.614655
 21
341.478729
  0
LINE
  8
0
  6
CONTINUOUS
 10
62.614655
 20
265.478790
 11
176.614655
 21
265.478790
  0
LINE
  8
0
  6
CONTINUOUS
 10
168.614655
 20
339.478729
 11
168.614655
 21
326.478760
  0
ARC
  8
0
  6
CONTINUOUS
 10
170.614655
 20
339.478760
 40
2.000000
 50
90.000000
 51
180.000000
  0
ARC
  8
0
  6
CONTINUOUS
 10
170.614655
 20
267.478790
 40
2.000000
 50
180.000000
 51
270.000000
  0
LINE
  8
0
  6
CONTINUOUS
 10
62.614655
 20
326.478760
 11
168.614655
 21
326.478760
  0
LINE
  8
0
  6
CONTINUOUS
 10
62.614655
 20
280.478760
 11
168.614655
 21
280.478760
  0
LINE
  8
0
  6
CONTINUOUS
 10
168.614655
 20
280.478760
 11
168.614655
 21
267.478760
  0
ARC
  8
0
  6
CONTINUOUS
 10
207.784164
 20
303.478760
 40
15.000000
 50
130.747620
 51
229.252380
  0
LINE
  8
0
  6
CONTINUOUS
 10
219.746353
 20
333.584747
 11
197.993240
 21
314.842651
  0
LINE
  8
0
  6
CONTINUOUS
 10
219.746353
 20
273.372772
 11
197.993240
 21
292.114868
  0
ARC
  8
0
  6
CONTINUOUS
 10
218.114532
 20
335.478729
 40
2.500000
 50
-49.252373
 51
0.000000
  0
ARC
  8
0
  6
CONTINUOUS
 10
218.114532
 20
345.429504
 40
2.500000
 50
-88.000000
 51
0.000000
  0
ARC
  8
0
  6
CONTINUOUS
 10
218.114532
 20
271.478790
 40
2.500000
 50
0.000000
 51
49.252373
  0
ARC
  8
0
  6
CONTINUOUS
 10
218.114532
 20
261.528015
 40
2.500000
 50
0.000000
 51
88.000000
  0
LINE
  8
0
  6
CONTINUOUS
 10
62.614655
 20
341.478729
 11
62.614655
 21
310.344757
  0
LINE
  8
0
  6
CONTINUOUS
 10
62.614655
 20
341.478729
 11
53.114655
 21
341.478729
  0
LINE
  8
0
  6
CONTINUOUS
 10
62.614655
 20
265.478729
 11
53.114655
 21
265.478729
  0
LINE
  8
0
  6
CONTINUOUS
 10
62.614655
 20
280.478729
 11
53.114655
 21
280.478729
  0
LINE
  8
0
  6
CONTINUOUS
 10
62.614655
 20
326.478729
 11
53.114655
 21
326.478729
  0
LINE
  8
0
  6
CONTINUOUS
 10
56.114655
 20
297.478729
 11
56.114655
 21
309.478729
  0
LINE
  8
0
  6
CONTINUOUS
 10
63.114655
 20
297.478729
 11
63.114655
 21
309.478729
  0
LINE
  8
0
  6
CONTINUOUS
 10
57.114655
 20
310.478729
 11
62.114655
 21
310.478729
  0
LINE
  8
0
  6
CONTINUOUS
 10
62.114655
 20
296.478729
 11
57.114655
 21
296.478729
  0
ARC
  8
0
  6
CONTINUOUS
 10
62.114655
 20
309.478729
 40
1.000000
 50
0.000000
 51
90.000000
  0
ARC
  8
0
  6
CONTINUOUS
 10
57.114655
 20
309.478729
 40
1.000000
 50
90.000000
 51
180.000000
  0
ARC
  8
0
  6
CONTINUOUS
 10
57.114655
 20
297.478729
 40
1.000000
 50
180.000000
 51
270.000000
  0
ARC
  8
0
  6
CONTINUOUS
 10
62.114655
 20
297.478729
 40
1.000000
 50
-90.000000
 51
0.000000
  0
LINE
  8
0
  6
CONTINUOUS
 10
60.614655
 20
299.978729
 11
60.614655
 21
306.978729
  0
LINE
  8
0
  6
CONTINUOUS
 10
58.614655
 20
299.978729
 11
58.614655
 21
306.978729
  0
ARC
  8
0
  6
CONTINUOUS
 10
59.614655
 20
306.978729
 40
1.000000
 50
90.000000
 51
180.000000
  0
ARC
  8
0
  6
CONTINUOUS
 10
59.614655
 20
306.978729
 40
1.000000
 50
0.000000
 51
90.000000
  0
ARC
  8
0
  6
CONTINUOUS
 10
59.614655
 20
299.978729
 40
1.000000
 50
180.000000
 51
270.000000
  0
ARC
  8
0
  6
CONTINUOUS
 10
59.614655
 20
299.978729
 40
1.000000
 50
-90.000000
 51
0.000000
  0
LINE
  8
0
  6
CONTINUOUS
 10
62.614655
 20
296.612701
 11
62.614655
 21
265.478729
  0
LINE
  8
0
  6
CONTINUOUS
 10
53.114655
 20
263.478729
 11
53.114655
 21
343.478729
  0
LINE
  8
0
  6
CONTINUOUS
 10
9.114653
 20
343.478729
 11
53.114655
 21
343.478729
  0
LINE
  8
0
  6
CONTINUOUS
 10
9.114653
 20
263.478729
 11
53.114655
 21
263.478729
  0
LINE
  8
0
  6
CONTINUOUS
 10
4.114653
 20
268.478729
 11
4.114653
 21
338.478729
  0
ARC
  8
0
  6
CONTINUOUS
 10
9.114653
 20
338.478729
 40
5.000000
 50
90.000000
 51
180.000000
  0
ARC
  8
0
  6
CONTINUOUS
 10
9.114653
 20
268.478729
 40
5.000000
 50
180.000000
 51
270.000000
  0
LINE
  8
0
  6
CONTINUOUS
 10
6.614653
 20
327.478729
 11
53.114655
 21
327.478729
  0
LINE
  8
0
  6
CONTINUOUS
 10
6.614653
 20
277.478729
 11
53.114655
 21
277.478729
  0
LINE
  8
0
  6
CONTINUOUS
 10
53.114532
 20
88.803741
 11
62.614532
 21
88.803741
  0
LINE
  8
0
  6
CONTINUOUS
 10
53.114532
 20
12.803740
 11
62.614532
 21
12.803740
  0
LINE
  8
0
  6
CONTINUOUS
 10
53.114532
 20
10.803740
 11
53.114532
 21
90.803741
  0
LINE
  8
0
  6
CONTINUOUS
 10
63.114532
 20
90.303741
 11
63.114532
 21
88.803741
  0
LINE
  8
0
  6
CONTINUOUS
 10
56.114532
 20
90.303741
 11
56.114532
 21
88.803741
  0
LINE
  8
0
  6
CONTINUOUS
 10
56.114532
 20
90.303741
 11
63.114532
 21
90.303741
  0
LINE
  8
0
  6
CONTINUOUS
 10
60.514523
 20
103.303741
 11
60.514523
 21
90.303741
  0
LINE
  8
0
  6
CONTINUOUS
 10
58.714542
 20
103.928741
 11
58.714542
 21
90.303741
  0
LINE
  8
0
  6
CONTINUOUS
 10
56.914532
 20
101.866241
 11
56.914532
 21
90.303741
  0
LINE
  8
0
  6
CONTINUOUS
 10
62.314529
 20
102.678741
 11
62.314529
 21
90.303741
  0
LINE
  8
0
  6
CONTINUOUS
 10
58.714542
 20
103.928741
 11
60.514523
 21
103.303741
  0
LINE
  8
0
  6
CONTINUOUS
 10
56.914532
 20
101.866241
 11
58.714542
 21
102.491241
  0
LINE
  8
0
  6
CONTINUOUS
 10
62.314529
 20
102.678741
 11
60.515530
 21
102.231041
  0
LINE
  8
0
  6
CONTINUOUS
 10
53.114532
 20
81.052742
 11
62.614532
 21
81.052742
  0
LINE
  8
0
  6
CONTINUOUS
 10
53.114532
 20
20.554741
 11
62.614532
 21
20.554741
  0
LINE
  8
0
  6
CONTINUOUS
 10
9.114531
 20
90.803741
 11
53.114532
 21
90.803741
  0
LINE
  8
0
  6
CONTINUOUS
 10
9.114531
 20
10.803740
 11
53.114532
 21
10.803740
  0
LINE
  8
0
  6
CONTINUOUS
 10
4.114531
 20
15.803740
 11
4.114531
 21
85.803741
  0
ARC
  8
0
  6
CONTINUOUS
 10
9.114531
 20
85.803741
 40
5.000000
 50
90.000000
 51
180.000000
  0
ARC
  8
0
  6
CONTINUOUS
 10
9.114531
 20
15.803740
 40
5.000000
 50
180.000000
 51
270.000000
  0
LINE
  8
0
  6
CONTINUOUS
 10
6.614531
 20
76.803741
 11
53.114532
 21
76.803741
  0
LINE
  8
0
  6
CONTINUOUS
 10
6.614531
 20
26.803740
 11
53.114532
 21
26.803740
  0
LINE
  8
0
  6
CONTINUOUS
 10
62.614532
 20
12.803760
 11
62.614532
 21
88.803741
  0
LINE
  8
0
  6
CENTER
 10
248.364456
 20
262.003754
 11
248.364456
 21
241.375626
  0
LINE
  8
0
  6
DASHED
 10
253.864456
 20
257.478760
 11
253.864456
 21
245.478760
  0
LINE
  8
0
  6
DASHED
 10
242.864456
 20
257.478760
 11
242.864456
 21
245.478760
  0
LINE
  8
0
  6
DASHED
 10
332.864624
 20
257.478760
 11
332.864624
 21
245.478760
  0
LINE
  8
0
  6
CENTER
 10
338.364624
 20
262.003754
 11
338.364624
 21
241.375626
  0
LINE
  8
0
  6
DASHED
 10
343.864624
 20
257.478760
 11
343.864624
 21
245.478760
  0
ARC
  8
0
  6
CONTINUOUS
 10
53.114532
 20
75.172836
 40
4.500000
 50
0.000000
 51
90.000000
  0
ARC
  8
0
  6
CONTINUOUS
 10
53.114532
 20
75.172836
 40
3.000000
 50
0.000000
 51
90.000000
  0
ARC
  8
0
  6
CONTINUOUS
 10
53.114532
 20
75.172836
 40
1.500000
 50
0.000000
 51
90.000000
  0
LINE
  8
0
  6
CONTINUOUS
 10
54.614532
 20
75.172836
 11
54.614532
 21
70.157242
  0
LINE
  8
0
  6
CONTINUOUS
 10
56.114532
 20
75.172836
 11
56.114532
 21
70.672836
  0
LINE
  8
0
  6
CONTINUOUS
 10
57.614532
 20
75.172836
 11
57.614532
 21
70.672836
  0
LINE
  8
0
  6
CONTINUOUS
 10
54.614532
 20
70.172836
 11
56.114532
 21
70.672836
  0
LINE
  8
0
  6
CONTINUOUS
 10
56.114532
 20
71.172836
 11
57.614532
 21
70.672836
  0
ARC
  8
0
  6
CONTINUOUS
 10
53.114655
 20
271.208893
 40
4.500000
 50
0.000000
 51
90.000000
  0
ARC
  8
0
  6
CONTINUOUS
 10
53.114655
 20
271.208893
 40
3.000000
 50
0.000000
 51
90.000000
  0
ARC
  8
0
  6
CONTINUOUS
 10
53.114655
 20
271.208893
 40
1.500000
 50
0.000000
 51
90.000000
  0
LINE
  8
0
  6
CONTINUOUS
 10
54.614655
 20
271.208893
 11
54.614655
 21
266.193298
  0
LINE
  8
0
  6
CONTINUOUS
 10
56.114655
 20
271.208893
 11
56.114655
 21
266.708893
  0
LINE
  8
0
  6
CONTINUOUS
 10
57.614655
 20
271.208893
 11
57.614655
 21
266.708893
  0
LINE
  8
0
  6
CONTINUOUS
 10
54.614655
 20
266.208893
 11
56.114655
 21
266.708893
  0
LINE
  8
0
  6
CONTINUOUS
 10
56.114655
 20
267.208893
 11
57.614655
 21
266.708893
  0
LINE
  8
0
  6
CONTINUOUS
 10
176.614532
 20
41.403759
 11
220.614532
 21
41.403759
  0
LINE
  8
0
  6
CONTINUOUS
 10
176.614532
 20
31.203760
 11
220.614532
 21
31.203760
  0
TEXT
  8
0
 10
-6.000000
 20
-15.000000
 40
4.000000
 41
1.000000
  1
HFMN-22R-300~1800-T15
 50
0.000000
  0
ENDSEC
  0
EOF
