  0
SECTION
  2
HEADER
  9
$ACADVER
  1
AC1014
  9
$ACADMAINTVER
 70
     9
  9
$DWGCODEPAGE
  3
ANSI_932
  9
$INSBASE
 10
0.0
 20
0.0
 30
0.0
  9
$EXTMIN
 10
87.27321970785169
 20
54.96670366867326
 30
0.0
  9
$EXTMAX
 10
745.5270971998197
 20
463.0786078426173
 30
0.0
  9
$LIMMIN
 10
0.0
 20
0.0
  9
$LIMMAX
 10
297.0
 20
210.0
  9
$ORTHOMODE
 70
     1
  9
$REGENMODE
 70
     1
  9
$FILLMODE
 70
     1
  9
$QTEXTMODE
 70
     0
  9
$MIRRTEXT
 70
     0
  9
$DRAGMODE
 70
     2
  9
$LTSCALE
 40
3.0
  9
$OSMODE
 70
    37
  9
$ATTMODE
 70
     1
  9
$TEXTSIZE
 40
2.0
  9
$TRACEWID
 40
1.0
  9
$TEXTSTYLE
  7
STANDARD
  9
$CLAYER
  8
0
  9
$CELTYPE
  6
BYLAYER
  9
$CECOLOR
 62
   256
  9
$CELTSCALE
 40
1.0
  9
$DELOBJ
 70
     1
  9
$DISPSILH
 70
     0
  9
$DIMSCALE
 40
3.0
  9
$DIMASZ
 40
1.8
  9
$DIMEXO
 40
0.625
  9
$DIMDLI
 40
3.75
  9
$DIMRND
 40
0.0
  9
$DIMDLE
 40
0.0
  9
$DIMEXE
 40
0.8
  9
$DIMTP
 40
0.0
  9
$DIMTM
 40
0.0
  9
$DIMTXT
 40
1.8
  9
$DIMCEN
 40
2.5
  9
$DIMTSZ
 40
0.0
  9
$DIMTOL
 70
     0
  9
$DIMLIM
 70
     0
  9
$DIMTIH
 70
     0
  9
$DIMTOH
 70
     0
  9
$DIMSE1
 70
     0
  9
$DIMSE2
 70
     0
  9
$DIMTAD
 70
     1
  9
$DIMZIN
 70
     8
  9
$DIMBLK
  1

  9
$DIMASO
 70
     1
  9
$DIMSHO
 70
     1
  9
$DIMPOST
  1

  9
$DIMAPOST
  1

  9
$DIMALT
 70
     0
  9
$DIMALTD
 70
     4
  9
$DIMALTF
 40
0.0394
  9
$DIMLFAC
 40
1.0
  9
$DIMTOFL
 70
     1
  9
$DIMTVP
 40
0.0
  9
$DIMTIX
 70
     0
  9
$DIMSOXD
 70
     0
  9
$DIMSAH
 70
     0
  9
$DIMBLK1
  1

  9
$DIMBLK2
  1

  9
$DIMSTYLE
  2
STANDARD
  9
$DIMCLRD
 70
     0
  9
$DIMCLRE
 70
     0
  9
$DIMCLRT
 70
     0
  9
$DIMTFAC
 40
1.0
  9
$DIMGAP
 40
0.75
  9
$DIMJUST
 70
     0
  9
$DIMSD1
 70
     0
  9
$DIMSD2
 70
     0
  9
$DIMTOLJ
 70
     1
  9
$DIMTZIN
 70
     0
  9
$DIMALTZ
 70
     0
  9
$DIMALTTZ
 70
     0
  9
$DIMFIT
 70
     3
  9
$DIMUPT
 70
     0
  9
$DIMUNIT
 70
     8
  9
$DIMDEC
 70
     2
  9
$DIMTDEC
 70
     2
  9
$DIMALTU
 70
     8
  9
$DIMALTTD
 70
     4
  9
$DIMTXSTY
  7
STANDARD
  9
$DIMAUNIT
 70
     0
  9
$LUNITS
 70
     2
  9
$LUPREC
 70
     3
  9
$SKETCHINC
 40
1.0
  9
$FILLETRAD
 40
10.0
  9
$AUNITS
 70
     0
  9
$AUPREC
 70
     2
  9
$MENU
  1
.
  9
$ELEVATION
 40
0.0
  9
$PELEVATION
 40
0.0
  9
$THICKNESS
 40
0.0
  9
$LIMCHECK
 70
     0
  9
$BLIPMODE
 70
     0
  9
$CHAMFERA
 40
0.0
  9
$CHAMFERB
 40
0.0
  9
$CHAMFERC
 40
20.0
  9
$CHAMFERD
 40
0.0
  9
$SKPOLY
 70
     0
  9
$TDCREATE
 40
2453754.485265833
  9
$TDUPDATE
 40
2453832.469690208
  9
$TDINDWG
 40
0.1696549537
  9
$TDUSRTIMER
 40
0.1696549537
  9
$USRTIMER
 70
     1
  9
$ANGBASE
 50
0.0
  9
$ANGDIR
 70
     0
  9
$PDMODE
 70
     0
  9
$PDSIZE
 40
-10.0
  9
$PLINEWID
 40
0.0
  9
$COORDS
 70
     0
  9
$SPLFRAME
 70
     0
  9
$SPLINETYPE
 70
     6
  9
$SPLINESEGS
 70
     8
  9
$ATTDIA
 70
     0
  9
$ATTREQ
 70
     1
  9
$HANDLING
 70
-16383
  9
$HANDSEED
  5
1EC0
  9
$SURFTAB1
 70
     6
  9
$SURFTAB2
 70
     6
  9
$SURFTYPE
 70
     6
  9
$SURFU
 70
     6
  9
$SURFV
 70
     6
  9
$UCSNAME
  2

  9
$UCSORG
 10
0.0
 20
0.0
 30
0.0
  9
$UCSXDIR
 10
1.0
 20
0.0
 30
0.0
  9
$UCSYDIR
 10
0.0
 20
1.0
 30
0.0
  9
$PUCSNAME
  2

  9
$PUCSORG
 10
0.0
 20
0.0
 30
0.0
  9
$PUCSXDIR
 10
1.0
 20
0.0
 30
0.0
  9
$PUCSYDIR
 10
0.0
 20
1.0
 30
0.0
  9
$USERI1
 70
     0
  9
$USERI2
 70
     0
  9
$USERI3
 70
     0
  9
$USERI4
 70
     0
  9
$USERI5
 70
     0
  9
$USERR1
 40
0.0
  9
$USERR2
 40
0.0
  9
$USERR3
 40
0.0
  9
$USERR4
 40
0.0
  9
$USERR5
 40
0.0
  9
$WORLDVIEW
 70
     1
  9
$SHADEDGE
 70
     3
  9
$SHADEDIF
 70
    70
  9
$TILEMODE
 70
     1
  9
$MAXACTVP
 70
    48
  9
$PINSBASE
 10
0.0
 20
0.0
 30
0.0
  9
$PLIMCHECK
 70
     0
  9
$PEXTMIN
 10
3.0
 20
3.999999999999998
 30
0.0
  9
$PEXTMAX
 10
280.0
 20
194.0
 30
0.0
  9
$PLIMMIN
 10
-5.873748779296875
 20
-5.873749732971191
  9
$PLIMMAX
 10
291.05224609375
 20
204.0995779037475
  9
$UNITMODE
 70
     0
  9
$VISRETAIN
 70
     1
  9
$PLINEGEN
 70
     0
  9
$PSLTSCALE
 70
     0
  9
$TREEDEPTH
 70
  3020
  9
$PICKSTYLE
 70
     1
  9
$CMLSTYLE
  2
STANDARD
  9
$CMLJUST
 70
     0
  9
$CMLSCALE
 40
1.0
  9
$PROXYGRAPHICS
 70
     1
  9
$MEASUREMENT
 70
     0
  0
ENDSEC
  0
SECTION
  2
CLASSES
  0
CLASS
  1
DICTIONARYVAR
  2
AcDbDictionaryVar
  3
AutoCAD 2000
 90
        0
280
     0
281
     0
  0
CLASS
  1
ACDBDICTIONARYWDFLT
  2
AcDbDictionaryWithDefault
  3
AutoCAD 2000
 90
        0
280
     0
281
     0
  0
CLASS
  1
ACDBPLACEHOLDER
  2
AcDbPlaceHolder
  3
AutoCAD 2000
 90
        0
280
     0
281
     0
  0
CLASS
  1
LAYOUT
  2
AcDbLayout
  3
AutoCAD 2000
 90
        0
280
     0
281
     0
  0
CLASS
  1
LONG_TRANSACTION
  2
AcDbLongTransaction
  3
AutoCAD 2000
 90
        0
280
     0
281
     0
  0
CLASS
  1
LWPOLYLINE
  2
AcDbPolyline
  3
AutoCAD 2000
 90
        0
280
     0
281
     1
  0
CLASS
  1
HATCH
  2
AcDbHatch
  3
AutoCAD 2000
 90
        0
280
     0
281
     1
  0
CLASS
  1
XRECORD
  2
AcDbXrecord
  3
AutoCAD 2000
 90
        0
280
     0
281
     0
  0
ENDSEC
  0
SECTION
  2
TABLES
  0
TABLE
  2
VPORT
  5
6E
330
0
100
AcDbSymbolTable
 70
     2
  0
VPORT
  5
1E95
330
6E
100
AcDbSymbolTableRecord
100
AcDbViewportTableRecord
  2
*ACTIVE
 70
     0
 10
0.0
 20
0.0
 11
1.0
 21
1.0
 12
406.0911106628918
 22
242.294442512977
 13
0.0
 23
0.0
 14
10.0
 24
10.0
 15
10.0
 25
10.0
 16
0.0
 26
0.0
 36
1.0
 17
0.0
 27
0.0
 37
0.0
 40
445.0233697846439
 41
1.566970091027308
 42
50.0
 43
0.0
 44
0.0
 50
0.0
 51
0.0
 71
     0
 72
   100
 73
     1
 74
     3
 75
     0
 76
     0
 77
     0
 78
     0
  0
ENDTAB
  0
TABLE
  2
LTYPE
  5
69
330
0
100
AcDbSymbolTable
 70
     4
  0
LTYPE
  5
6A
330
69
100
AcDbSymbolTableRecord
100
AcDbLinetypeTableRecord
  2
BYBLOCK
 70
     0
  3

 72
    65
 73
     0
 40
0.0
  0
LTYPE
  5
6B
330
69
100
AcDbSymbolTableRecord
100
AcDbLinetypeTableRecord
  2
BYLAYER
 70
     0
  3

 72
    65
 73
     0
 40
0.0
  0
LTYPE
  5
8
330
69
100
AcDbSymbolTableRecord
100
AcDbLinetypeTableRecord
  2
CONTINUOUS
 70
     0
  3
Solid line
 72
    65
 73
     0
 40
0.0
  0
LTYPE
  5
27C
330
69
100
AcDbSymbolTableRecord
100
AcDbLinetypeTableRecord
  2
SEKKEI_A2_
 70
     0
  3
center(A2)  ____ _ ____ _ ____ _ ____ _ ____ _ 
 72
    65
 73
     4
 40
14.28749999999999
 49
9.525
 74
     0
 49
-1.587499999999999
 74
     0
 49
1.587499999999999
 74
     0
 49
-1.587499999999999
 74
     0
  0
LTYPE
  5
2B4
330
69
100
AcDbSymbolTableRecord
100
AcDbLinetypeTableRecord
  2
HIDDEN2
 70
     0
  3
Hidden (.5x) _ _ _ _ _ _ _ _ _ _ _ _ _ _ _ _ _
 72
    65
 73
     2
 40
4.762499999999999
 49
3.174999999999999
 74
     0
 49
-1.587499999999999
 74
     0
  0
LTYPE
  5
48F
330
69
100
AcDbSymbolTableRecord
100
AcDbLinetypeTableRecord
  2
SEKKEI_H
 70
     0
  3
Hidden-S _ _ _ _ _ _ _ _ _ _ _ _ _ _ _ _ _
 72
    65
 73
     2
 40
2.381249999999999
 49
1.587499999999999
 74
     0
 49
-0.79375
 74
     0
  0
ENDTAB
  0
TABLE
  2
LAYER
  5
66
330
0
100
AcDbSymbolTable
 70
     9
  0
LAYER
  5
5E
330
66
100
AcDbSymbolTableRecord
100
AcDbLayerTableRecord
  2
0
 70
     0
 62
     7
  6
CONTINUOUS
  0
LAYER
  5
3E
330
66
100
AcDbSymbolTableRecord
100
AcDbLayerTableRecord
  2
CENTER
 70
     0
 62
     3
  6
SEKKEI_A2_
  0
LAYER
  5
4
330
66
100
AcDbSymbolTableRecord
100
AcDbLayerTableRecord
  2
WAKU
 70
     0
 62
     5
  6
CONTINUOUS
  0
LAYER
  5
E4
330
66
100
AcDbSymbolTableRecord
100
AcDbLayerTableRecord
  2
TEXT
 70
     0
 62
     4
  6
CONTINUOUS
  0
LAYER
  5
135
330
66
100
AcDbSymbolTableRecord
100
AcDbLayerTableRecord
  2
DEFPOINTS
 70
     0
 62
     7
  6
CONTINUOUS
  0
LAYER
  5
2B5
330
66
100
AcDbSymbolTableRecord
100
AcDbLayerTableRecord
  2
HIDS
 70
     0
 62
     1
  6
HIDDEN2
  0
LAYER
  5
2BA
330
66
100
AcDbSymbolTableRecord
100
AcDbLayerTableRecord
  2
HOJO
 70
     0
 62
     4
  6
CONTINUOUS
  0
LAYER
  5
3FA
330
66
100
AcDbSymbolTableRecord
100
AcDbLayerTableRecord
  2
TITLE
 70
     0
 62
     4
  6
CONTINUOUS
  0
ENDTAB
  0
TABLE
  2
STYLE
  5
67
330
0
100
AcDbSymbolTable
 70
     1
  0
STYLE
  5
16
330
67
100
AcDbSymbolTableRecord
100
AcDbTextStyleTableRecord
  2
STANDARD
 70
     0
 40
0.0
 41
1.0
 50
0.0
 71
     0
 42
2.0
  3
simplex.shx
  4
extfont.shx
  0
ENDTAB
  0
TABLE
  2
VIEW
  5
6C
330
0
100
AcDbSymbolTable
 70
     0
  0
ENDTAB
  0
TABLE
  2
UCS
  5
6D
330
0
100
AcDbSymbolTable
 70
     0
  0
ENDTAB
  0
TABLE
  2
APPID
  5
70
330
0
100
AcDbSymbolTable
 70
     2
  0
APPID
  5
71
330
70
100
AcDbSymbolTableRecord
100
AcDbRegAppTableRecord
  2
ACAD
 70
     0
  0
APPID
  5
1EB9
330
70
100
AcDbSymbolTableRecord
100
AcDbRegAppTableRecord
  2
CONTENTBLOCKICON
 70
     0
  0
ENDTAB
  0
TABLE
  2
DIMSTYLE
  5
72
330
0
100
AcDbSymbolTable
 70
     1
  0
DIMSTYLE
105
73
330
72
100
AcDbSymbolTableRecord
100
AcDbDimStyleTableRecord
  2
STANDARD
 70
     0
  3

  4

  5

  6

  7

 40
3.0
 41
1.8
 42
0.625
 43
3.75
 44
0.8
 45
0.0
 46
0.0
 47
0.0
 48
0.0
140
1.8
141
2.5
142
0.0
143
0.0394
144
1.0
145
0.0
146
1.0
147
0.75
 71
     0
 72
     0
 73
     0
 74
     0
 75
     0
 76
     0
 77
     1
 78
     8
170
     0
171
     4
172
     1
173
     0
174
     0
175
     0
176
     0
177
     0
178
     0
270
     8
271
     2
272
     2
273
     8
274
     4
340
16
275
     0
280
     0
281
     0
282
     0
283
     1
284
     0
285
     0
286
     0
287
     3
288
     0
  0
ENDTAB
  0
TABLE
  2
BLOCK_RECORD
  5
1
330
0
100
AcDbSymbolTable
 70
    66
  0
BLOCK_RECORD
  5
2
102
{ACAD_XDICTIONARY
360
1EB7
102
}
330
1
100
AcDbSymbolTableRecord
100
AcDbBlockTableRecord
  2
*MODEL_SPACE
  0
BLOCK_RECORD
  5
12A7
102
{ACAD_XDICTIONARY
360
1EBA
102
}
330
1
100
AcDbSymbolTableRecord
100
AcDbBlockTableRecord
  2
*PAPER_SPACE
  0
BLOCK_RECORD
  5
40C
330
1
100
AcDbSymbolTableRecord
100
AcDbBlockTableRecord
  2
外寸枠A4テンプレート
1001
CONTENTBLOCKICON
1071
        0
1004
2800000020000000200000000100080000000000000400000000000000000000000000000000000000000000000080000080000000808000800000008000800080800000C0C0C000C0DCC000F0CAA6000020400000206000002080000020A0000020C0000020E00000400000004020000040400000406000004080000040A0
1004
000040C0000040E00000600000006020000060400000606000006080000060A0000060C0000060E00000800000008020000080400000806000008080000080A0000080C0000080E00000A0000000A0200000A0400000A0600000A0800000A0A00000A0C00000A0E00000C0000000C0200000C0400000C0600000C0800000C0
1004
A00000C0C00000C0E00000E0000000E0200000E0400000E0600000E0800000E0A00000E0C00000E0E00040000000400020004000400040006000400080004000A0004000C0004000E00040200000402020004020400040206000402080004020A0004020C0004020E000404000004040200040404000404060004040800040
1004
40A0004040C0004040E00040600000406020004060400040606000406080004060A0004060C0004060E00040800000408020004080400040806000408080004080A0004080C0004080E00040A0000040A0200040A0400040A0600040A0800040A0A00040A0C00040A0E00040C0000040C0200040C0400040C0600040C08000
1004
40C0A00040C0C00040C0E00040E0000040E0200040E0400040E0600040E0800040E0A00040E0C00040E0E00080000000800020008000400080006000800080008000A0008000C0008000E00080200000802020008020400080206000802080008020A0008020C0008020E00080400000804020008040400080406000804080
1004
008040A0008040C0008040E00080600000806020008060400080606000806080008060A0008060C0008060E00080800000808020008080400080806000808080008080A0008080C0008080E00080A0000080A0200080A0400080A0600080A0800080A0A00080A0C00080A0E00080C0000080C0200080C0400080C0600080C0
1004
800080C0A00080C0C00080C0E00080E0000080E0200080E0400080E0600080E0800080E0A00080E0C00080E0E000C0000000C0002000C0004000C0006000C0008000C000A000C000C000C000E000C0200000C0202000C0204000C0206000C0208000C020A000C020C000C020E000C0400000C0402000C0404000C0406000C0
1004
408000C040A000C040C000C040E000C0600000C0602000C0604000C0606000C0608000C060A000C060C000C060E000C0800000C0802000C0804000C0806000C0808000C080A000C080C000C080E000C0A00000C0A02000C0A04000C0A06000C0A08000C0A0A000C0A0C000C0A0E000C0C00000C0C02000C0C04000C0C06000
1004
C0C08000C0C0A000F0FBFF00A4A0A000808080000000FF0000FF000000FFFF00FF000000FF00FF00FFFF0000FFFFFF0000000000000000000000000000000000000000000000000000000000000000000000000000000000000000000000000000000000000000000000000000000000000000000000000000000000000000
1004
000000000000000000000000000000000000000000000000000000000000000000000000000000000000000000000000000000000000000000000000000000000000000000000000000000000000000000000000000000000000000000000000000000000000000000000000000000000000FCFCFCFCFCFCFCFCFCFCFCFCFC
1004
FCFCFCFCFCFCFCFCFEFEFEFDFDFCFDFDFD0000FC0000000000000000000000000000000000000000FDFDFDFDFDFDFDFDFD0000FC0000000000000000000000000000000000000000FDFDFEFEFEFEFDFDFD0000FC0000000000000000000000000000000000000000FDFCFEFEFEFEFCFCFC0000FC0000000000000000000000
1004
0000000000000000000000000000000000FC0000FC00000000000000000000000000000000000000000000000000000000FC0000FC00000000000000000000000000000000000000000000000000000000FC0000FC00000000000000000000000000000000000000000000000000000000FC0000FC00000000000000000000
1004
000000000000000000000000000000000000FC0000FC00000000000000000000000000000000000000000000000000000000FC0000FC00000000000000000000000000000000000000000000000000000000FC0000FC00000000000000000000000000000000000000000000000000000000FC0000FC000000000000000000
1004
00000000000000000000000000000000000000FC0000FC00000000000000000000000000000000000000000000000000000000FC0000FC00000000000000000000000000000000000000000000000000000000FC0000FC00000000000000000000000000000000000000000000000000000000FC0000FC0000000000000000
1004
0000000000000000000000000000000000000000FC0000FC00000000000000000000000000000000000000000000000000000000FC0000FC00000000000000000000000000000000000000000000FCFCFCFCFCFCFC0000FCFCFCFCFCFCFCFCFCFCFCFCFCFCFCFCFCFCFCFCFCFCFCFCFDFCFCFCFCFC00000000000000000000
1004
00000000000000000000000000000000000000000000000000000000000000000000000000000000000000000000000000000000000000000000000000000000000000000000000000000000000000000000000000000000000000000000000000000000000000000000000000000000000000000000000000000000000000
1004
0000000000000000000000000000000000000000000000000000000000000000000000000000000000000000000000000000000000000000
  0
BLOCK_RECORD
  5
4DC
330
1
100
AcDbSymbolTableRecord
100
AcDbBlockTableRecord
  2
1
  0
BLOCK_RECORD
  5
13C6
330
1
100
AcDbSymbolTableRecord
100
AcDbBlockTableRecord
  2
GSPEC_H-22R-300-450
  0
BLOCK_RECORD
  5
1637
330
1
100
AcDbSymbolTableRecord
100
AcDbBlockTableRecord
  2
MSPEC_S40WF-75
  0
BLOCK_RECORD
  5
1661
330
1
100
AcDbSymbolTableRecord
100
AcDbBlockTableRecord
  2
MSPEC_S60F-75
  0
BLOCK_RECORD
  5
1687
330
1
100
AcDbSymbolTableRecord
100
AcDbBlockTableRecord
  2
MSPEC_S60WF-75
  0
BLOCK_RECORD
  5
16EB
330
1
100
AcDbSymbolTableRecord
100
AcDbBlockTableRecord
  2
BSPEC_90-90-0038
  0
BLOCK_RECORD
  5
1778
330
1
100
AcDbSymbolTableRecord
100
AcDbBlockTableRecord
  2
BSPEC_90-45-0038
  0
ENDTAB
  0
ENDSEC
  0
SECTION
  2
BLOCKS
  0
BLOCK
  5
5D
330
2
100
AcDbEntity
  8
0
100
AcDbBlockBegin
  2
*MODEL_SPACE
 70
     0
 10
0.0
 20
0.0
 30
0.0
  3
*MODEL_SPACE
  1

  0
ENDBLK
  5
5F
330
2
100
AcDbEntity
  8
0
100
AcDbBlockEnd
  0
BLOCK
  5
12B4
330
12A7
100
AcDbEntity
 67
     1
  8
0
100
AcDbBlockBegin
  2
*PAPER_SPACE
 70
     0
 10
0.0
 20
0.0
 30
0.0
  3
*PAPER_SPACE
  1

  0
ENDBLK
  5
12B5
330
12A7
100
AcDbEntity
 67
     1
  8
0
100
AcDbBlockEnd
  0
BLOCK
  5
463
330
40C
100
AcDbEntity
  8
0
100
AcDbBlockBegin
  2
外寸枠A4テンプレート
 70
     2
 10
0.0
 20
0.0
 30
0.0
  3
外寸枠A4テンプレート
  1

  0
LWPOLYLINE
  5
40D
330
40C
100
AcDbEntity
  8
WAKU
100
AcDbPolyline
 90
        4
 70
     1
 43
0.0
 10
3.0
 20
4.0
 10
280.0
 20
4.0
 10
280.0
 20
194.0
 10
3.0
 20
194.0
  0
LWPOLYLINE
  5
40E
330
40C
100
AcDbEntity
  8
WAKU
100
AcDbPolyline
 90
        4
 70
     1
 43
0.0
 10
3.0
 20
4.0
 10
280.0
 20
4.0
 10
280.0
 20
194.0
 10
3.0
 20
194.0
  0
LINE
  5
40F
330
40C
100
AcDbEntity
  8
WAKU
100
AcDbLine
 10
280.0
 20
182.0
 30
0.0
 11
226.4018178786999
 21
182.0
 31
0.0
  0
TEXT
  5
410
330
40C
100
AcDbEntity
  8
WAKU
 62
     6
100
AcDbText
 10
228.3816999999999
 20
190.11095
 30
0.0
 40
2.1213
  1
REVISIONS
 41
0.7
100
AcDbText
  0
LINE
  5
411
330
40C
100
AcDbEntity
  8
WAKU
100
AcDbLine
 10
226.4018178786999
 20
194.0
 30
0.0
 11
226.4018178786999
 21
181.9999999999999
 31
0.0
  0
LINE
  5
412
330
40C
100
AcDbEntity
  8
WAKU
 62
     6
100
AcDbLine
 10
203.6331999999998
 20
29.0030567071
 30
0.0
 11
280.0
 21
29.0030567071
 31
0.0
  0
LINE
  5
413
330
40C
100
AcDbEntity
  8
WAKU
 62
     6
100
AcDbLine
 10
203.6331999999998
 20
24.47761529289999
 30
0.0
 11
280.0
 21
24.47761529289999
 31
0.0
  0
LINE
  5
414
330
40C
100
AcDbEntity
  8
WAKU
 62
     6
100
AcDbLine
 10
203.6331999999998
 20
19.9521752929
 30
0.0
 11
280.0
 21
19.9521752929
 31
0.0
  0
LINE
  5
415
330
40C
100
AcDbEntity
  8
WAKU
 62
     6
100
AcDbLine
 10
203.6331999999998
 20
15.42673599999999
 30
0.0
 11
280.0
 21
15.42673599999999
 31
0.0
  0
LINE
  5
416
330
40C
100
AcDbEntity
  8
WAKU
 62
     6
100
AcDbLine
 10
203.6331999999998
 20
29.0030567071
 30
0.0
 11
280.0
 21
29.0030567071
 31
0.0
  0
LINE
  5
417
330
40C
100
AcDbEntity
  8
WAKU
 62
     6
100
AcDbLine
 10
203.6331999999998
 20
24.47761529289999
 30
0.0
 11
280.0
 21
24.47761529289999
 31
0.0
  0
LINE
  5
418
330
40C
100
AcDbEntity
  8
WAKU
 62
     6
100
AcDbLine
 10
203.6331999999998
 20
19.9521752929
 30
0.0
 11
280.0
 21
19.9521752929
 31
0.0
  0
LINE
  5
419
330
40C
100
AcDbEntity
  8
WAKU
 62
     6
100
AcDbLine
 10
203.6331999999998
 20
15.42673599999999
 30
0.0
 11
280.0
 21
15.42673599999999
 31
0.0
  0
LINE
  5
41A
330
40C
100
AcDbEntity
  8
WAKU
 62
     6
100
AcDbLine
 10
203.6331999999998
 20
29.0030567071
 30
0.0
 11
280.0
 21
29.0030567071
 31
0.0
  0
LINE
  5
41B
330
40C
100
AcDbEntity
  8
WAKU
 62
     6
100
AcDbLine
 10
203.6331999999998
 20
24.47761529289999
 30
0.0
 11
280.0
 21
24.47761529289999
 31
0.0
  0
LINE
  5
41C
330
40C
100
AcDbEntity
  8
WAKU
 62
     6
100
AcDbLine
 10
203.6331999999998
 20
19.9521752929
 30
0.0
 11
280.0
 21
19.9521752929
 31
0.0
  0
LINE
  5
41D
330
40C
100
AcDbEntity
  8
WAKU
 62
     6
100
AcDbLine
 10
203.6331999999998
 20
15.42673599999999
 30
0.0
 11
280.0
 21
15.42673599999999
 31
0.0
  0
LINE
  5
41E
330
40C
100
AcDbEntity
  8
WAKU
100
AcDbLine
 10
203.6331999999998
 20
38.053936
 30
0.0
 11
280.0
 21
38.053936
 31
0.0
  0
LINE
  5
41F
330
40C
100
AcDbEntity
  8
WAKU
100
AcDbLine
 10
203.6331999999998
 20
38.053936
 30
0.0
 11
280.0
 21
38.053936
 31
0.0
  0
LINE
  5
420
330
40C
100
AcDbEntity
  8
WAKU
100
AcDbLine
 10
203.6331999999998
 20
38.053936
 30
0.0
 11
280.0
 21
38.053936
 31
0.0
  0
TEXT
  5
421
330
40C
100
AcDbEntity
  8
WAKU
 62
     6
100
AcDbText
 10
231.4464545235218
 20
12.856420429
 30
0.0
 40
1.76775
  1
SCALE
 41
0.7
100
AcDbText
  0
TEXT
  5
422
330
40C
100
AcDbEntity
  8
TEXT
100
AcDbText
 10
228.8293221750166
 20
29.96641277760619
 30
0.0
 40
2.5
  1
外　形　寸　法　図
100
AcDbText
  0
ATTDEF
  5
423
330
40C
100
AcDbEntity
  8
TEXT
100
AcDbText
 10
241.8165999999999
 20
35.58735183158626
 30
0.0
 40
2.500000000000001
  1

 72
     4
 11
241.8165999999999
 21
35.58735183158626
 31
0.0
100
AcDbAttributeDefinition
  3
タイトル
  2
T　I　T　L　E
 70
     0
  0
LINE
  5
424
330
40C
100
AcDbEntity
  8
WAKU
100
AcDbLine
 10
203.6331999999998
 20
38.053936
 30
0.0
 11
203.6331999999998
 21
3.999999999999998
 31
0.0
  0
LINE
  5
425
330
40C
100
AcDbEntity
  8
WAKU
100
AcDbLine
 10
203.6331999999998
 20
38.053936
 30
0.0
 11
203.6331999999998
 21
3.999999999999998
 31
0.0
  0
LINE
  5
426
330
40C
100
AcDbEntity
  8
WAKU
100
AcDbLine
 10
203.6331999999998
 20
38.053936
 30
0.0
 11
203.6331999999998
 21
3.999999999999998
 31
0.0
  0
TEXT
  5
427
330
40C
100
AcDbEntity
  8
WAKU
 62
     6
100
AcDbText
 10
204.7645642425999
 20
25.805189179
 30
0.0
 40
2.1213
  1
DRAWING  NO.
 41
0.7
100
AcDbText
  0
TEXT
  5
428
330
40C
100
AcDbEntity
  8
WAKU
 62
     6
100
AcDbText
 10
204.7645642425999
 20
16.75430988609998
 30
0.0
 40
2.1213
  1
NOTICE
 41
0.7
100
AcDbText
  0
TEXT
  5
429
330
40C
100
AcDbEntity
  8
WAKU
 62
     6
100
AcDbText
 10
204.8446469479863
 20
12.674695729
 30
0.0
 40
1.8097340625
  1
APPROVE
 41
0.512174
100
AcDbText
  0
TEXT
  5
42A
330
40C
100
AcDbEntity
  8
WAKU
 62
     6
100
AcDbText
 10
204.7645642425999
 20
21.279749179
 30
0.0
 40
2.1213
  1
USER
 41
0.7
100
AcDbText
  0
TEXT
  5
42B
330
40C
100
AcDbEntity
  8
WAKU
 62
     6
100
AcDbText
 10
222.3147516895863
 20
12.6973292929
 30
0.0
 40
1.7832163983
  1
DESIGN
 41
0.5729449999999999
100
AcDbText
  0
LINE
  5
42C
330
40C
100
AcDbEntity
  8
WAKU
 62
     6
100
AcDbLine
 10
212.3823646725999
 20
15.42673599999999
 30
0.0
 11
212.3823646725999
 21
3.999999999999998
 31
0.0
  0
LINE
  5
42D
330
40C
100
AcDbEntity
  8
WAKU
 62
     6
100
AcDbLine
 10
212.3823646725999
 20
15.42673599999999
 30
0.0
 11
212.3823646725999
 21
3.999999999999998
 31
0.0
  0
LINE
  5
42E
330
40C
100
AcDbEntity
  8
WAKU
 62
     6
100
AcDbLine
 10
212.3823646725999
 20
15.42673599999999
 30
0.0
 11
212.3823646725999
 21
3.999999999999998
 31
0.0
  0
LINE
  5
42F
330
40C
100
AcDbEntity
  8
WAKU
 62
     6
100
AcDbLine
 10
221.1033047415999
 20
15.42673599999999
 30
0.0
 11
221.1033047415999
 21
3.999999999999998
 31
0.0
  0
LINE
  5
430
330
40C
100
AcDbEntity
  8
WAKU
 62
     6
100
AcDbLine
 10
221.1033047415999
 20
15.42673599999999
 30
0.0
 11
221.1033047415999
 21
3.999999999999998
 31
0.0
  0
LINE
  5
431
330
40C
100
AcDbEntity
  8
WAKU
 62
     6
100
AcDbLine
 10
221.1033047415999
 20
15.42673599999999
 30
0.0
 11
221.1033047415999
 21
3.999999999999998
 31
0.0
  0
TEXT
  5
432
330
40C
100
AcDbEntity
  8
WAKU
 62
     6
100
AcDbText
 10
213.5938010140863
 20
12.674695729
 30
0.0
 40
1.76775
  1
CHECK
 41
0.7
100
AcDbText
  0
LINE
  5
433
330
40C
100
AcDbEntity
  8
WAKU
 62
     6
100
AcDbLine
 10
229.8241790502999
 20
15.42673599999999
 30
0.0
 11
229.8241790502999
 21
3.999999999999998
 31
0.0
  0
LINE
  5
434
330
40C
100
AcDbEntity
  8
WAKU
 62
     6
100
AcDbLine
 10
229.8241790502999
 20
15.42673599999999
 30
0.0
 11
229.8241790502999
 21
3.999999999999998
 31
0.0
  0
LINE
  5
435
330
40C
100
AcDbEntity
  8
WAKU
 62
     6
100
AcDbLine
 10
229.8241790502999
 20
15.42673599999999
 30
0.0
 11
229.8241790502999
 21
3.999999999999998
 31
0.0
  0
TEXT
  5
436
330
40C
100
AcDbEntity
  8
WAKU
 62
     6
100
AcDbText
 10
204.7645642425999
 20
35.31568488609999
 30
0.0
 40
2.1213
  1
TITLE
 41
0.7
100
AcDbText
  0
ATTDEF
  5
437
330
40C
100
AcDbEntity
  8
TEXT
100
AcDbText
 10
234.056163734276
 20
8.134449518875573
 30
0.0
 40
2.0
  1

 72
     4
 11
234.056163734276
 21
8.134449518875573
 31
0.0
100
AcDbAttributeDefinition
  3
SCALE
  2
FREE
 70
     0
  0
ATTDEF
  5
438
330
40C
100
AcDbEntity
  8
TEXT
100
AcDbText
 10
207.865184683976
 20
8.134449518875573
 30
0.0
 40
2.500000000000004
  1

 72
     4
 11
207.865184683976
 21
8.134449518875573
 31
0.0
100
AcDbAttributeDefinition
  3
承認
  2
海野
 70
     0
  0
ATTDEF
  5
439
330
40C
100
AcDbEntity
  8
TEXT
100
AcDbText
 10
225.335289425576
 20
8.134449518875575
 30
0.0
 40
2.500000000000004
  1

 72
     4
 11
225.335289425576
 21
8.134449518875575
 31
0.0
100
AcDbAttributeDefinition
  3
作成
  2
鳥居
 70
     0
  0
ATTDEF
  5
43A
330
40C
100
AcDbEntity
  8
TEXT
100
AcDbText
 10
216.614349356576
 20
8.134449518875575
 30
0.0
 40
2.500000000000004
  1

 72
     4
 11
216.614349356576
 21
8.134449518875575
 31
0.0
100
AcDbAttributeDefinition
  3
確認
  2
永坂
 70
     0
  0
LINE
  5
43B
330
40C
100
AcDbEntity
  8
WAKU
 62
     6
100
AcDbLine
 10
238.6487948283999
 20
8.638576
 30
0.0
 11
280.0
 21
8.638576
 31
0.0
  0
LINE
  5
43C
330
40C
100
AcDbEntity
  8
WAKU
 62
     6
100
AcDbLine
 10
238.6487948283999
 20
8.638576
 30
0.0
 11
280.0
 21
8.638576
 31
0.0
  0
LINE
  5
43D
330
40C
100
AcDbEntity
  8
WAKU
 62
     6
100
AcDbLine
 10
238.6487948283999
 20
8.638576
 30
0.0
 11
280.0
 21
8.638576
 31
0.0
  0
TEXT
  5
43E
330
40C
100
AcDbEntity
  8
WAKU
 62
     6
100
AcDbText
 10
241.15294501234
 20
5.246258800300003
 30
0.0
 40
2.1213
  1
NISSEI  CORPORATION
100
AcDbText
  0
LINE
  5
43F
330
40C
100
AcDbEntity
  8
WAKU
100
AcDbLine
 10
246.5683127070999
 20
13.02259600000001
 30
0.0
 11
250.5280769496998
 21
14.01253599999999
 31
0.0
  0
LINE
  5
440
330
40C
100
AcDbEntity
  8
WAKU
100
AcDbLine
 10
246.5683127070999
 20
13.02259600000001
 30
0.0
 11
250.5280769496998
 21
14.01253599999999
 31
0.0
  0
LINE
  5
441
330
40C
100
AcDbEntity
  8
WAKU
100
AcDbLine
 10
246.5683127070999
 20
13.02259600000001
 30
0.0
 11
250.5280769496998
 21
14.01253599999999
 31
0.0
  0
LINE
  5
442
330
40C
100
AcDbEntity
  8
WAKU
100
AcDbLine
 10
246.5683127070999
 20
11.0427152929
 30
0.0
 11
250.5280769496998
 21
10.052776
 31
0.0
  0
LINE
  5
443
330
40C
100
AcDbEntity
  8
WAKU
100
AcDbLine
 10
246.5683127070999
 20
11.0427152929
 30
0.0
 11
250.5280769496998
 21
10.052776
 31
0.0
  0
LINE
  5
444
330
40C
100
AcDbEntity
  8
WAKU
100
AcDbLine
 10
246.5683127070999
 20
11.0427152929
 30
0.0
 11
250.5280769496998
 21
10.052776
 31
0.0
  0
LINE
  5
445
330
40C
100
AcDbEntity
  8
CENTER
 62
     6
100
AcDbLine
 10
239.4478107573998
 20
12.0326567071
 30
0.0
 11
251.3624499999998
 21
12.0326567071
 31
0.0
  0
LINE
  5
446
330
40C
100
AcDbEntity
  8
CENTER
 62
     6
100
AcDbLine
 10
239.4478107573998
 20
12.0326567071
 30
0.0
 11
251.3624499999998
 21
12.0326567071
 31
0.0
  0
LINE
  5
447
330
40C
100
AcDbEntity
  8
CENTER
 62
     6
100
AcDbLine
 10
239.4478107573998
 20
12.0326567071
 30
0.0
 11
251.3624499999998
 21
12.0326567071
 31
0.0
  0
LINE
  5
448
330
40C
100
AcDbEntity
  8
WAKU
 62
     6
100
AcDbLine
 10
238.6487948283999
 20
15.42673599999999
 30
0.0
 11
238.6487948283999
 21
3.999999999999998
 31
0.0
  0
LINE
  5
449
330
40C
100
AcDbEntity
  8
WAKU
 62
     6
100
AcDbLine
 10
238.6487948283999
 20
15.42673599999999
 30
0.0
 11
238.6487948283999
 21
3.999999999999998
 31
0.0
  0
LINE
  5
44A
330
40C
100
AcDbEntity
  8
WAKU
 62
     6
100
AcDbLine
 10
238.6487948283999
 20
15.42673599999999
 30
0.0
 11
238.6487948283999
 21
3.999999999999998
 31
0.0
  0
CIRCLE
  5
44B
330
40C
100
AcDbEntity
  8
WAKU
100
AcDbCircle
 10
242.0428769496999
 20
12.0326567071
 30
0.0
 40
0.9899399999999999
  0
CIRCLE
  5
44C
330
40C
100
AcDbEntity
  8
WAKU
100
AcDbCircle
 10
242.0428769496999
 20
12.0326567071
 30
0.0
 40
0.9899399999999999
  0
CIRCLE
  5
44D
330
40C
100
AcDbEntity
  8
WAKU
100
AcDbCircle
 10
242.0428769496999
 20
12.0326567071
 30
0.0
 40
0.9899399999999999
  0
CIRCLE
  5
44E
330
40C
100
AcDbEntity
  8
WAKU
100
AcDbCircle
 10
242.0428769496999
 20
12.0326567071
 30
0.0
 40
1.979879999999999
  0
CIRCLE
  5
44F
330
40C
100
AcDbEntity
  8
WAKU
100
AcDbCircle
 10
242.0428769496999
 20
12.0326567071
 30
0.0
 40
1.979879999999999
  0
CIRCLE
  5
450
330
40C
100
AcDbEntity
  8
WAKU
100
AcDbCircle
 10
242.0428769496999
 20
12.0326567071
 30
0.0
 40
1.979879999999999
  0
LINE
  5
451
330
40C
100
AcDbEntity
  8
WAKU
100
AcDbLine
 10
246.5683127070999
 20
13.02259600000001
 30
0.0
 11
246.5683127070999
 21
11.0427152929
 31
0.0
  0
LINE
  5
452
330
40C
100
AcDbEntity
  8
WAKU
100
AcDbLine
 10
246.5683127070999
 20
13.02259600000001
 30
0.0
 11
246.5683127070999
 21
11.0427152929
 31
0.0
  0
LINE
  5
453
330
40C
100
AcDbEntity
  8
WAKU
100
AcDbLine
 10
246.5683127070999
 20
13.02259600000001
 30
0.0
 11
246.5683127070999
 21
11.0427152929
 31
0.0
  0
LINE
  5
454
330
40C
100
AcDbEntity
  8
CENTER
 62
     6
100
AcDbLine
 10
242.0428769496999
 20
14.96005
 30
0.0
 11
242.0428769496999
 21
9.267895000000009
 31
0.0
  0
LINE
  5
455
330
40C
100
AcDbEntity
  8
CENTER
 62
     6
100
AcDbLine
 10
242.0428769496999
 20
14.96005
 30
0.0
 11
242.0428769496999
 21
9.267895000000009
 31
0.0
  0
LINE
  5
456
330
40C
100
AcDbEntity
  8
CENTER
 62
     6
100
AcDbLine
 10
242.0428769496999
 20
14.96005
 30
0.0
 11
242.0428769496999
 21
9.267895000000009
 31
0.0
  0
TEXT
  5
457
330
40C
100
AcDbEntity
  8
TEXT
100
AcDbText
 10
257.3078171288039
 20
9.492177985111482
 30
0.0
 40
2.0
  1
mm
100
AcDbText
  0
LINE
  5
458
330
40C
100
AcDbEntity
  8
WAKU
 62
     6
100
AcDbLine
 10
252.2251127070999
 20
15.42673599999999
 30
0.0
 11
252.2251127070999
 21
8.638576
 31
0.0
  0
LINE
  5
459
330
40C
100
AcDbEntity
  8
WAKU
 62
     6
100
AcDbLine
 10
252.2251127070999
 20
15.42673599999999
 30
0.0
 11
252.2251127070999
 21
8.638576
 31
0.0
  0
LINE
  5
45A
330
40C
100
AcDbEntity
  8
WAKU
 62
     6
100
AcDbLine
 10
252.2251127070999
 20
15.42673599999999
 30
0.0
 11
252.2251127070999
 21
8.638576
 31
0.0
  0
LINE
  5
45B
330
40C
100
AcDbEntity
  8
WAKU
100
AcDbLine
 10
250.5280769496998
 20
14.01253599999999
 30
0.0
 11
250.5280769496998
 21
10.052776
 31
0.0
  0
LINE
  5
45C
330
40C
100
AcDbEntity
  8
WAKU
100
AcDbLine
 10
250.5280769496998
 20
14.01253599999999
 30
0.0
 11
250.5280769496998
 21
10.052776
 31
0.0
  0
LINE
  5
45D
330
40C
100
AcDbEntity
  8
WAKU
100
AcDbLine
 10
250.5280769496998
 20
14.01253599999999
 30
0.0
 11
250.5280769496998
 21
10.052776
 31
0.0
  0
TEXT
  5
45E
330
40C
100
AcDbEntity
  8
WAKU
 62
     6
100
AcDbText
 10
253.4130357573999
 20
13.0508792929
 30
0.0
 40
1.76775
  1
UNIT
 41
0.7
100
AcDbText
  0
TEXT
  5
45F
330
40C
100
AcDbEntity
  8
WAKU
 62
     6
100
AcDbText
 10
266.9893642426
 20
13.0508792929
 30
0.0
 40
1.76775
  1
DATE
 41
0.7
100
AcDbText
  0
LINE
  5
460
330
40C
100
AcDbEntity
  8
WAKU
 62
     6
100
AcDbLine
 10
265.7448611715999
 20
15.42673599999999
 30
0.0
 11
265.7448611715999
 21
8.638576
 31
0.0
  0
LINE
  5
461
330
40C
100
AcDbEntity
  8
WAKU
 62
     6
100
AcDbLine
 10
265.7448611715999
 20
15.42673599999999
 30
0.0
 11
265.7448611715999
 21
8.638576
 31
0.0
  0
LINE
  5
462
330
40C
100
AcDbEntity
  8
WAKU
 62
     6
100
AcDbLine
 10
265.7448611715999
 20
15.42673599999999
 30
0.0
 11
265.7448611715999
 21
8.638576
 31
0.0
  0
ENDBLK
  5
464
330
40C
100
AcDbEntity
  8
0
100
AcDbBlockEnd
  0
BLOCK
  5
4DE
330
4DC
100
AcDbEntity
  8
0
100
AcDbBlockBegin
  2
1
 70
     0
 10
0.0
 20
0.0
 30
0.0
  3
1
  1

  0
TEXT
  5
4DD
330
4DC
100
AcDbEntity
  8
0
100
AcDbText
 10
0.0
 20
0.0
 30
0.0
 40
2.0
  1
注。出力軸キーは JIS B 1301-1976平行キーに依ります。
100
AcDbText
  0
ENDBLK
  5
4DF
330
4DC
100
AcDbEntity
  8
0
100
AcDbBlockEnd
  0
BLOCK
  5
13DE
330
13C6
100
AcDbEntity
  8
0
100
AcDbBlockBegin
  2
GSPEC_H-22R-300-450
 70
     0
 10
0.0
 20
0.0
 30
0.0
  3
GSPEC_H-22R-300-450
  1

  0
LINE
  5
13C7
330
13C6
100
AcDbEntity
  8
0
100
AcDbLine
 10
131.0
 20
20.32249999999996
 30
0.0
 11
183.0
 21
20.32249999999996
 31
0.0
  0
LINE
  5
13C8
330
13C6
100
AcDbEntity
  8
0
100
AcDbLine
 10
131.0
 20
16.78699999999997
 30
0.0
 11
183.0
 21
16.78699999999997
 31
0.0
  0
LINE
  5
13C9
330
13C6
100
AcDbEntity
  8
0
100
AcDbLine
 10
131.0
 20
23.85799999999994
 30
0.0
 11
183.0
 21
23.85799999999994
 31
0.0
  0
LINE
  5
13CA
330
13C6
100
AcDbEntity
  8
0
100
AcDbLine
 10
131.0
 20
34.46450000000001
 30
0.0
 11
183.0
 21
34.46450000000001
 31
0.0
  0
LINE
  5
13CB
330
13C6
100
AcDbEntity
  8
0
100
AcDbLine
 10
131.0
 20
30.929
 30
0.0
 11
183.0
 21
30.92899999999997
 31
0.0
  0
LINE
  5
13CC
330
13C6
100
AcDbEntity
  8
0
100
AcDbLine
 10
131.0
 20
38.0
 30
0.0
 11
183.0
 21
38.0
 31
0.0
  0
LINE
  5
13CD
330
13C6
100
AcDbEntity
  8
0
100
AcDbLine
 10
131.0
 20
16.78699999999997
 30
0.0
 11
131.0
 21
38.0
 31
0.0
  0
TEXT
  5
13CE
330
13C6
100
AcDbEntity
  8
0
100
AcDbText
 10
131.6780944417463
 20
21.02959999999995
 30
0.0
 40
2.0
  1
潤滑
100
AcDbText
  0
TEXT
  5
13CF
330
13C6
100
AcDbEntity
  8
0
100
AcDbText
 10
131.6780944417462
 20
17.4005422092805
 30
0.0
 40
2.0
  1
塗色
100
AcDbText
  0
TEXT
  5
13D0
330
13C6
100
AcDbEntity
  8
0
100
AcDbText
 10
131.6780944417462
 20
26.15579327977821
 30
0.0
 40
2.0
  1
減速比
100
AcDbText
  0
TEXT
  5
13D1
330
13C6
100
AcDbEntity
  8
0
100
AcDbText
 10
131.6780944417462
 20
31.6361
 30
0.0
 40
2.0
  1
枠番
100
AcDbText
  0
TEXT
  5
13D2
330
13C6
100
AcDbEntity
  8
0
100
AcDbText
 10
131.6780944417462
 20
35.17159999999998
 30
0.0
 40
2.0
  1
名称
100
AcDbText
  0
LINE
  5
13D3
330
13C6
100
AcDbEntity
  8
0
100
AcDbLine
 10
183.0
 20
16.78699999999997
 30
0.0
 11
183.0
 21
38.0
 31
0.0
  0
LINE
  5
13D4
330
13C6
100
AcDbEntity
  8
0
100
AcDbLine
 10
142.5
 20
16.78699999999997
 30
0.0
 11
142.5
 21
38.0
 31
0.0
  0
TEXT
  5
13D5
330
13C6
100
AcDbEntity
  8
0
100
AcDbText
 10
143.3531994322572
 20
28.10060000000001
 30
0.0
 40
2.0
  1
1/300 1/375 1/450 
100
AcDbText
  0
TEXT
  5
13D6
330
13C6
100
AcDbEntity
  8
0
100
AcDbText
 10
143.3531994322572
 20
17.49409999999994
 30
0.0
 40
2.0
  1
グレー（マンセル値 9B6/0.5）
100
AcDbText
  0
LINE
  5
13D7
330
13C6
100
AcDbEntity
  8
0
100
AcDbLine
 10
142.5
 20
27.39349999999999
 30
0.0
 11
183.0
 21
27.39349999999999
 31
0.0
  0
TEXT
  5
13D8
330
13C6
100
AcDbEntity
  8
0
100
AcDbText
 10
143.3531994322572
 20
21.02959999999995
 30
0.0
 40
2.0
  1
グリース
100
AcDbText
  0
LINE
  5
13D9
330
13C6
100
AcDbEntity
  8
0
100
AcDbLine
 10
150.4725366217368
 20
39.41419999999999
 30
0.0
 11
163.5274633782631
 21
39.41419999999999
 31
0.0
  0
LINE
  5
13DA
330
13C6
100
AcDbEntity
  8
0
100
AcDbLine
 10
150.4725366217368
 20
40.12129999999999
 30
0.0
 11
163.5274633782631
 21
40.12129999999999
 31
0.0
  0
TEXT
  5
13DB
330
13C6
100
AcDbEntity
  8
0
100
AcDbText
 10
151.1299348544099
 20
40.47485
 30
0.0
 40
2.0
  1
減速機仕様
100
AcDbText
  0
TEXT
  5
13DC
330
13C6
100
AcDbEntity
  8
0
100
AcDbText
 10
143.3531994322572
 20
31.6361
 30
0.0
 40
2.0
  1
22R
100
AcDbText
  0
TEXT
  5
13DD
330
13C6
100
AcDbEntity
  8
0
100
AcDbText
 10
143.3531994322572
 20
35.17159999999998
 30
0.0
 40
2.0
  1
GTR
100
AcDbText
  0
ENDBLK
  5
13DF
330
13C6
100
AcDbEntity
  8
0
100
AcDbBlockEnd
  0
BLOCK
  5
165A
330
1637
100
AcDbEntity
  8
0
100
AcDbBlockBegin
  2
MSPEC_S40WF-75
 70
     0
 10
0.0
 20
0.0
 30
0.0
  3
MSPEC_S40WF-75
  1

  0
LINE
  5
1638
330
1637
100
AcDbEntity
  8
0
100
AcDbLine
 10
126.0
 20
6.180499999999994
 30
0.0
 11
126.0
 21
37.99999999999997
 31
0.0
  0
TEXT
  5
1639
330
1637
100
AcDbEntity
  8
0
100
AcDbText
 10
86.35319943225727
 20
28.10060000000001
 30
0.0
 40
2.0
  1
40 W
100
AcDbText
  0
TEXT
  5
163A
330
1637
100
AcDbEntity
  8
0
100
AcDbText
 10
74.67809444174623
 20
28.10059999999998
 30
0.0
 40
2.0
  1
出力
100
AcDbText
  0
LINE
  5
163B
330
1637
100
AcDbEntity
  8
0
100
AcDbLine
 10
85.5
 20
6.180499999999994
 30
0.0
 11
85.5
 21
38.0
 31
0.0
  0
LINE
  5
163C
330
1637
100
AcDbEntity
  8
0
100
AcDbLine
 10
73.99999999999998
 20
6.180500000000023
 30
0.0
 11
74.0
 21
38.0
 31
0.0
  0
TEXT
  5
163D
330
1637
100
AcDbEntity
  8
0
100
AcDbText
 10
86.35319943225727
 20
13.95859999999993
 30
0.0
 40
2.0
  1
1500/1800 rpm
100
AcDbText
  0
LINE
  5
163E
330
1637
100
AcDbEntity
  8
0
100
AcDbLine
 10
74.0
 20
6.180500000000023
 30
0.0
 11
126.0
 21
6.180499999999994
 31
0.0
  0
LINE
  5
163F
330
1637
100
AcDbEntity
  8
0
100
AcDbLine
 10
74.0
 20
9.716000000000008
 30
0.0
 11
126.0
 21
9.715999999999979
 31
0.0
  0
LINE
  5
1640
330
1637
100
AcDbEntity
  8
0
100
AcDbLine
 10
74.0
 20
13.25149999999999
 30
0.0
 11
126.0
 21
13.25149999999996
 31
0.0
  0
LINE
  5
1641
330
1637
100
AcDbEntity
  8
0
100
AcDbLine
 10
74.0
 20
23.85799999999994
 30
0.0
 11
126.0
 21
23.85799999999992
 31
0.0
  0
LINE
  5
1642
330
1637
100
AcDbEntity
  8
0
100
AcDbLine
 10
74.0
 20
16.78699999999997
 30
0.0
 11
126.0
 21
16.78699999999994
 31
0.0
  0
LINE
  5
1643
330
1637
100
AcDbEntity
  8
0
100
AcDbLine
 10
74.0
 20
20.32249999999996
 30
0.0
 11
126.0
 21
20.32249999999993
 31
0.0
  0
LINE
  5
1644
330
1637
100
AcDbEntity
  8
0
100
AcDbLine
 10
74.0
 20
27.39349999999999
 30
0.0
 11
126.0
 21
27.39349999999996
 31
0.0
  0
TEXT
  5
1645
330
1637
100
AcDbEntity
  8
0
100
AcDbText
 10
86.35319943225727
 20
24.56510000000003
 30
0.0
 40
2.0
  1
200 V
100
AcDbText
  0
TEXT
  5
1646
330
1637
100
AcDbEntity
  8
0
100
AcDbText
 10
86.35319943225727
 20
21.02959999999995
 30
0.0
 40
2.0
  1
50/60 Hz
100
AcDbText
  0
TEXT
  5
1647
330
1637
100
AcDbEntity
  8
0
100
AcDbText
 10
74.67809444174623
 20
10.3295422092805
 30
0.0
 40
2.0
  1
定格
100
AcDbText
  0
TEXT
  5
1648
330
1637
100
AcDbEntity
  8
0
100
AcDbText
 10
74.67809444174623
 20
6.794042209280519
 30
0.0
 40
2.0
  1
絶縁
100
AcDbText
  0
TEXT
  5
1649
330
1637
100
AcDbEntity
  8
0
100
AcDbText
 10
86.35319943225727
 20
10.42309999999994
 30
0.0
 40
2.0
  1
連続
100
AcDbText
  0
TEXT
  5
164A
330
1637
100
AcDbEntity
  8
0
100
AcDbText
 10
86.35319943225727
 20
6.887599999999963
 30
0.0
 40
2.0
  1
E種
100
AcDbText
  0
TEXT
  5
164B
330
1637
100
AcDbEntity
  8
0
100
AcDbText
 10
74.67809444174623
 20
13.86504220928048
 30
0.0
 40
2.0
  1
回転速度
100
AcDbText
  0
TEXT
  5
164C
330
1637
100
AcDbEntity
  8
0
100
AcDbText
 10
74.67809444174633
 20
21.02959999999995
 30
0.0
 40
2.0
  1
周波数
100
AcDbText
  0
TEXT
  5
164D
330
1637
100
AcDbEntity
  8
0
100
AcDbText
 10
74.67809444174623
 20
17.4005422092805
 30
0.0
 40
2.0
  1
極数
100
AcDbText
  0
TEXT
  5
164E
330
1637
100
AcDbEntity
  8
0
100
AcDbText
 10
74.67809444174623
 20
24.56509999999997
 30
0.0
 40
2.0
  1
電圧
100
AcDbText
  0
TEXT
  5
164F
330
1637
100
AcDbEntity
  8
0
100
AcDbText
 10
86.35319943225727
 20
17.49409999999994
 30
0.0
 40
2.0
  1
4
100
AcDbText
  0
TEXT
  5
1650
330
1637
100
AcDbEntity
  8
0
100
AcDbText
 10
86.35319943225727
 20
31.6361
 30
0.0
 40
2.0
  1
全閉外扇形（ｺﾝﾃﾞﾝｻﾗﾝ）DS-75
100
AcDbText
  0
LINE
  5
1651
330
1637
100
AcDbEntity
  8
0
100
AcDbLine
 10
74.0
 20
38.0
 30
0.0
 11
126.0
 21
37.99999999999997
 31
0.0
  0
LINE
  5
1652
330
1637
100
AcDbEntity
  8
0
100
AcDbLine
 10
74.0
 20
30.929
 30
0.0
 11
126.0
 21
30.92899999999994
 31
0.0
  0
LINE
  5
1653
330
1637
100
AcDbEntity
  8
0
100
AcDbLine
 10
74.0
 20
34.46450000000001
 30
0.0
 11
126.0
 21
34.46449999999998
 31
0.0
  0
TEXT
  5
1654
330
1637
100
AcDbEntity
  8
0
100
AcDbText
 10
86.35319943225727
 20
35.17159999999998
 30
0.0
 40
2.0
  1
単相誘導電動機
100
AcDbText
  0
TEXT
  5
1655
330
1637
100
AcDbEntity
  8
0
100
AcDbText
 10
74.67809444174623
 20
31.6361
 30
0.0
 40
2.0
  1
型式
100
AcDbText
  0
TEXT
  5
1656
330
1637
100
AcDbEntity
  8
0
100
AcDbText
 10
74.67809444174623
 20
35.17159999999998
 30
0.0
 40
2.0
  1
名称
100
AcDbText
  0
LINE
  5
1657
330
1637
100
AcDbEntity
  8
0
100
AcDbLine
 10
93.80123573807338
 20
40.12129999999999
 30
0.0
 11
106.1987642619266
 21
40.12129999999999
 31
0.0
  0
LINE
  5
1658
330
1637
100
AcDbEntity
  8
0
100
AcDbLine
 10
93.80123573807338
 20
39.41419999999999
 30
0.0
 11
106.1987642619266
 21
39.41419999999999
 31
0.0
  0
TEXT
  5
1659
330
1637
100
AcDbEntity
  8
0
100
AcDbText
 10
93.99902987649658
 20
40.47485
 30
0.0
 40
2.0
  1
モータ仕様
100
AcDbText
  0
ENDBLK
  5
165B
330
1637
100
AcDbEntity
  8
0
100
AcDbBlockEnd
  0
BLOCK
  5
1684
330
1661
100
AcDbEntity
  8
0
100
AcDbBlockBegin
  2
MSPEC_S60F-75
 70
     0
 10
0.0
 20
0.0
 30
0.0
  3
MSPEC_S60F-75
  1

  0
LINE
  5
1662
330
1661
100
AcDbEntity
  8
0
100
AcDbLine
 10
126.0
 20
6.180499999999994
 30
0.0
 11
126.0
 21
37.99999999999997
 31
0.0
  0
TEXT
  5
1663
330
1661
100
AcDbEntity
  8
0
100
AcDbText
 10
86.35319943225727
 20
28.10060000000001
 30
0.0
 40
2.0
  1
60 W
100
AcDbText
  0
TEXT
  5
1664
330
1661
100
AcDbEntity
  8
0
100
AcDbText
 10
74.67809444174623
 20
28.10059999999998
 30
0.0
 40
2.0
  1
出力
100
AcDbText
  0
LINE
  5
1665
330
1661
100
AcDbEntity
  8
0
100
AcDbLine
 10
85.5
 20
6.180499999999994
 30
0.0
 11
85.5
 21
38.0
 31
0.0
  0
LINE
  5
1666
330
1661
100
AcDbEntity
  8
0
100
AcDbLine
 10
73.99999999999998
 20
6.180500000000023
 30
0.0
 11
74.0
 21
38.0
 31
0.0
  0
TEXT
  5
1667
330
1661
100
AcDbEntity
  8
0
100
AcDbText
 10
86.35319943225727
 20
13.95859999999993
 30
0.0
 40
2.0
  1
1500/1800 rpm
100
AcDbText
  0
LINE
  5
1668
330
1661
100
AcDbEntity
  8
0
100
AcDbLine
 10
74.0
 20
6.180500000000023
 30
0.0
 11
126.0
 21
6.180499999999994
 31
0.0
  0
LINE
  5
1669
330
1661
100
AcDbEntity
  8
0
100
AcDbLine
 10
74.0
 20
9.716000000000008
 30
0.0
 11
126.0
 21
9.715999999999979
 31
0.0
  0
LINE
  5
166A
330
1661
100
AcDbEntity
  8
0
100
AcDbLine
 10
74.0
 20
13.25149999999999
 30
0.0
 11
126.0
 21
13.25149999999996
 31
0.0
  0
LINE
  5
166B
330
1661
100
AcDbEntity
  8
0
100
AcDbLine
 10
74.0
 20
23.85799999999994
 30
0.0
 11
126.0
 21
23.85799999999992
 31
0.0
  0
LINE
  5
166C
330
1661
100
AcDbEntity
  8
0
100
AcDbLine
 10
74.0
 20
16.78699999999997
 30
0.0
 11
126.0
 21
16.78699999999994
 31
0.0
  0
LINE
  5
166D
330
1661
100
AcDbEntity
  8
0
100
AcDbLine
 10
74.0
 20
20.32249999999996
 30
0.0
 11
126.0
 21
20.32249999999993
 31
0.0
  0
LINE
  5
166E
330
1661
100
AcDbEntity
  8
0
100
AcDbLine
 10
74.0
 20
27.39349999999999
 30
0.0
 11
126.0
 21
27.39349999999996
 31
0.0
  0
TEXT
  5
166F
330
1661
100
AcDbEntity
  8
0
100
AcDbText
 10
86.35319943225727
 20
24.56510000000003
 30
0.0
 40
2.0
  1
100 V
100
AcDbText
  0
TEXT
  5
1670
330
1661
100
AcDbEntity
  8
0
100
AcDbText
 10
86.35319943225727
 20
21.02959999999995
 30
0.0
 40
2.0
  1
50/60 Hz
100
AcDbText
  0
TEXT
  5
1671
330
1661
100
AcDbEntity
  8
0
100
AcDbText
 10
74.67809444174623
 20
10.3295422092805
 30
0.0
 40
2.0
  1
定格
100
AcDbText
  0
TEXT
  5
1672
330
1661
100
AcDbEntity
  8
0
100
AcDbText
 10
74.67809444174623
 20
6.794042209280519
 30
0.0
 40
2.0
  1
絶縁
100
AcDbText
  0
TEXT
  5
1673
330
1661
100
AcDbEntity
  8
0
100
AcDbText
 10
86.35319943225727
 20
10.42309999999994
 30
0.0
 40
2.0
  1
連続
100
AcDbText
  0
TEXT
  5
1674
330
1661
100
AcDbEntity
  8
0
100
AcDbText
 10
86.35319943225727
 20
6.887599999999963
 30
0.0
 40
2.0
  1
E種
100
AcDbText
  0
TEXT
  5
1675
330
1661
100
AcDbEntity
  8
0
100
AcDbText
 10
74.67809444174623
 20
13.86504220928048
 30
0.0
 40
2.0
  1
回転速度
100
AcDbText
  0
TEXT
  5
1676
330
1661
100
AcDbEntity
  8
0
100
AcDbText
 10
74.67809444174633
 20
21.02959999999995
 30
0.0
 40
2.0
  1
周波数
100
AcDbText
  0
TEXT
  5
1677
330
1661
100
AcDbEntity
  8
0
100
AcDbText
 10
74.67809444174623
 20
17.4005422092805
 30
0.0
 40
2.0
  1
極数
100
AcDbText
  0
TEXT
  5
1678
330
1661
100
AcDbEntity
  8
0
100
AcDbText
 10
74.67809444174623
 20
24.56509999999997
 30
0.0
 40
2.0
  1
電圧
100
AcDbText
  0
TEXT
  5
1679
330
1661
100
AcDbEntity
  8
0
100
AcDbText
 10
86.35319943225727
 20
17.49409999999994
 30
0.0
 40
2.0
  1
4
100
AcDbText
  0
TEXT
  5
167A
330
1661
100
AcDbEntity
  8
0
100
AcDbText
 10
86.35319943225727
 20
31.6361
 30
0.0
 40
2.0
  1
全閉外扇形（ｺﾝﾃﾞﾝｻﾗﾝ）DS-75
100
AcDbText
  0
LINE
  5
167B
330
1661
100
AcDbEntity
  8
0
100
AcDbLine
 10
74.0
 20
38.0
 30
0.0
 11
126.0
 21
37.99999999999997
 31
0.0
  0
LINE
  5
167C
330
1661
100
AcDbEntity
  8
0
100
AcDbLine
 10
74.0
 20
30.929
 30
0.0
 11
126.0
 21
30.92899999999994
 31
0.0
  0
LINE
  5
167D
330
1661
100
AcDbEntity
  8
0
100
AcDbLine
 10
74.0
 20
34.46450000000001
 30
0.0
 11
126.0
 21
34.46449999999998
 31
0.0
  0
TEXT
  5
167E
330
1661
100
AcDbEntity
  8
0
100
AcDbText
 10
86.35319943225727
 20
35.17159999999998
 30
0.0
 40
2.0
  1
単相誘導電動機
100
AcDbText
  0
TEXT
  5
167F
330
1661
100
AcDbEntity
  8
0
100
AcDbText
 10
74.67809444174623
 20
31.6361
 30
0.0
 40
2.0
  1
型式
100
AcDbText
  0
TEXT
  5
1680
330
1661
100
AcDbEntity
  8
0
100
AcDbText
 10
74.67809444174623
 20
35.17159999999998
 30
0.0
 40
2.0
  1
名称
100
AcDbText
  0
LINE
  5
1681
330
1661
100
AcDbEntity
  8
0
100
AcDbLine
 10
93.80123573807338
 20
40.12129999999999
 30
0.0
 11
106.1987642619266
 21
40.12129999999999
 31
0.0
  0
LINE
  5
1682
330
1661
100
AcDbEntity
  8
0
100
AcDbLine
 10
93.80123573807338
 20
39.41419999999999
 30
0.0
 11
106.1987642619266
 21
39.41419999999999
 31
0.0
  0
TEXT
  5
1683
330
1661
100
AcDbEntity
  8
0
100
AcDbText
 10
93.99902987649658
 20
40.47485
 30
0.0
 40
2.0
  1
モータ仕様
100
AcDbText
  0
ENDBLK
  5
1685
330
1661
100
AcDbEntity
  8
0
100
AcDbBlockEnd
  0
BLOCK
  5
16AA
330
1687
100
AcDbEntity
  8
0
100
AcDbBlockBegin
  2
MSPEC_S60WF-75
 70
     0
 10
0.0
 20
0.0
 30
0.0
  3
MSPEC_S60WF-75
  1

  0
LINE
  5
1688
330
1687
100
AcDbEntity
  8
0
100
AcDbLine
 10
126.0
 20
6.180499999999994
 30
0.0
 11
126.0
 21
37.99999999999997
 31
0.0
  0
TEXT
  5
1689
330
1687
100
AcDbEntity
  8
0
100
AcDbText
 10
86.35319943225727
 20
28.10060000000001
 30
0.0
 40
2.0
  1
60 W
100
AcDbText
  0
TEXT
  5
168A
330
1687
100
AcDbEntity
  8
0
100
AcDbText
 10
74.67809444174623
 20
28.10059999999998
 30
0.0
 40
2.0
  1
出力
100
AcDbText
  0
LINE
  5
168B
330
1687
100
AcDbEntity
  8
0
100
AcDbLine
 10
85.5
 20
6.180499999999994
 30
0.0
 11
85.5
 21
38.0
 31
0.0
  0
LINE
  5
168C
330
1687
100
AcDbEntity
  8
0
100
AcDbLine
 10
73.99999999999998
 20
6.180500000000023
 30
0.0
 11
74.0
 21
38.0
 31
0.0
  0
TEXT
  5
168D
330
1687
100
AcDbEntity
  8
0
100
AcDbText
 10
86.35319943225727
 20
13.95859999999993
 30
0.0
 40
2.0
  1
1500/1800 rpm
100
AcDbText
  0
LINE
  5
168E
330
1687
100
AcDbEntity
  8
0
100
AcDbLine
 10
74.0
 20
6.180500000000023
 30
0.0
 11
126.0
 21
6.180499999999994
 31
0.0
  0
LINE
  5
168F
330
1687
100
AcDbEntity
  8
0
100
AcDbLine
 10
74.0
 20
9.716000000000008
 30
0.0
 11
126.0
 21
9.715999999999979
 31
0.0
  0
LINE
  5
1690
330
1687
100
AcDbEntity
  8
0
100
AcDbLine
 10
74.0
 20
13.25149999999999
 30
0.0
 11
126.0
 21
13.25149999999996
 31
0.0
  0
LINE
  5
1691
330
1687
100
AcDbEntity
  8
0
100
AcDbLine
 10
74.0
 20
23.85799999999994
 30
0.0
 11
126.0
 21
23.85799999999992
 31
0.0
  0
LINE
  5
1692
330
1687
100
AcDbEntity
  8
0
100
AcDbLine
 10
74.0
 20
16.78699999999997
 30
0.0
 11
126.0
 21
16.78699999999994
 31
0.0
  0
LINE
  5
1693
330
1687
100
AcDbEntity
  8
0
100
AcDbLine
 10
74.0
 20
20.32249999999996
 30
0.0
 11
126.0
 21
20.32249999999993
 31
0.0
  0
LINE
  5
1694
330
1687
100
AcDbEntity
  8
0
100
AcDbLine
 10
74.0
 20
27.39349999999999
 30
0.0
 11
126.0
 21
27.39349999999996
 31
0.0
  0
TEXT
  5
1695
330
1687
100
AcDbEntity
  8
0
100
AcDbText
 10
86.35319943225727
 20
24.56510000000003
 30
0.0
 40
2.0
  1
200 V
100
AcDbText
  0
TEXT
  5
1696
330
1687
100
AcDbEntity
  8
0
100
AcDbText
 10
86.35319943225727
 20
21.02959999999995
 30
0.0
 40
2.0
  1
50/60 Hz
100
AcDbText
  0
TEXT
  5
1697
330
1687
100
AcDbEntity
  8
0
100
AcDbText
 10
74.67809444174623
 20
10.3295422092805
 30
0.0
 40
2.0
  1
定格
100
AcDbText
  0
TEXT
  5
1698
330
1687
100
AcDbEntity
  8
0
100
AcDbText
 10
74.67809444174623
 20
6.794042209280519
 30
0.0
 40
2.0
  1
絶縁
100
AcDbText
  0
TEXT
  5
1699
330
1687
100
AcDbEntity
  8
0
100
AcDbText
 10
86.35319943225727
 20
10.42309999999994
 30
0.0
 40
2.0
  1
連続
100
AcDbText
  0
TEXT
  5
169A
330
1687
100
AcDbEntity
  8
0
100
AcDbText
 10
86.35319943225727
 20
6.887599999999963
 30
0.0
 40
2.0
  1
E種
100
AcDbText
  0
TEXT
  5
169B
330
1687
100
AcDbEntity
  8
0
100
AcDbText
 10
74.67809444174623
 20
13.86504220928048
 30
0.0
 40
2.0
  1
回転速度
100
AcDbText
  0
TEXT
  5
169C
330
1687
100
AcDbEntity
  8
0
100
AcDbText
 10
74.67809444174633
 20
21.02959999999995
 30
0.0
 40
2.0
  1
周波数
100
AcDbText
  0
TEXT
  5
169D
330
1687
100
AcDbEntity
  8
0
100
AcDbText
 10
74.67809444174623
 20
17.4005422092805
 30
0.0
 40
2.0
  1
極数
100
AcDbText
  0
TEXT
  5
169E
330
1687
100
AcDbEntity
  8
0
100
AcDbText
 10
74.67809444174623
 20
24.56509999999997
 30
0.0
 40
2.0
  1
電圧
100
AcDbText
  0
TEXT
  5
169F
330
1687
100
AcDbEntity
  8
0
100
AcDbText
 10
86.35319943225727
 20
17.49409999999994
 30
0.0
 40
2.0
  1
4
100
AcDbText
  0
TEXT
  5
16A0
330
1687
100
AcDbEntity
  8
0
100
AcDbText
 10
86.35319943225727
 20
31.6361
 30
0.0
 40
2.0
  1
全閉外扇形（ｺﾝﾃﾞﾝｻﾗﾝ）DS-75
100
AcDbText
  0
LINE
  5
16A1
330
1687
100
AcDbEntity
  8
0
100
AcDbLine
 10
74.0
 20
38.0
 30
0.0
 11
126.0
 21
37.99999999999997
 31
0.0
  0
LINE
  5
16A2
330
1687
100
AcDbEntity
  8
0
100
AcDbLine
 10
74.0
 20
30.929
 30
0.0
 11
126.0
 21
30.92899999999994
 31
0.0
  0
LINE
  5
16A3
330
1687
100
AcDbEntity
  8
0
100
AcDbLine
 10
74.0
 20
34.46450000000001
 30
0.0
 11
126.0
 21
34.46449999999998
 31
0.0
  0
TEXT
  5
16A4
330
1687
100
AcDbEntity
  8
0
100
AcDbText
 10
86.35319943225727
 20
35.17159999999998
 30
0.0
 40
2.0
  1
単相誘導電動機
100
AcDbText
  0
TEXT
  5
16A5
330
1687
100
AcDbEntity
  8
0
100
AcDbText
 10
74.67809444174623
 20
31.6361
 30
0.0
 40
2.0
  1
型式
100
AcDbText
  0
TEXT
  5
16A6
330
1687
100
AcDbEntity
  8
0
100
AcDbText
 10
74.67809444174623
 20
35.17159999999998
 30
0.0
 40
2.0
  1
名称
100
AcDbText
  0
LINE
  5
16A7
330
1687
100
AcDbEntity
  8
0
100
AcDbLine
 10
93.80123573807338
 20
40.12129999999999
 30
0.0
 11
106.1987642619266
 21
40.12129999999999
 31
0.0
  0
LINE
  5
16A8
330
1687
100
AcDbEntity
  8
0
100
AcDbLine
 10
93.80123573807338
 20
39.41419999999999
 30
0.0
 11
106.1987642619266
 21
39.41419999999999
 31
0.0
  0
TEXT
  5
16A9
330
1687
100
AcDbEntity
  8
0
100
AcDbText
 10
93.99902987649658
 20
40.47485
 30
0.0
 40
2.0
  1
モータ仕様
100
AcDbText
  0
ENDBLK
  5
16AB
330
1687
100
AcDbEntity
  8
0
100
AcDbBlockEnd
  0
BLOCK
  5
1702
330
16EB
100
AcDbEntity
  8
0
100
AcDbBlockBegin
  2
BSPEC_90-90-0038
 70
     0
 10
0.0
 20
0.0
 30
0.0
  3
BSPEC_90-90-0038
  1

  0
TEXT
  5
16EC
330
16EB
100
AcDbEntity
  8
0
100
AcDbText
 10
35.94757247309064
 20
40.47485
 30
0.0
 40
2.0
  1
ブレーキ仕様
100
AcDbText
  0
LINE
  5
16ED
330
16EB
100
AcDbEntity
  8
0
100
AcDbLine
 10
35.94757247309064
 20
40.12129999999999
 30
0.0
 11
50.05242752690936
 21
40.12129999999999
 31
0.0
  0
LINE
  5
16EE
330
16EB
100
AcDbEntity
  8
0
100
AcDbLine
 10
35.94757247309064
 20
39.41419999999999
 30
0.0
 11
50.05242752690936
 21
39.41419999999999
 31
0.0
  0
TEXT
  5
16EF
330
16EB
100
AcDbEntity
  8
0
100
AcDbText
 10
29.35319943225727
 20
21.29776682820352
 30
0.0
 40
2.0
  1
0.37N・m（0.038kgf・m）
100
AcDbText
  0
TEXT
  5
16F0
330
16EB
100
AcDbEntity
  8
0
100
AcDbText
 10
29.35319943225727
 20
24.56510000000003
 30
0.0
 40
2.0
  1
12 W （於75℃）
100
AcDbText
  0
TEXT
  5
16F1
330
16EB
100
AcDbEntity
  8
0
100
AcDbText
 10
29.35319943225727
 20
31.6361
 30
0.0
 40
2.0
  1
無励磁作動形（スプリングクローズ）
100
AcDbText
  0
LINE
  5
16F2
330
16EB
100
AcDbEntity
  8
0
100
AcDbLine
 10
17.0
 20
20.32249999999996
 30
0.0
 11
69.0
 21
20.32249999999996
 31
0.0
  0
LINE
  5
16F3
330
16EB
100
AcDbEntity
  8
0
100
AcDbLine
 10
17.0
 20
23.85799999999994
 30
0.0
 11
69.0
 21
23.85799999999994
 31
0.0
  0
LINE
  5
16F4
330
16EB
100
AcDbEntity
  8
0
100
AcDbLine
 10
17.0
 20
27.39349999999999
 30
0.0
 11
69.0
 21
27.39349999999999
 31
0.0
  0
LINE
  5
16F5
330
16EB
100
AcDbEntity
  8
0
100
AcDbLine
 10
17.0
 20
30.929
 30
0.0
 11
69.0
 21
30.92899999999997
 31
0.0
  0
LINE
  5
16F6
330
16EB
100
AcDbEntity
  8
0
100
AcDbLine
 10
17.0
 20
34.46450000000001
 30
0.0
 11
69.0
 21
34.46450000000001
 31
0.0
  0
LINE
  5
16F7
330
16EB
100
AcDbEntity
  8
0
100
AcDbLine
 10
17.0
 20
38.0
 30
0.0
 11
69.0
 21
38.0
 31
0.0
  0
TEXT
  5
16F8
330
16EB
100
AcDbEntity
  8
0
100
AcDbText
 10
29.35319943225727
 20
28.10060000000001
 30
0.0
 40
2.0
  1
DC 90V
100
AcDbText
  0
TEXT
  5
16F9
330
16EB
100
AcDbEntity
  8
0
100
AcDbText
 10
17.67809444174622
 20
28.10059999999998
 30
0.0
 40
2.0
  1
入力電圧
100
AcDbText
  0
LINE
  5
16FA
330
16EB
100
AcDbEntity
  8
0
100
AcDbLine
 10
28.5
 20
20.32249999999996
 30
0.0
 11
28.5
 21
38.0
 31
0.0
  0
LINE
  5
16FB
330
16EB
100
AcDbEntity
  8
0
100
AcDbLine
 10
17.0
 20
20.32249999999996
 30
0.0
 11
17.0
 21
38.0
 31
0.0
  0
TEXT
  5
16FC
330
16EB
100
AcDbEntity
  8
0
100
AcDbText
 10
17.67809444174622
 20
20.93604220928048
 30
0.0
 40
2.0
  1
定格トルク
 41
0.85
100
AcDbText
  0
TEXT
  5
16FD
330
16EB
100
AcDbEntity
  8
0
100
AcDbText
 10
17.67809444174622
 20
24.56509999999994
 30
0.0
 40
2.0
  1
容量
100
AcDbText
  0
TEXT
  5
16FE
330
16EB
100
AcDbEntity
  8
0
100
AcDbText
 10
17.67809444174622
 20
35.17159999999998
 30
0.0
 40
2.0
  1
型式
100
AcDbText
  0
TEXT
  5
16FF
330
16EB
100
AcDbEntity
  8
0
100
AcDbText
 10
17.67809444174622
 20
31.6361
 30
0.0
 40
2.0
  1
方式
100
AcDbText
  0
TEXT
  5
1700
330
16EB
100
AcDbEntity
  8
0
100
AcDbText
 10
29.35319943225727
 20
35.17159999999998
 30
0.0
 40
2.0
  1
BS-90
100
AcDbText
  0
LINE
  5
1701
330
16EB
100
AcDbEntity
  8
0
100
AcDbLine
 10
69.0
 20
20.32249999999996
 30
0.0
 11
69.0
 21
38.0
 31
0.0
  0
ENDBLK
  5
1703
330
16EB
100
AcDbEntity
  8
0
100
AcDbBlockEnd
  0
BLOCK
  5
178F
330
1778
100
AcDbEntity
  8
0
100
AcDbBlockBegin
  2
BSPEC_90-45-0038
 70
     0
 10
0.0
 20
0.0
 30
0.0
  3
BSPEC_90-45-0038
  1

  0
TEXT
  5
1779
330
1778
100
AcDbEntity
  8
0
100
AcDbText
 10
35.94757247309064
 20
40.47485
 30
0.0
 40
2.0
  1
ブレーキ仕様
100
AcDbText
  0
LINE
  5
177A
330
1778
100
AcDbEntity
  8
0
100
AcDbLine
 10
35.94757247309064
 20
40.12129999999999
 30
0.0
 11
50.05242752690936
 21
40.12129999999999
 31
0.0
  0
LINE
  5
177B
330
1778
100
AcDbEntity
  8
0
100
AcDbLine
 10
35.94757247309064
 20
39.41419999999999
 30
0.0
 11
50.05242752690936
 21
39.41419999999999
 31
0.0
  0
TEXT
  5
177C
330
1778
100
AcDbEntity
  8
0
100
AcDbText
 10
29.35319943225727
 20
21.29776682820352
 30
0.0
 40
2.0
  1
0.37N・m（0.038kgf・m）
100
AcDbText
  0
TEXT
  5
177D
330
1778
100
AcDbEntity
  8
0
100
AcDbText
 10
29.35319943225727
 20
24.56510000000003
 30
0.0
 40
2.0
  1
10 W （於75℃）
100
AcDbText
  0
TEXT
  5
177E
330
1778
100
AcDbEntity
  8
0
100
AcDbText
 10
29.35319943225727
 20
31.6361
 30
0.0
 40
2.0
  1
無励磁作動形（スプリングクローズ）
100
AcDbText
  0
LINE
  5
177F
330
1778
100
AcDbEntity
  8
0
100
AcDbLine
 10
17.0
 20
20.32249999999996
 30
0.0
 11
69.0
 21
20.32249999999996
 31
0.0
  0
LINE
  5
1780
330
1778
100
AcDbEntity
  8
0
100
AcDbLine
 10
17.0
 20
23.85799999999994
 30
0.0
 11
69.0
 21
23.85799999999994
 31
0.0
  0
LINE
  5
1781
330
1778
100
AcDbEntity
  8
0
100
AcDbLine
 10
17.0
 20
27.39349999999999
 30
0.0
 11
69.0
 21
27.39349999999999
 31
0.0
  0
LINE
  5
1782
330
1778
100
AcDbEntity
  8
0
100
AcDbLine
 10
17.0
 20
30.929
 30
0.0
 11
69.0
 21
30.92899999999997
 31
0.0
  0
LINE
  5
1783
330
1778
100
AcDbEntity
  8
0
100
AcDbLine
 10
17.0
 20
34.46450000000001
 30
0.0
 11
69.0
 21
34.46450000000001
 31
0.0
  0
LINE
  5
1784
330
1778
100
AcDbEntity
  8
0
100
AcDbLine
 10
17.0
 20
38.0
 30
0.0
 11
69.0
 21
38.0
 31
0.0
  0
TEXT
  5
1785
330
1778
100
AcDbEntity
  8
0
100
AcDbText
 10
29.35319943225727
 20
28.10060000000001
 30
0.0
 40
2.0
  1
DC 45V
100
AcDbText
  0
TEXT
  5
1786
330
1778
100
AcDbEntity
  8
0
100
AcDbText
 10
17.67809444174622
 20
28.10059999999998
 30
0.0
 40
2.0
  1
入力電圧
100
AcDbText
  0
LINE
  5
1787
330
1778
100
AcDbEntity
  8
0
100
AcDbLine
 10
28.5
 20
20.32249999999996
 30
0.0
 11
28.5
 21
38.0
 31
0.0
  0
LINE
  5
1788
330
1778
100
AcDbEntity
  8
0
100
AcDbLine
 10
17.0
 20
20.32249999999996
 30
0.0
 11
17.0
 21
38.0
 31
0.0
  0
TEXT
  5
1789
330
1778
100
AcDbEntity
  8
0
100
AcDbText
 10
17.67809444174622
 20
20.93604220928048
 30
0.0
 40
2.0
  1
定格トルク
 41
0.85
100
AcDbText
  0
TEXT
  5
178A
330
1778
100
AcDbEntity
  8
0
100
AcDbText
 10
17.67809444174622
 20
24.56509999999994
 30
0.0
 40
2.0
  1
容量
100
AcDbText
  0
TEXT
  5
178B
330
1778
100
AcDbEntity
  8
0
100
AcDbText
 10
17.67809444174622
 20
35.17159999999998
 30
0.0
 40
2.0
  1
型式
100
AcDbText
  0
TEXT
  5
178C
330
1778
100
AcDbEntity
  8
0
100
AcDbText
 10
17.67809444174622
 20
31.6361
 30
0.0
 40
2.0
  1
方式
100
AcDbText
  0
TEXT
  5
178D
330
1778
100
AcDbEntity
  8
0
100
AcDbText
 10
29.35319943225727
 20
35.17159999999998
 30
0.0
 40
2.0
  1
BS-90
100
AcDbText
  0
LINE
  5
178E
330
1778
100
AcDbEntity
  8
0
100
AcDbLine
 10
69.0
 20
20.32249999999996
 30
0.0
 11
69.0
 21
38.0
 31
0.0
  0
ENDBLK
  5
1790
330
1778
100
AcDbEntity
  8
0
100
AcDbBlockEnd
  0
ENDSEC
  0
SECTION
  2
ENTITIES
  0
LINE
  5
693
330
2
100
AcDbEntity
  8
0
100
AcDbLine
 10
378.5232207078517
 20
312.0786078426172
 30
0.0
 11
403.0232207078517
 21
312.0786078426172
 31
0.0
  0
LINE
  5
694
330
2
100
AcDbEntity
  8
0
100
AcDbLine
 10
364.3303807078517
 20
450.0786078426172
 30
0.0
 11
414.7160617078517
 21
450.0786078426172
 31
0.0
  0
ARC
  5
695
330
2
100
AcDbEntity
  8
0
100
AcDbCircle
 10
389.5232207078517
 20
157.9667206686732
 30
0.0
 40
11.0
100
AcDbArc
 50
15.82659900000041
 51
344.1733999999998
  0
LINE
  5
696
330
2
100
AcDbEntity
  8
0
100
AcDbLine
 10
361.5232207078517
 20
206.9667206686732
 30
0.0
 11
417.5233127078517
 21
206.9667206686732
 31
0.0
  0
LINE
  5
697
330
2
100
AcDbEntity
  8
0
100
AcDbLine
 10
417.5233127078517
 20
72.96670366867323
 30
0.0
 11
361.5232207078517
 21
72.96670366867323
 31
0.0
  0
LINE
  5
698
330
2
100
AcDbEntity
  8
0
100
AcDbLine
 10
344.5232207078517
 20
67.96670366867323
 30
0.0
 11
434.5233127078517
 21
67.96670366867323
 31
0.0
  0
LINE
  5
699
330
2
100
AcDbEntity
  8
0
100
AcDbLine
 10
434.5233127078517
 20
211.9667206686732
 30
0.0
 11
344.5231447078517
 21
211.9667206686732
 31
0.0
  0
LINE
  5
69A
330
2
100
AcDbEntity
  8
0
100
AcDbLine
 10
372.7732207078517
 20
97.46672466867323
 30
0.0
 11
406.2732207078517
 21
97.46672466867323
 31
0.0
  0
ARC
  5
69B
330
2
100
AcDbEntity
  8
0
100
AcDbCircle
 10
389.5232207078517
 20
157.9667206686732
 30
0.0
 40
30.15
100
AcDbArc
 50
172.447403
 51
7.552696999999989
  0
LINE
  5
69C
330
2
100
AcDbEntity
  8
0
100
AcDbLine
 10
372.7732207078517
 20
95.86672366867322
 30
0.0
 11
406.2732207078517
 21
95.86672366867322
 31
0.0
  0
ARC
  5
69D
330
2
100
AcDbEntity
  8
0
100
AcDbCircle
 10
389.5232207078517
 20
157.9667206686732
 30
0.0
 40
31.75
100
AcDbArc
 50
7.552696999999989
 51
172.447403
  0
CIRCLE
  5
69E
330
2
100
AcDbEntity
  8
0
100
AcDbCircle
 10
389.5232207078517
 20
157.9667206686732
 30
0.0
 40
27.5
  0
ARC
  5
69F
330
2
100
AcDbEntity
  8
0
100
AcDbCircle
 10
389.5232207078517
 20
139.9667356686732
 30
0.0
 40
60.0
100
AcDbArc
 50
228.1896969999997
 51
311.8103030000002
  0
ARC
  5
6A0
330
2
100
AcDbEntity
  8
0
100
AcDbCircle
 10
389.5232207078517
 20
139.9667356686732
 30
0.0
 40
60.0
100
AcDbArc
 50
48.18962099999969
 51
131.8103940000003
  0
LINE
  5
6A1
330
2
100
AcDbEntity
  8
CENTER
100
AcDbLine
 10
344.4953298712261
 20
157.9667206686732
 30
0.0
 11
434.5511915508518
 21
157.9667206686732
 31
0.0
  0
LINE
  5
6A2
330
2
100
AcDbEntity
  8
0
100
AcDbLine
 10
333.5232207078517
 20
356.0786078426172
 30
0.0
 11
445.2347077078517
 21
356.0786078426172
 31
0.0
  0
LINE
  5
6A3
330
2
100
AcDbEntity
  8
0
100
AcDbLine
 10
446.5232207078517
 20
344.0786078426172
 30
0.0
 11
332.5232207078517
 21
344.0786078426172
 31
0.0
  0
LINE
  5
6A4
330
2
100
AcDbEntity
  8
0
100
AcDbLine
 10
324.7732207078517
 20
434.0786078426172
 30
0.0
 11
441.5620087078517
 21
434.0786078426172
 31
0.0
  0
LINE
  5
6A5
330
2
100
AcDbEntity
  8
CENTER
100
AcDbLine
 10
456.8614064211662
 20
402.0786078426172
 30
0.0
 11
87.27334170785173
 21
402.0786078426172
 31
0.0
  0
LINE
  5
6A6
330
2
100
AcDbEntity
  8
CENTER
100
AcDbLine
 10
87.27321970785169
 20
116.4667246686732
 30
0.0
 11
357.5232207078517
 21
116.4667246686732
 31
0.0
  0
LINE
  5
6A7
330
2
100
AcDbEntity
  8
0
100
AcDbLine
 10
158.7732207078517
 20
86.21774266867323
 30
0.0
 11
264.7732207078518
 21
86.21774266867323
 31
0.0
  0
LINE
  5
6A8
330
2
100
AcDbEntity
  8
0
100
AcDbLine
 10
158.7732207078517
 20
146.7157056686732
 30
0.0
 11
264.7732207078518
 21
146.7157056686732
 31
0.0
  0
LINE
  5
6A9
330
2
100
AcDbEntity
  8
0
100
AcDbLine
 10
158.7732207078517
 20
78.46674366867325
 30
0.0
 11
272.7732207078517
 21
78.46674366867325
 31
0.0
  0
LINE
  5
6AA
330
2
100
AcDbEntity
  8
0
100
AcDbLine
 10
158.7732207078517
 20
154.4667046686732
 30
0.0
 11
272.7732207078517
 21
154.4667046686732
 31
0.0
  0
LINE
  5
6AB
330
2
100
AcDbEntity
  8
0
100
AcDbLine
 10
158.7732207078517
 20
78.46672366867323
 30
0.0
 11
158.7732207078517
 21
154.4667046686732
 31
0.0
  0
LINE
  5
6AC
330
2
100
AcDbEntity
  8
0
100
AcDbLine
 10
100.2732197078517
 20
81.46670366867324
 30
0.0
 11
100.2732197078517
 21
151.4667046686732
 31
0.0
  0
LINE
  5
6AD
330
2
100
AcDbEntity
  8
0
100
AcDbLine
 10
149.2732207078518
 20
76.46670366867323
 30
0.0
 11
149.2732207078518
 21
156.4667046686732
 31
0.0
  0
LINE
  5
6AF
330
2
100
AcDbEntity
  8
0
100
AcDbLine
 10
102.7732197078516
 20
92.46670366867324
 30
0.0
 11
149.2732207078518
 21
92.46670366867324
 31
0.0
  0
LINE
  5
6B0
330
2
100
AcDbEntity
  8
0
100
AcDbLine
 10
105.2732197078517
 20
76.46670366867323
 30
0.0
 11
149.2732207078518
 21
76.46670366867323
 31
0.0
  0
ARC
  5
6B1
330
2
100
AcDbEntity
  8
0
100
AcDbCircle
 10
105.2732197078517
 20
81.46670366867324
 30
0.0
 40
5.0
100
AcDbArc
 50
180.0
 51
270.0
  0
LINE
  5
6B2
330
2
100
AcDbEntity
  8
0
100
AcDbLine
 10
149.2732207078518
 20
86.21770466867323
 30
0.0
 11
158.7732207078517
 21
86.21770466867323
 31
0.0
  0
LINE
  5
6B3
330
2
100
AcDbEntity
  8
0
100
AcDbLine
 10
149.2732207078518
 20
78.46670366867323
 30
0.0
 11
158.7732207078517
 21
78.46670366867323
 31
0.0
  0
LINE
  5
6B4
330
2
100
AcDbEntity
  8
0
100
AcDbLine
 10
102.7732197078516
 20
142.4667046686732
 30
0.0
 11
149.2732207078518
 21
142.4667046686732
 31
0.0
  0
LINE
  5
6B5
330
2
100
AcDbEntity
  8
0
100
AcDbLine
 10
105.2732197078517
 20
156.4667046686732
 30
0.0
 11
149.2732207078518
 21
156.4667046686732
 31
0.0
  0
ARC
  5
6B6
330
2
100
AcDbEntity
  8
0
100
AcDbCircle
 10
105.2732197078517
 20
151.4667046686732
 30
0.0
 40
5.0
100
AcDbArc
 50
90.0
 51
180.0
  0
ARC
  5
6B7
330
2
100
AcDbEntity
  8
0
100
AcDbCircle
 10
149.2732207078518
 20
140.8357996686732
 30
0.0
 40
4.5
100
AcDbArc
 50
0.0
 51
90.0
  0
LINE
  5
6B8
330
2
100
AcDbEntity
  8
0
100
AcDbLine
 10
149.2732207078518
 20
146.7157056686732
 30
0.0
 11
158.7732207078517
 21
146.7157056686732
 31
0.0
  0
LINE
  5
6BB
330
2
100
AcDbEntity
  8
0
100
AcDbLine
 10
149.2732207078518
 20
154.4667046686732
 30
0.0
 11
158.7732207078517
 21
154.4667046686732
 31
0.0
  0
LINE
  5
6BC
330
2
100
AcDbEntity
  8
HOJO
100
AcDbLine
 10
150.7732207078518
 20
135.8357996686732
 30
0.0
 11
152.2732207078518
 21
136.3357996686732
 31
0.0
  0
LINE
  5
6BD
330
2
100
AcDbEntity
  8
0
100
AcDbLine
 10
150.7732207078518
 20
140.8357996686732
 30
0.0
 11
150.7732207078518
 21
135.8202056686732
 31
0.0
  0
ARC
  5
6BE
330
2
100
AcDbEntity
  8
0
100
AcDbCircle
 10
149.2732207078518
 20
140.8357996686732
 30
0.0
 40
3.0
100
AcDbArc
 50
0.0
 51
90.0
  0
LINE
  5
6BF
330
2
100
AcDbEntity
  8
HOJO
100
AcDbLine
 10
152.2732207078518
 20
136.8357996686732
 30
0.0
 11
153.7732207078517
 21
136.3357996686732
 31
0.0
  0
LINE
  5
6C0
330
2
100
AcDbEntity
  8
0
100
AcDbLine
 10
153.7732207078517
 20
140.8357996686732
 30
0.0
 11
153.7732207078517
 21
136.3357996686732
 31
0.0
  0
LINE
  5
6C1
330
2
100
AcDbEntity
  8
0
100
AcDbLine
 10
152.2732207078518
 20
140.8357996686732
 30
0.0
 11
152.2732207078518
 21
136.3357996686732
 31
0.0
  0
ARC
  5
6C2
330
2
100
AcDbEntity
  8
0
100
AcDbCircle
 10
149.2732207078518
 20
140.8357996686732
 30
0.0
 40
1.5
100
AcDbArc
 50
0.0
 51
90.0
  0
LINE
  5
6CB
330
2
100
AcDbEntity
  8
0
100
AcDbLine
 10
272.7732207078517
 20
154.4667206686732
 30
0.0
 11
272.7732207078517
 21
78.46672366867323
 31
0.0
  0
LINE
  5
6CC
330
2
100
AcDbEntity
  8
0
100
AcDbLine
 10
316.7732207078517
 20
183.9667206686732
 30
0.0
 11
316.7732207078517
 21
86.5540676686732
 31
0.0
  0
LINE
  5
6CD
330
2
100
AcDbEntity
  8
0
100
AcDbLine
 10
264.7732207078518
 20
152.4667046686732
 30
0.0
 11
264.7732207078518
 21
80.46672366867325
 31
0.0
  0
LINE
  5
6CE
330
2
100
AcDbEntity
  8
0
100
AcDbLine
 10
324.7732367078517
 20
184.9667206686732
 30
0.0
 11
324.7732367078517
 21
69.96672366867324
 31
0.0
  0
LINE
  5
6CF
330
2
100
AcDbEntity
  8
0
100
AcDbLine
 10
337.5231447078517
 20
182.9667046686732
 30
0.0
 11
337.5231447078517
 21
96.96672466867324
 31
0.0
  0
LINE
  5
6D0
330
2
100
AcDbEntity
  8
0
100
AcDbLine
 10
332.5231447078517
 20
199.9666896686732
 30
0.0
 11
332.5231447078517
 21
79.96668366867322
 31
0.0
  0
LINE
  5
6D1
330
2
100
AcDbEntity
  8
0
100
AcDbLine
 10
353.9380157078517
 20
118.9640196686732
 30
0.0
 11
359.6348237078517
 21
161.9295426686732
 31
0.0
  0
LINE
  5
6D2
330
2
100
AcDbEntity
  8
0
100
AcDbLine
 10
352.3518347078517
 20
119.1743166686732
 30
0.0
 11
358.0486427078517
 21
162.1398236686732
 31
0.0
  0
LINE
  5
6D3
330
2
100
AcDbEntity
  8
0
100
AcDbLine
 10
339.5231447078517
 20
162.3274226686732
 30
0.0
 11
339.5231447078517
 21
117.6060366686732
 31
0.0
  0
LINE
  5
6D4
330
2
100
AcDbEntity
  8
0
100
AcDbLine
 10
272.7732207078517
 20
96.86672366867322
 30
0.0
 11
316.7732207078517
 21
96.86672366867322
 31
0.0
  0
LINE
  5
6D5
330
2
100
AcDbEntity
  8
0
100
AcDbLine
 10
272.7732207078517
 20
107.0667226686732
 30
0.0
 11
316.7732207078517
 21
107.0667226686732
 31
0.0
  0
LINE
  5
6D6
330
2
100
AcDbEntity
  8
0
100
AcDbLine
 10
324.7732207078517
 20
76.65084366867325
 30
0.0
 11
272.7732207078517
 21
78.46672366867323
 31
0.0
  0
ARC
  5
6D7
330
2
100
AcDbEntity
  8
0
100
AcDbCircle
 10
266.7732207078518
 20
80.46674366867325
 30
0.0
 40
2.0
100
AcDbArc
 50
180.0
 51
270.0
  0
ARC
  5
6D8
330
2
100
AcDbEntity
  8
0
100
AcDbCircle
 10
343.5231447078517
 20
96.96672466867324
 30
0.0
 40
6.0
100
AcDbArc
 50
180.0
 51
270.0
  0
ARC
  5
6D9
330
2
100
AcDbEntity
  8
0
100
AcDbCircle
 10
344.5231447078517
 20
79.96670366867324
 30
0.0
 40
12.0
100
AcDbArc
 50
180.0
 51
270.0
  0
ARC
  5
6DB
330
2
100
AcDbEntity
  8
0
100
AcDbCircle
 10
369.5232207078517
 20
117.6060366686732
 30
0.0
 40
30.0
100
AcDbArc
 50
180.0
 51
228.1896969999997
  0
ARC
  5
6DC
330
2
100
AcDbEntity
  8
0
100
AcDbCircle
 10
314.2732207078517
 20
74.51598766867324
 30
0.0
 40
2.5
100
AcDbArc
 50
0.0
 51
88.00000000000043
  0
LINE
  5
6DD
330
2
100
AcDbEntity
  8
0
100
AcDbLine
 10
331.3353547078517
 20
71.15020366867321
 30
0.0
 11
331.8858007078517
 21
79.40662366867323
 31
0.0
  0
LINE
  5
6DE
330
2
100
AcDbEntity
  8
0
100
AcDbLine
 10
330.3375977078517
 20
70.21670366867323
 30
0.0
 11
324.7732367078517
 21
70.21670366867323
 31
0.0
  0
ARC
  5
6DF
330
2
100
AcDbEntity
  8
0
100
AcDbCircle
 10
319.2732207078517
 20
72.46672366867324
 30
0.0
 40
2.5
100
AcDbArc
 50
180.0
 51
270.0
  0
LINE
  5
6E0
330
2
100
AcDbEntity
  8
0
100
AcDbLine
 10
319.2732207078517
 20
69.96672366867324
 30
0.0
 11
324.7732207078517
 21
69.96672366867324
 31
0.0
  0
LINE
  5
6E1
330
2
100
AcDbEntity
  8
0
100
AcDbLine
 10
316.7732207078517
 20
72.46672366867324
 30
0.0
 11
316.7732207078517
 21
74.51598766867324
 31
0.0
  0
ARC
  5
6E2
330
2
100
AcDbEntity
  8
0
100
AcDbCircle
 10
330.3375977078517
 20
71.21670366867324
 30
0.0
 40
1.0
100
AcDbArc
 50
270.0
 51
356.1857910000001
  0
LINE
  5
6E3
330
2
100
AcDbEntity
  8
0
100
AcDbLine
 10
324.7732367078517
 20
79.96670366867324
 30
0.0
 11
332.5231447078517
 21
79.96670366867324
 31
0.0
  0
LINE
  5
6E4
330
2
100
AcDbEntity
  8
0
100
AcDbLine
 10
317.8982977078517
 20
84.31272266867324
 30
0.0
 11
324.7732207078517
 21
84.31272266867324
 31
0.0
  0
ARC
  5
6E5
330
2
100
AcDbEntity
  8
0
100
AcDbCircle
 10
332.4844947078517
 20
79.36672366867322
 30
0.0
 40
0.6
100
AcDbArc
 50
90.0
 51
176.1860960000001
  0
LINE
  5
6E6
330
2
100
AcDbEntity
  8
0
100
AcDbLine
 10
331.3200197078517
 20
95.50674466867324
 30
0.0
 11
324.7732367078517
 21
95.50674466867324
 31
0.0
  0
ARC
  5
6E7
330
2
100
AcDbEntity
  8
0
100
AcDbCircle
 10
344.5231447078517
 20
79.96670366867324
 30
0.0
 40
11.0
100
AcDbArc
 50
0.0
 51
90.0
  0
ARC
  5
6E8
330
2
100
AcDbEntity
  8
0
100
AcDbCircle
 10
372.7732207078517
 20
116.4667276686732
 30
0.0
 40
20.6
100
AcDbArc
 50
172.447403
 51
270.0
  0
ARC
  5
6E9
330
2
100
AcDbEntity
  8
0
100
AcDbCircle
 10
361.5232207078517
 20
78.96670366867323
 30
0.0
 40
6.0
100
AcDbArc
 50
180.0
 51
270.0
  0
CIRCLE
  5
6EA
330
2
100
AcDbEntity
  8
0
100
AcDbCircle
 10
344.5231447078517
 20
79.96670366867324
 30
0.0
 40
5.5
  0
LINE
  5
6EC
330
2
100
AcDbEntity
  8
0
100
AcDbLine
 10
343.5231447078517
 20
90.96670366867323
 30
0.0
 11
344.5231447078517
 21
90.96670366867323
 31
0.0
  0
LINE
  5
6ED
330
2
100
AcDbEntity
  8
0
100
AcDbLine
 10
355.5232207078517
 20
78.96670366867323
 30
0.0
 11
355.5232207078517
 21
79.96670366867324
 31
0.0
  0
ARC
  5
6EE
330
2
100
AcDbEntity
  8
0
100
AcDbCircle
 10
372.7732207078517
 20
116.4667276686732
 30
0.0
 40
19.0
100
AcDbArc
 50
172.4476009999999
 51
270.0
  0
ARC
  5
6EF
330
2
100
AcDbEntity
  8
0
100
AcDbCircle
 10
377.8670327078517
 20
108.8729706686732
 30
0.0
 40
2.5
100
AcDbArc
 50
270.0002139999998
 51
0.0001089999998967
  0
LINE
  5
6F0
330
2
100
AcDbEntity
  8
0
100
AcDbLine
 10
373.5232207078517
 20
106.5239026686732
 30
0.0
 11
375.0664337078517
 21
104.9667246686732
 31
0.0
  0
LINE
  5
6F1
330
2
100
AcDbEntity
  8
0
100
AcDbLine
 10
374.8670327078517
 20
107.3396646686732
 30
0.0
 11
375.7846347078517
 21
106.3729626686732
 31
0.0
  0
LINE
  5
6F2
330
2
100
AcDbEntity
  8
0
100
AcDbLine
 10
381.5232207078517
 20
111.9354776686732
 30
0.0
 11
381.5232207078517
 21
104.9667246686732
 31
0.0
  0
LINE
  5
6F3
330
2
100
AcDbEntity
  8
0
100
AcDbLine
 10
379.2268347078517
 20
104.9667246686732
 30
0.0
 11
375.0664337078517
 21
104.9667246686732
 31
0.0
  0
LINE
  5
6F4
330
2
100
AcDbEntity
  8
0
100
AcDbLine
 10
377.8670327078517
 20
106.3729626686732
 30
0.0
 11
375.7846347078517
 21
106.3729626686732
 31
0.0
  0
LINE
  5
6F5
330
2
100
AcDbEntity
  8
0
100
AcDbLine
 10
380.3670327078517
 20
105.9232826686732
 30
0.0
 11
379.2268347078517
 21
104.9667246686732
 31
0.0
  0
LINE
  5
6F6
330
2
100
AcDbEntity
  8
0
100
AcDbLine
 10
380.3670327078517
 20
104.9667246686732
 30
0.0
 11
381.5232207078517
 21
104.9667246686732
 31
0.0
  0
LINE
  5
6F7
330
2
100
AcDbEntity
  8
0
100
AcDbLine
 10
380.3670327078517
 20
105.9232826686732
 30
0.0
 11
380.3670327078517
 21
104.9667246686732
 31
0.0
  0
LINE
  5
6F8
330
2
100
AcDbEntity
  8
0
100
AcDbLine
 10
374.8670327078517
 20
114.2529826686732
 30
0.0
 11
374.8670327078517
 21
107.3396646686732
 31
0.0
  0
LINE
  5
6F9
330
2
100
AcDbEntity
  8
0
100
AcDbLine
 10
373.5232207078517
 20
115.1069716686732
 30
0.0
 11
373.5232207078517
 21
106.5239026686732
 31
0.0
  0
LINE
  5
6FA
330
2
100
AcDbEntity
  8
0
100
AcDbLine
 10
380.3670327078517
 20
110.6229776686732
 30
0.0
 11
378.2732207078517
 21
110.6229776686732
 31
0.0
  0
LINE
  5
6FB
330
2
100
AcDbEntity
  8
0
100
AcDbLine
 10
378.2732207078517
 20
111.9354776686732
 30
0.0
 11
381.5232207078517
 21
111.9354776686732
 31
0.0
  0
LINE
  5
6FC
330
2
100
AcDbEntity
  8
0
100
AcDbLine
 10
378.2732207078517
 20
111.9354776686732
 30
0.0
 11
378.2732207078517
 21
110.6229776686732
 31
0.0
  0
LINE
  5
6FD
330
2
100
AcDbEntity
  8
0
100
AcDbLine
 10
380.3670327078517
 20
110.6229776686732
 30
0.0
 11
380.3670327078517
 21
108.8729776686732
 31
0.0
  0
LINE
  5
6FE
330
2
100
AcDbEntity
  8
0
100
AcDbLine
 10
380.3670327078517
 20
109.3729776686732
 30
0.0
 11
380.3670327078517
 21
110.3729776686732
 31
0.0
  0
LINE
  5
6FF
330
2
100
AcDbEntity
  8
0
100
AcDbLine
 10
374.9756447078517
 20
116.9667276686732
 30
0.0
 11
380.3550087078517
 21
116.9667276686732
 31
0.0
  0
LINE
  5
700
330
2
100
AcDbEntity
  8
0
100
AcDbLine
 10
379.6252417078517
 20
115.3729776686732
 30
0.0
 11
375.7702307078517
 21
115.3729776686732
 31
0.0
  0
LINE
  5
701
330
2
100
AcDbEntity
  8
0
100
AcDbLine
 10
374.9756447078517
 20
116.9667276686732
 30
0.0
 11
373.5232207078517
 21
115.1069716686732
 31
0.0
  0
LINE
  5
702
330
2
100
AcDbEntity
  8
0
100
AcDbLine
 10
375.7702307078517
 20
115.3729776686732
 30
0.0
 11
374.8670327078517
 21
114.2529826686732
 31
0.0
  0
LINE
  5
703
330
2
100
AcDbEntity
  8
0
100
AcDbLine
 10
380.3670327078517
 20
114.6558756686732
 30
0.0
 11
380.3670327078517
 21
114.4667276686732
 31
0.0
  0
LINE
  5
704
330
2
100
AcDbEntity
  8
0
100
AcDbLine
 10
381.5232207078517
 20
115.6702346686732
 30
0.0
 11
381.5232207078517
 21
114.4667276686732
 31
0.0
  0
LINE
  5
705
330
2
100
AcDbEntity
  8
0
100
AcDbLine
 10
380.3670327078517
 20
114.4667276686732
 30
0.0
 11
381.5232207078517
 21
114.4667276686732
 31
0.0
  0
LINE
  5
706
330
2
100
AcDbEntity
  8
0
100
AcDbLine
 10
380.3550087078517
 20
116.9667276686732
 30
0.0
 11
381.5232207078517
 21
115.6702346686732
 31
0.0
  0
LINE
  5
707
330
2
100
AcDbEntity
  8
0
100
AcDbLine
 10
380.3670327078517
 20
114.6558756686732
 30
0.0
 11
379.6100437078517
 21
115.3729776686732
 31
0.0
  0
LINE
  5
708
330
2
100
AcDbEntity
  8
0
100
AcDbLine
 10
315.3600897078517
 20
167.7845306686732
 30
0.0
 11
289.4166687078517
 21
155.2601166686732
 31
0.0
  0
LINE
  5
709
330
2
100
AcDbEntity
  8
0
100
AcDbLine
 10
314.3604707078517
 20
155.9189836686732
 30
0.0
 11
272.7732207078517
 21
154.4667206686732
 31
0.0
  0
ARC
  5
70B
330
2
100
AcDbEntity
  8
0
100
AcDbCircle
 10
266.7732207078518
 20
152.4667206686732
 30
0.0
 40
2.0
100
AcDbArc
 50
90.0
 51
180.0
  0
ARC
  5
70C
330
2
100
AcDbEntity
  8
0
100
AcDbCircle
 10
288.3297857078517
 20
157.5114976686732
 30
0.0
 40
2.5
100
AcDbArc
 50
272.0000000000004
 51
295.769318
  0
ARC
  5
70E
330
2
100
AcDbEntity
  8
0
100
AcDbCircle
 10
369.5232207078517
 20
162.3274226686732
 30
0.0
 40
30.0
100
AcDbArc
 50
131.8103940000003
 51
180.0
  0
ARC
  5
70F
330
2
100
AcDbEntity
  8
0
100
AcDbCircle
 10
314.2732207078517
 20
158.4174576686732
 30
0.0
 40
2.5
100
AcDbArc
 50
271.9999999999995
 51
0.0
  0
LINE
  5
710
330
2
100
AcDbEntity
  8
0
100
AcDbLine
 10
331.3200197078517
 20
159.4267426686732
 30
0.0
 11
324.7732367078517
 21
159.4267426686732
 31
0.0
  0
LINE
  5
711
330
2
100
AcDbEntity
  8
0
100
AcDbLine
 10
331.3200197078517
 20
174.9667046686732
 30
0.0
 11
324.7732367078517
 21
174.9667046686732
 31
0.0
  0
ARC
  5
712
330
2
100
AcDbEntity
  8
0
100
AcDbCircle
 10
314.2732207078517
 20
170.0359036686732
 30
0.0
 40
2.5
100
AcDbArc
 50
295.7693249999996
 51
0.0
  0
ARC
  5
713
330
2
100
AcDbEntity
  8
0
100
AcDbCircle
 10
343.5231757078518
 20
182.9667656686732
 30
0.0
 40
6.0
100
AcDbArc
 50
90.0
 51
180.0
  0
ARC
  5
714
330
2
100
AcDbEntity
  8
0
100
AcDbCircle
 10
344.5231447078517
 20
199.9667206686732
 30
0.0
 40
12.0
100
AcDbArc
 50
90.0
 51
180.0
  0
LINE
  5
716
330
2
100
AcDbEntity
  8
0
100
AcDbLine
 10
324.7732367078517
 20
184.7167046686732
 30
0.0
 11
332.5231447078517
 21
184.7167046686732
 31
0.0
  0
LINE
  5
717
330
2
100
AcDbEntity
  8
0
100
AcDbLine
 10
317.7732207078517
 20
184.9667206686732
 30
0.0
 11
324.7732367078517
 21
184.9667206686732
 31
0.0
  0
ARC
  5
718
330
2
100
AcDbEntity
  8
0
100
AcDbCircle
 10
317.7732207078517
 20
183.9667206686732
 30
0.0
 40
1.0
100
AcDbArc
 50
90.0
 51
180.0
  0
ARC
  5
719
330
2
100
AcDbEntity
  8
0
100
AcDbCircle
 10
361.5232207078517
 20
200.9667816686732
 30
0.0
 40
6.0
100
AcDbArc
 50
90.0
 51
180.0
  0
ARC
  5
71A
330
2
100
AcDbEntity
  8
0
100
AcDbCircle
 10
344.5231447078517
 20
199.9667206686732
 30
0.0
 40
11.0
100
AcDbArc
 50
270.0
 51
0.0
  0
CIRCLE
  5
71B
330
2
100
AcDbEntity
  8
0
100
AcDbCircle
 10
344.5231447078517
 20
199.9667206686732
 30
0.0
 40
5.5
  0
LINE
  5
71D
330
2
100
AcDbEntity
  8
0
100
AcDbLine
 10
343.5231447078517
 20
188.9667046686732
 30
0.0
 11
344.5231447078517
 21
188.9667046686732
 31
0.0
  0
LINE
  5
71E
330
2
100
AcDbEntity
  8
0
100
AcDbLine
 10
355.5232207078517
 20
200.9667206686732
 30
0.0
 11
355.5232207078517
 21
199.9667206686732
 31
0.0
  0
LINE
  5
71F
330
2
100
AcDbEntity
  8
0
100
AcDbLine
 10
199.7730227078518
 20
379.0786078426171
 30
0.0
 11
264.7733437078517
 21
379.0786078426172
 31
0.0
  0
LINE
  5
720
330
2
100
AcDbEntity
  8
0
100
AcDbLine
 10
199.7732207078518
 20
425.0786078426172
 30
0.0
 11
264.7733437078517
 21
425.0786078426172
 31
0.0
  0
LINE
  5
721
330
2
100
AcDbEntity
  8
0
100
AcDbLine
 10
158.7733437078517
 20
364.0786378426172
 30
0.0
 11
272.7733437078517
 21
364.0786378426172
 31
0.0
  0
LINE
  5
722
330
2
100
AcDbEntity
  8
0
100
AcDbLine
 10
158.7733437078517
 20
440.0785768426172
 30
0.0
 11
272.7733437078517
 21
440.0785768426172
 31
0.0
  0
LINE
  5
723
330
2
100
AcDbEntity
  8
0
100
AcDbLine
 10
100.2733417078517
 20
367.0785768426172
 30
0.0
 11
100.2733417078517
 21
437.0785768426172
 31
0.0
  0
LINE
  5
724
330
2
100
AcDbEntity
  8
0
100
AcDbLine
 10
149.2733437078517
 20
362.0785768426172
 30
0.0
 11
149.2733437078517
 21
394.5786078426172
 31
0.0
  0
LINE
  5
725
330
2
100
AcDbEntity
  8
0
100
AcDbLine
 10
158.7733437078517
 20
377.0786078426171
 30
0.0
 11
158.7733437078517
 21
364.0785768426172
 31
0.0
  0
LINE
  5
726
330
2
100
AcDbEntity
  8
0
100
AcDbLine
 10
102.7733417078517
 20
376.0785768426172
 30
0.0
 11
149.2733437078517
 21
376.0785768426172
 31
0.0
  0
LINE
  5
727
330
2
100
AcDbEntity
  8
0
100
AcDbLine
 10
105.2733417078517
 20
362.0785768426172
 30
0.0
 11
149.2733437078517
 21
362.0785768426172
 31
0.0
  0
ARC
  5
728
330
2
100
AcDbEntity
  8
0
100
AcDbCircle
 10
105.2733417078517
 20
367.0785768426172
 30
0.0
 40
5.0
100
AcDbArc
 50
180.0
 51
270.0
  0
ARC
  5
729
330
2
100
AcDbEntity
  8
0
100
AcDbCircle
 10
149.2733437078517
 20
369.8087408426172
 30
0.0
 40
4.5
100
AcDbArc
 50
0.0
 51
90.0
  0
LINE
  5
72A
330
2
100
AcDbEntity
  8
0
100
AcDbLine
 10
149.7731447078518
 20
379.0785768426172
 30
0.0
 11
149.2733437078517
 21
379.0785768426172
 31
0.0
  0
LINE
  5
72B
330
2
100
AcDbEntity
  8
0
100
AcDbLine
 10
158.7733437078517
 20
364.0785768426172
 30
0.0
 11
149.2733437078517
 21
364.0785768426172
 31
0.0
  0
LINE
  5
72C
330
2
100
AcDbEntity
  8
0
100
AcDbLine
 10
153.7733437078517
 20
369.8087408426172
 30
0.0
 11
153.7733437078517
 21
365.3087408426172
 31
0.0
  0
LINE
  5
72D
330
2
100
AcDbEntity
  8
0
100
AcDbLine
 10
152.2733437078517
 20
369.8087408426172
 30
0.0
 11
152.2733437078517
 21
365.3087408426172
 31
0.0
  0
LINE
  5
72E
330
2
100
AcDbEntity
  8
0
100
AcDbLine
 10
150.7733437078517
 20
369.8087408426172
 30
0.0
 11
150.7733437078517
 21
364.7931458426171
 31
0.0
  0
LINE
  5
72F
330
2
100
AcDbEntity
  8
HOJO
100
AcDbLine
 10
152.2733437078517
 20
365.8087408426172
 30
0.0
 11
153.7733437078517
 21
365.3087408426172
 31
0.0
  0
LINE
  5
730
330
2
100
AcDbEntity
  8
HOJO
100
AcDbLine
 10
150.7733437078517
 20
364.8087408426172
 30
0.0
 11
152.2733437078517
 21
365.3087408426172
 31
0.0
  0
ARC
  5
731
330
2
100
AcDbEntity
  8
0
100
AcDbCircle
 10
149.2733437078517
 20
369.8087408426172
 30
0.0
 40
1.5
100
AcDbArc
 50
0.0
 51
90.0
  0
ARC
  5
732
330
2
100
AcDbEntity
  8
0
100
AcDbCircle
 10
149.2733437078517
 20
369.8087408426172
 30
0.0
 40
3.0
100
AcDbArc
 50
0.0
 51
90.0
  0
LINE
  5
733
330
2
100
AcDbEntity
  8
0
100
AcDbLine
 10
102.7733417078517
 20
426.0785768426172
 30
0.0
 11
149.2733437078517
 21
426.0785768426172
 31
0.0
  0
LINE
  5
734
330
2
100
AcDbEntity
  8
0
100
AcDbLine
 10
105.2733417078517
 20
442.0785768426171
 30
0.0
 11
149.2733437078517
 21
442.0785768426171
 31
0.0
  0
ARC
  5
735
330
2
100
AcDbEntity
  8
0
100
AcDbCircle
 10
105.2733417078517
 20
437.0785768426172
 30
0.0
 40
5.0
100
AcDbArc
 50
90.0
 51
180.0
  0
LINE
  5
738
330
2
100
AcDbEntity
  8
0
100
AcDbLine
 10
149.7731137078518
 20
425.0785768426172
 30
0.0
 11
149.2733437078517
 21
425.0785768426172
 31
0.0
  0
LINE
  5
739
330
2
100
AcDbEntity
  8
0
100
AcDbLine
 10
158.7733437078517
 20
440.0785768426172
 30
0.0
 11
149.2733437078517
 21
440.0785768426172
 31
0.0
  0
LINE
  5
73D
330
2
100
AcDbEntity
  8
0
100
AcDbLine
 10
158.7733437078517
 20
440.0785768426172
 30
0.0
 11
158.7733437078517
 21
427.0786078426172
 31
0.0
  0
LINE
  5
747
330
2
100
AcDbEntity
  8
0
100
AcDbLine
 10
315.9050417078517
 20
371.9726198426172
 30
0.0
 11
294.1519287078517
 21
390.7147158426172
 31
0.0
  0
LINE
  5
748
330
2
100
AcDbEntity
  8
0
100
AcDbLine
 10
272.7732207078517
 20
440.0786078426172
 30
0.0
 11
272.7732207078517
 21
364.0786078426172
 31
0.0
  0
LINE
  5
749
330
2
100
AcDbEntity
  8
0
100
AcDbLine
 10
272.7732207078517
 20
440.0786078426172
 30
0.0
 11
272.7732207078517
 21
364.0786078426172
 31
0.0
  0
LINE
  5
74A
330
2
100
AcDbEntity
  8
0
100
AcDbLine
 10
316.7732207078517
 20
347.0786078426172
 30
0.0
 11
316.7732207078517
 21
457.0786078426173
 31
0.0
  0
ARC
  5
74B
330
2
100
AcDbEntity
  8
0
100
AcDbCircle
 10
274.3388037078517
 20
403.6722968426172
 30
0.0
 40
65.0
100
AcDbArc
 50
337.9579239999996
 51
19.04138800000043
  0
LINE
  5
74C
330
2
100
AcDbEntity
  8
0
100
AcDbLine
 10
369.5232207078517
 20
434.0786078426172
 30
0.0
 11
369.5232207078517
 21
356.8809148426172
 31
0.0
  0
LINE
  5
74D
330
2
100
AcDbEntity
  8
0
100
AcDbLine
 10
324.7732207078517
 20
459.5786078426172
 30
0.0
 11
324.7732207078517
 21
344.5786078426172
 31
0.0
  0
LINE
  5
74E
330
2
100
AcDbEntity
  8
0
100
AcDbLine
 10
314.3604707078517
 20
362.6263368426172
 30
0.0
 11
272.7732207078517
 21
364.0786078426172
 31
0.0
  0
LINE
  5
74F
330
2
100
AcDbEntity
  8
0
100
AcDbLine
 10
264.7733437078517
 20
379.0786078426172
 30
0.0
 11
264.7733437078517
 21
366.0786078426172
 31
0.0
  0
ARC
  5
750
330
2
100
AcDbEntity
  8
0
100
AcDbCircle
 10
266.7733437078517
 20
366.0786378426172
 30
0.0
 40
2.0
100
AcDbArc
 50
180.0
 51
270.0
  0
LINE
  5
751
330
2
100
AcDbEntity
  8
0
100
AcDbLine
 10
378.5232207078517
 20
344.0786078426172
 30
0.0
 11
378.5232207078517
 21
312.0786078426172
 31
0.0
  0
ARC
  5
752
330
2
100
AcDbEntity
  8
0
100
AcDbCircle
 10
314.2732207078517
 20
360.1278628426172
 30
0.0
 40
2.5
100
AcDbArc
 50
0.0
 51
88.00000000000043
  0
LINE
  5
753
330
2
100
AcDbEntity
  8
0
100
AcDbLine
 10
334.5878577078517
 20
379.2786198426172
 30
0.0
 11
334.0039187078517
 21
356.9839118426172
 31
0.0
  0
ARC
  5
754
330
2
100
AcDbEntity
  8
0
100
AcDbCircle
 10
319.2732207078517
 20
347.0786078426172
 30
0.0
 40
2.5
100
AcDbArc
 50
180.0
 51
270.0
  0
LINE
  5
755
330
2
100
AcDbEntity
  8
0
100
AcDbLine
 10
332.5232207078517
 20
355.0786078426172
 30
0.0
 11
332.5232207078517
 21
344.0786078426172
 31
0.0
  0
LINE
  5
756
330
2
100
AcDbEntity
  8
0
100
AcDbLine
 10
332.0232207078517
 20
344.8286078426172
 30
0.0
 11
324.7732207078517
 21
344.8286078426172
 31
0.0
  0
LINE
  5
757
330
2
100
AcDbEntity
  8
0
100
AcDbLine
 10
327.2732207078517
 20
344.8286078426172
 30
0.0
 11
324.7732207078517
 21
344.8286078426172
 31
0.0
  0
LINE
  5
758
330
2
100
AcDbEntity
  8
0
100
AcDbLine
 10
319.2732207078517
 20
344.5786078426172
 30
0.0
 11
324.7732207078517
 21
344.5786078426172
 31
0.0
  0
ARC
  5
759
330
2
100
AcDbEntity
  8
0
100
AcDbCircle
 10
332.0232207078517
 20
344.3286078426172
 30
0.0
 40
0.5
100
AcDbArc
 50
0.0
 51
90.0
  0
LINE
  5
75A
330
2
100
AcDbEntity
  8
0
100
AcDbLine
 10
332.0398227078517
 20
354.5786078426172
 30
0.0
 11
324.7732207078517
 21
354.5786078426172
 31
0.0
  0
ARC
  5
75B
330
2
100
AcDbEntity
  8
0
100
AcDbCircle
 10
333.5232207078517
 20
355.0786078426172
 30
0.0
 40
1.0
100
AcDbArc
 50
90.0
 51
180.0
  0
ARC
  5
75C
330
2
100
AcDbEntity
  8
0
100
AcDbCircle
 10
333.0042547078517
 20
357.0100958426172
 30
0.0
 40
1.0
100
AcDbArc
 50
285.0391850000003
 51
358.4996640000001
  0
LINE
  5
75D
330
2
100
AcDbEntity
  8
0
100
AcDbLine
 10
333.4774447078517
 20
370.0786078426172
 30
0.0
 11
324.7732207078517
 21
370.0786078426172
 31
0.0
  0
ARC
  5
75E
330
2
100
AcDbEntity
  8
0
100
AcDbCircle
 10
314.2732207078517
 20
370.0786378426172
 30
0.0
 40
2.5
100
AcDbArc
 50
0.0
 51
49.25237300000009
  0
LINE
  5
75F
330
2
100
AcDbEntity
  8
HIDS
  6
SEKKEI_H
100
AcDbLine
 10
339.0231447078517
 20
356.0786078426172
 30
0.0
 11
339.0231447078517
 21
344.0786078426172
 31
0.0
  0
LINE
  5
760
330
2
100
AcDbEntity
  8
HIDS
  6
SEKKEI_H
100
AcDbLine
 10
350.0231447078517
 20
356.0786078426172
 30
0.0
 11
350.0231447078517
 21
344.0786078426172
 31
0.0
  0
LINE
  5
761
330
2
100
AcDbEntity
  8
CENTER
100
AcDbLine
 10
344.5231447078516
 20
363.0786078426172
 30
0.0
 11
344.5231447078517
 21
337.0786078426172
 31
0.0
  0
ARC
  5
762
330
2
100
AcDbEntity
  8
0
100
AcDbCircle
 10
303.9428527078517
 20
402.0786078426172
 30
0.0
 40
15.0
100
AcDbArc
 50
130.7476199999996
 51
229.2523800000003
  0
LINE
  5
763
330
2
100
AcDbEntity
  8
0
100
AcDbLine
 10
314.3604707078517
 20
441.5308778426171
 30
0.0
 11
272.7732207078517
 21
440.0786078426172
 31
0.0
  0
LINE
  5
764
330
2
100
AcDbEntity
  8
0
100
AcDbLine
 10
264.7733437078517
 20
438.0785768426171
 30
0.0
 11
264.7733437078517
 21
425.0786078426172
 31
0.0
  0
ARC
  5
765
330
2
100
AcDbEntity
  8
0
100
AcDbCircle
 10
266.7733437078517
 20
438.0786078426172
 30
0.0
 40
2.0
100
AcDbArc
 50
90.0
 51
180.0
  0
ARC
  5
766
330
2
100
AcDbEntity
  8
0
100
AcDbCircle
 10
364.3303807078517
 20
447.0786078426172
 30
0.0
 40
3.0
100
AcDbArc
 50
90.0
 51
165.124313
  0
LINE
  5
767
330
2
100
AcDbEntity
  8
0
100
AcDbLine
 10
330.2904177078517
 20
458.3460938426171
 30
0.0
 11
330.6282927078517
 21
438.9913268426172
 31
0.0
  0
LINE
  5
768
330
2
100
AcDbEntity
  8
0
100
AcDbLine
 10
315.9050417078517
 20
432.1845948426171
 30
0.0
 11
294.1519287078517
 21
413.4424988426172
 31
0.0
  0
ARC
  5
769
330
2
100
AcDbEntity
  8
0
100
AcDbCircle
 10
314.2732207078517
 20
444.0293518426172
 30
0.0
 40
2.5
100
AcDbArc
 50
271.9999999999995
 51
0.0
  0
ARC
  5
76A
330
2
100
AcDbEntity
  8
0
100
AcDbCircle
 10
335.6276217078517
 20
439.0786078426172
 30
0.0
 40
5.0
100
AcDbArc
 50
181.0001979999998
 51
270.0
  0
ARC
  5
76B
330
2
100
AcDbEntity
  8
0
100
AcDbCircle
 10
314.2732207078517
 20
434.0785768426171
 30
0.0
 40
2.5
100
AcDbArc
 50
310.7476269999999
 51
0.0
  0
LINE
  5
76C
330
2
100
AcDbEntity
  8
0
100
AcDbLine
 10
335.9849217078517
 20
432.6178838426172
 30
0.0
 11
335.7822087078517
 21
424.8785958426172
 31
0.0
  0
ARC
  5
76D
330
2
100
AcDbEntity
  8
0
100
AcDbCircle
 10
337.4844027078517
 20
432.5786078426173
 30
0.0
 40
1.5
100
AcDbArc
 50
90.0
 51
178.4996489999996
  0
LINE
  5
76E
330
2
100
AcDbEntity
  8
0
100
AcDbLine
 10
359.3669707078517
 20
440.0786078426172
 30
0.0
 11
361.4309057078517
 21
447.8487798426171
 31
0.0
  0
ARC
  5
76F
330
2
100
AcDbEntity
  8
0
100
AcDbCircle
 10
349.8720677078517
 20
437.0786078426172
 30
0.0
 40
3.0
100
AcDbArc
 50
270.0
 51
345.1243179999998
  0
ARC
  5
770
330
2
100
AcDbEntity
  8
0
100
AcDbCircle
 10
356.0801367078517
 20
437.0786078426172
 30
0.0
 40
3.0
100
AcDbArc
 50
90.0
 51
165.124313
  0
LINE
  5
771
330
2
100
AcDbEntity
  8
0
100
AcDbLine
 10
353.1806617078517
 20
437.8487798426172
 30
0.0
 11
352.7715117078517
 21
436.3084358426172
 31
0.0
  0
LINE
  5
772
330
2
100
AcDbEntity
  8
0
100
AcDbLine
 10
359.3669707078517
 20
440.0786078426172
 30
0.0
 11
356.0801367078517
 21
440.0786078426172
 31
0.0
  0
LINE
  5
773
330
2
100
AcDbEntity
  8
0
100
AcDbLine
 10
330.1336187078517
 20
449.5786078426172
 30
0.0
 11
324.7732207078517
 21
449.5786078426172
 31
0.0
  0
LINE
  5
774
330
2
100
AcDbEntity
  8
0
100
AcDbLine
 10
329.2906157078517
 20
459.3286078426173
 30
0.0
 11
324.7732207078517
 21
459.3286078426173
 31
0.0
  0
LINE
  5
775
330
2
100
AcDbEntity
  8
0
100
AcDbLine
 10
319.2732207078517
 20
459.5786078426172
 30
0.0
 11
324.7732207078517
 21
459.5786078426172
 31
0.0
  0
ARC
  5
776
330
2
100
AcDbEntity
  8
0
100
AcDbCircle
 10
319.2732207078517
 20
457.0786078426173
 30
0.0
 40
2.5
100
AcDbArc
 50
90.0
 51
180.0
  0
ARC
  5
777
330
2
100
AcDbEntity
  8
0
100
AcDbCircle
 10
329.2905247078517
 20
458.3286078426172
 30
0.0
 40
1.0
100
AcDbArc
 50
1.000700000000289
 51
90.0
  0
LINE
  5
77C
330
2
100
AcDbEntity
  8
0
100
AcDbLine
 10
614.1412867711502
 20
186.0590056686732
 30
0.0
 11
615.9648947711502
 21
186.5434416686731
 31
0.0
  0
LINE
  5
77D
330
2
100
AcDbEntity
  8
0
100
AcDbLine
 10
614.1412867711502
 20
129.8744126686732
 30
0.0
 11
616.9424957711502
 21
129.1303286686732
 31
0.0
  0
LINE
  5
77E
330
2
100
AcDbEntity
  8
CENTER
100
AcDbLine
 10
594.9112757711502
 20
79.96670366867324
 30
0.0
 11
620.9112757711502
 21
79.96670366867324
 31
0.0
  0
LINE
  5
77F
330
2
100
AcDbEntity
  8
CENTER
100
AcDbLine
 10
594.9112757711503
 20
199.9667206686732
 30
0.0
 11
620.9112757711502
 21
199.9667206686732
 31
0.0
  0
ARC
  5
780
330
2
100
AcDbEntity
  8
0
100
AcDbCircle
 10
615.9112757711502
 20
74.13958366867323
 30
0.0
 40
2.0
100
AcDbArc
 50
91.00063300000034
 51
180.0
  0
ARC
  5
781
330
2
100
AcDbEntity
  8
0
100
AcDbCircle
 10
618.4148767711501
 20
73.18310366867322
 30
0.0
 40
3.0
100
AcDbArc
 50
91.00052599999987
 51
165.0003050000002
  0
ARC
  5
782
330
2
100
AcDbEntity
  8
0
100
AcDbCircle
 10
615.9112757711502
 20
205.7933196686732
 30
0.0
 40
2.0
100
AcDbArc
 50
180.0
 51
269.0006099999996
  0
ARC
  5
783
330
2
100
AcDbEntity
  8
0
100
AcDbCircle
 10
618.4150907711503
 20
206.7498016686732
 30
0.0
 40
3.0
100
AcDbArc
 50
195.0007019999996
 51
269.0004879999996
  0
LINE
  5
784
330
2
100
AcDbEntity
  8
CENTER
100
AcDbLine
 10
556.9114897711503
 20
157.9667206686731
 30
0.0
 11
721.655294701826
 21
157.9667206686732
 31
0.0
  0
LINE
  5
785
330
2
100
AcDbEntity
  8
CENTER
100
AcDbLine
 10
588.9112757711502
 20
127.4667246686732
 30
0.0
 11
730.4110617711502
 21
127.4667246686732
 31
0.0
  0
LINE
  5
786
330
2
100
AcDbEntity
  8
0
100
AcDbLine
 10
608.9112757711502
 20
146.9667206686732
 30
0.0
 11
608.9112757711502
 21
110.8714866686732
 31
0.0
  0
LINE
  5
787
330
2
100
AcDbEntity
  8
0
100
AcDbLine
 10
601.9112757711503
 20
146.9667206686732
 30
0.0
 11
601.9112757711503
 21
67.96670366867323
 31
0.0
  0
LINE
  5
788
330
2
100
AcDbEntity
  8
0
100
AcDbLine
 10
441.5233127078518
 20
182.9667046686732
 30
0.0
 11
441.5233127078518
 21
96.96672466867324
 31
0.0
  0
LINE
  5
789
330
2
100
AcDbEntity
  8
0
100
AcDbLine
 10
446.5233127078517
 20
199.9667206686732
 30
0.0
 11
446.5233127078517
 21
79.96670366867324
 31
0.0
  0
LINE
  5
78A
330
2
100
AcDbEntity
  8
0
100
AcDbLine
 10
419.4117097078517
 20
161.9295656686732
 30
0.0
 11
425.1084877078517
 21
118.9640536686732
 31
0.0
  0
LINE
  5
78B
330
2
100
AcDbEntity
  8
0
100
AcDbLine
 10
420.9978917078517
 20
162.1398846686732
 30
0.0
 11
426.6944857078518
 21
119.1743546686732
 31
0.0
  0
LINE
  5
78C
330
2
100
AcDbEntity
  8
0
100
AcDbLine
 10
439.5233127078518
 20
162.3273846686732
 30
0.0
 11
439.5233127078518
 21
117.6060366686732
 31
0.0
  0
LINE
  5
78D
330
2
100
AcDbEntity
  8
CENTER
100
AcDbLine
 10
389.5232207078517
 20
224.9667206686732
 30
0.0
 11
389.5232207078517
 21
54.96670366867326
 31
0.0
  0
ARC
  5
78E
330
2
100
AcDbEntity
  8
0
100
AcDbCircle
 10
409.5233127078517
 20
117.6060486686732
 30
0.0
 40
30.0
100
AcDbArc
 50
311.8105509999999
 51
0.0
  0
ARC
  5
78F
330
2
100
AcDbEntity
  8
0
100
AcDbCircle
 10
434.5233127078517
 20
79.96670366867324
 30
0.0
 40
11.0
100
AcDbArc
 50
90.0
 51
180.0
  0
CIRCLE
  5
790
330
2
100
AcDbEntity
  8
0
100
AcDbCircle
 10
434.5233127078517
 20
79.96670366867324
 30
0.0
 40
5.5
  0
ARC
  5
792
330
2
100
AcDbEntity
  8
0
100
AcDbCircle
 10
406.2732207078517
 20
116.4667276686732
 30
0.0
 40
20.6
100
AcDbArc
 50
270.0
 51
7.552700000000432
  0
ARC
  5
793
330
2
100
AcDbEntity
  8
0
100
AcDbCircle
 10
417.5233127078517
 20
78.96670366867323
 30
0.0
 40
6.0
100
AcDbArc
 50
270.0
 51
0.0
  0
LINE
  5
794
330
2
100
AcDbEntity
  8
0
100
AcDbLine
 10
423.5233127078518
 20
78.96670366867323
 30
0.0
 11
423.5233127078518
 21
79.96668366867322
 31
0.0
  0
ARC
  5
795
330
2
100
AcDbEntity
  8
0
100
AcDbCircle
 10
406.2732207078517
 20
116.4667276686732
 30
0.0
 40
19.0
100
AcDbArc
 50
270.0
 51
7.552700000000432
  0
LINE
  5
796
330
2
100
AcDbEntity
  8
0
100
AcDbLine
 10
402.0524267078517
 20
110.5761026686732
 30
0.0
 11
403.9286167078517
 21
106.2167246686732
 31
0.0
  0
LINE
  5
797
330
2
100
AcDbEntity
  8
0
100
AcDbLine
 10
403.2040077078518
 20
110.6848366686732
 30
0.0
 11
405.1864287078517
 21
106.2167246686732
 31
0.0
  0
LINE
  5
798
330
2
100
AcDbEntity
  8
0
100
AcDbLine
 10
399.4920327078517
 20
110.5761026686732
 30
0.0
 11
399.4920327078517
 21
106.2167246686732
 31
0.0
  0
LINE
  5
799
330
2
100
AcDbEntity
  8
0
100
AcDbLine
 10
398.1170327078517
 20
115.4979776686732
 30
0.0
 11
398.1170327078517
 21
106.2167246686732
 31
0.0
  0
LINE
  5
79A
330
2
100
AcDbEntity
  8
0
100
AcDbLine
 10
390.2420327078517
 20
115.4979776686732
 30
0.0
 11
390.2420327078517
 21
106.2792246686732
 31
0.0
  0
LINE
  5
79B
330
2
100
AcDbEntity
  8
0
100
AcDbLine
 10
388.7420327078517
 20
115.4979776686732
 30
0.0
 11
388.7420327078517
 21
106.2792246686732
 31
0.0
  0
LINE
  5
79C
330
2
100
AcDbEntity
  8
0
100
AcDbLine
 10
388.1482207078517
 20
104.9667246686732
 30
0.0
 11
390.7420327078517
 21
104.9667246686732
 31
0.0
  0
LINE
  5
79D
330
2
100
AcDbEntity
  8
0
100
AcDbLine
 10
388.1482207078517
 20
106.2792246686732
 30
0.0
 11
388.7420327078517
 21
106.2792246686732
 31
0.0
  0
LINE
  5
79E
330
2
100
AcDbEntity
  8
0
100
AcDbLine
 10
388.1482207078517
 20
106.2792246686732
 30
0.0
 11
388.1482207078517
 21
104.9667246686732
 31
0.0
  0
LINE
  5
79F
330
2
100
AcDbEntity
  8
0
100
AcDbLine
 10
390.7420327078517
 20
106.2792246686732
 30
0.0
 11
390.7420327078517
 21
104.9667246686732
 31
0.0
  0
LINE
  5
7A0
330
2
100
AcDbEntity
  8
0
100
AcDbLine
 10
390.2420327078517
 20
106.2792246686732
 30
0.0
 11
390.7420327078517
 21
106.2792246686732
 31
0.0
  0
LINE
  5
7A1
330
2
100
AcDbEntity
  8
0
100
AcDbLine
 10
397.5232207078517
 20
106.2167246686732
 30
0.0
 11
397.5232207078517
 21
104.9667246686732
 31
0.0
  0
LINE
  5
7A2
330
2
100
AcDbEntity
  8
0
100
AcDbLine
 10
400.0388157078517
 20
106.2167246686732
 30
0.0
 11
400.0388157078517
 21
104.9667246686732
 31
0.0
  0
LINE
  5
7A3
330
2
100
AcDbEntity
  8
0
100
AcDbLine
 10
400.0388157078517
 20
104.9667246686732
 30
0.0
 11
397.5232207078517
 21
104.9667246686732
 31
0.0
  0
LINE
  5
7A4
330
2
100
AcDbEntity
  8
0
100
AcDbLine
 10
399.4920327078517
 20
106.2167246686732
 30
0.0
 11
400.0388157078517
 21
106.2167246686732
 31
0.0
  0
LINE
  5
7A5
330
2
100
AcDbEntity
  8
0
100
AcDbLine
 10
397.5232207078517
 20
106.2167246686732
 30
0.0
 11
398.1170327078517
 21
106.2167246686732
 31
0.0
  0
LINE
  5
7A6
330
2
100
AcDbEntity
  8
0
100
AcDbLine
 10
403.6794097078517
 20
106.2167246686732
 30
0.0
 11
403.6794097078517
 21
104.9667246686732
 31
0.0
  0
LINE
  5
7A7
330
2
100
AcDbEntity
  8
0
100
AcDbLine
 10
403.6794097078517
 20
104.9667246686732
 30
0.0
 11
405.5232207078517
 21
104.9667246686732
 31
0.0
  0
LINE
  5
7A8
330
2
100
AcDbEntity
  8
0
100
AcDbLine
 10
403.6794097078517
 20
106.2167246686732
 30
0.0
 11
403.9286167078517
 21
106.2167246686732
 31
0.0
  0
LINE
  5
7A9
330
2
100
AcDbEntity
  8
0
100
AcDbLine
 10
385.5232207078517
 20
116.9667276686732
 30
0.0
 11
393.5232207078517
 21
116.9667276686732
 31
0.0
  0
LINE
  5
7AA
330
2
100
AcDbEntity
  8
0
100
AcDbLine
 10
388.7420327078517
 20
115.4979776686732
 30
0.0
 11
386.8410317078517
 21
115.4979776686732
 31
0.0
  0
LINE
  5
7AB
330
2
100
AcDbEntity
  8
0
100
AcDbLine
 10
386.8410317078517
 20
115.4979776686732
 30
0.0
 11
386.4112217078517
 21
114.4667276686732
 31
0.0
  0
LINE
  5
7AC
330
2
100
AcDbEntity
  8
0
100
AcDbLine
 10
385.5232207078517
 20
114.4667276686732
 30
0.0
 11
386.4112217078517
 21
114.4667276686732
 31
0.0
  0
LINE
  5
7AD
330
2
100
AcDbEntity
  8
0
100
AcDbLine
 10
385.5232207078517
 20
114.4667276686732
 30
0.0
 11
385.5232207078517
 21
116.9667276686732
 31
0.0
  0
LINE
  5
7AE
330
2
100
AcDbEntity
  8
0
100
AcDbLine
 10
390.2420327078517
 20
115.4979776686732
 30
0.0
 11
392.3264437078517
 21
115.4979776686732
 31
0.0
  0
LINE
  5
7AF
330
2
100
AcDbEntity
  8
0
100
AcDbLine
 10
392.3264437078517
 20
115.4979776686732
 30
0.0
 11
392.6888097078517
 21
114.4667276686732
 31
0.0
  0
LINE
  5
7B0
330
2
100
AcDbEntity
  8
0
100
AcDbLine
 10
392.6888097078517
 20
114.4667276686732
 30
0.0
 11
393.5232207078517
 21
114.4667276686732
 31
0.0
  0
LINE
  5
7B1
330
2
100
AcDbEntity
  8
0
100
AcDbLine
 10
393.5232207078517
 20
114.4667276686732
 30
0.0
 11
393.5232207078517
 21
116.9667276686732
 31
0.0
  0
LINE
  5
7B2
330
2
100
AcDbEntity
  8
0
100
AcDbLine
 10
399.4920327078517
 20
115.4979776686732
 30
0.0
 11
399.4920327078517
 21
111.8258126686732
 31
0.0
  0
ARC
  5
7B3
330
2
100
AcDbEntity
  8
0
100
AcDbCircle
 10
402.3200047078517
 20
113.7636026686732
 30
0.0
 40
1.954124
100
AcDbArc
 50
277.4147260000004
 51
62.41185000000021
  0
ARC
  5
7B4
330
2
100
AcDbEntity
  8
0
100
AcDbCircle
 10
402.3200047078517
 20
113.7636026686732
 30
0.0
 40
3.203125999999999
100
AcDbArc
 50
286.0181269999995
 51
90.00350999999964
  0
LINE
  5
7B5
330
2
100
AcDbEntity
  8
0
100
AcDbLine
 10
399.4920327078517
 20
110.5761026686732
 30
0.0
 11
402.0524267078517
 21
110.5761026686732
 31
0.0
  0
LINE
  5
7B6
330
2
100
AcDbEntity
  8
0
100
AcDbLine
 10
402.5722327078517
 20
111.8258126686732
 30
0.0
 11
399.4920327078517
 21
111.8258126686732
 31
0.0
  0
LINE
  5
7B7
330
2
100
AcDbEntity
  8
0
100
AcDbLine
 10
399.4920327078517
 20
115.4979776686732
 30
0.0
 11
403.2250337078517
 21
115.4955516686732
 31
0.0
  0
LINE
  5
7B8
330
2
100
AcDbEntity
  8
0
100
AcDbLine
 10
397.5232207078517
 20
116.9667276686732
 30
0.0
 11
402.3200047078517
 21
116.9667276686732
 31
0.0
  0
LINE
  5
7B9
330
2
100
AcDbEntity
  8
0
100
AcDbLine
 10
397.5232207078517
 20
115.4979776686732
 30
0.0
 11
398.1170327078517
 21
115.4979776686732
 31
0.0
  0
LINE
  5
7BA
330
2
100
AcDbEntity
  8
0
100
AcDbLine
 10
397.5232207078517
 20
116.9667276686732
 30
0.0
 11
397.5232207078517
 21
115.4979776686732
 31
0.0
  0
ARC
  5
7BB
330
2
100
AcDbEntity
  8
0
100
AcDbCircle
 10
435.5233127078518
 20
96.96672466867324
 30
0.0
 40
6.0
100
AcDbArc
 50
270.0
 51
0.0
  0
ARC
  5
7BC
330
2
100
AcDbEntity
  8
0
100
AcDbCircle
 10
434.5233127078517
 20
79.96670366867324
 30
0.0
 40
12.0
100
AcDbArc
 50
270.0
 51
0.0
  0
LINE
  5
7BE
330
2
100
AcDbEntity
  8
0
100
AcDbLine
 10
435.5233127078518
 20
90.96670366867323
 30
0.0
 11
434.5233127078517
 21
90.96670366867323
 31
0.0
  0
LINE
  5
7BF
330
2
100
AcDbEntity
  8
0
100
AcDbLine
 10
613.9112757711502
 20
69.96674366867324
 30
0.0
 11
613.9112757711502
 21
115.8417246686732
 31
0.0
  0
LINE
  5
7C0
330
2
100
AcDbEntity
  8
HIDS
  6
SEKKEI_H
100
AcDbLine
 10
601.9112757711503
 20
74.46670366867323
 30
0.0
 11
613.9112757711502
 21
74.46670366867323
 31
0.0
  0
LINE
  5
7C1
330
2
100
AcDbEntity
  8
0
100
AcDbLine
 10
611.9930937711502
 20
67.96674366867325
 30
0.0
 11
601.9112757711503
 21
67.96674366867325
 31
0.0
  0
ARC
  5
7C2
330
2
100
AcDbEntity
  8
0
100
AcDbCircle
 10
611.9930937711502
 20
70.46674366867325
 30
0.0
 40
2.5
100
AcDbArc
 50
270.0
 51
345.000214
  0
ARC
  5
7C3
330
2
100
AcDbEntity
  8
0
100
AcDbCircle
 10
611.9112757711502
 20
69.96674366867324
 30
0.0
 40
2.0
100
AcDbArc
 50
270.0
 51
0.0
  0
LINE
  5
7C4
330
2
100
AcDbEntity
  8
0
100
AcDbLine
 10
614.4078887711502
 20
69.81970366867324
 30
0.0
 11
615.5170797711502
 21
73.95954366867323
 31
0.0
  0
LINE
  5
7C5
330
2
100
AcDbEntity
  8
HIDS
  6
SEKKEI_H
100
AcDbLine
 10
601.9112757711503
 20
85.46670366867322
 30
0.0
 11
613.9112757711502
 21
85.46670366867322
 31
0.0
  0
ARC
  5
7CB
330
2
100
AcDbEntity
  8
0
100
AcDbCircle
 10
409.5233127078517
 20
162.3273846686732
 30
0.0
 40
30.0
100
AcDbArc
 50
0.0
 51
48.18962899999986
  0
LINE
  5
7CC
330
2
100
AcDbEntity
  8
0
100
AcDbLine
 10
403.0232207078517
 20
154.9666826686732
 30
0.0
 11
403.0232207078517
 21
160.9666826686732
 31
0.0
  0
LINE
  5
7CD
330
2
100
AcDbEntity
  8
0
100
AcDbLine
 10
397.0232207078517
 20
154.9667206686732
 30
0.0
 11
397.0232207078517
 21
160.9667046686732
 31
0.0
  0
LINE
  5
7CE
330
2
100
AcDbEntity
  8
0
100
AcDbLine
 10
403.0232207078517
 20
154.9666826686732
 30
0.0
 11
397.0232207078517
 21
154.9667206686732
 31
0.0
  0
LINE
  5
7CF
330
2
100
AcDbEntity
  8
0
100
AcDbLine
 10
403.0232207078517
 20
160.9666826686732
 30
0.0
 11
397.0232207078517
 21
160.9667046686732
 31
0.0
  0
ARC
  5
7D0
330
2
100
AcDbEntity
  8
0
100
AcDbCircle
 10
434.5233127078517
 20
199.9667206686732
 30
0.0
 40
11.0
100
AcDbArc
 50
180.0
 51
270.0
  0
CIRCLE
  5
7D1
330
2
100
AcDbEntity
  8
0
100
AcDbCircle
 10
434.5233127078517
 20
199.9667206686732
 30
0.0
 40
5.5
  0
LINE
  5
7D2
330
2
100
AcDbEntity
  8
CENTER
100
AcDbLine
 10
425.3639047078518
 20
199.9667206686732
 30
0.0
 11
443.6827207078517
 21
199.9667206686732
 31
0.0
  0
ARC
  5
7D3
330
2
100
AcDbEntity
  8
0
100
AcDbCircle
 10
417.5233127078517
 20
200.9667206686732
 30
0.0
 40
6.0
100
AcDbArc
 50
0.0
 51
90.0
  0
LINE
  5
7D4
330
2
100
AcDbEntity
  8
0
100
AcDbLine
 10
423.5233127078518
 20
200.9667206686732
 30
0.0
 11
423.5233127078518
 21
199.9666896686732
 31
0.0
  0
ARC
  5
7D5
330
2
100
AcDbEntity
  8
0
100
AcDbCircle
 10
434.5233127078517
 20
199.9667206686732
 30
0.0
 40
12.0
100
AcDbArc
 50
0.0
 51
90.0
  0
LINE
  5
7D6
330
2
100
AcDbEntity
  8
CENTER
100
AcDbLine
 10
434.5233127078517
 20
209.1261286686732
 30
0.0
 11
434.5233127078517
 21
190.8073126686732
 31
0.0
  0
ARC
  5
7D7
330
2
100
AcDbEntity
  8
0
100
AcDbCircle
 10
435.5233127078518
 20
182.9667046686732
 30
0.0
 40
6.0
100
AcDbArc
 50
0.0
 51
90.0
  0
LINE
  5
7D8
330
2
100
AcDbEntity
  8
0
100
AcDbLine
 10
435.5233127078518
 20
188.9667046686732
 30
0.0
 11
434.5233127078517
 21
188.9667046686732
 31
0.0
  0
LINE
  5
7D9
330
2
100
AcDbEntity
  8
0
100
AcDbLine
 10
608.9112757711502
 20
190.5604856686732
 30
0.0
 11
608.9112757711502
 21
168.9667046686732
 31
0.0
  0
LINE
  5
7DA
330
2
100
AcDbEntity
  8
0
100
AcDbLine
 10
601.9112757711503
 20
211.9667206686732
 30
0.0
 11
601.9112757711503
 21
168.9667046686732
 31
0.0
  0
LINE
  5
7DB
330
2
100
AcDbEntity
  8
0
100
AcDbLine
 10
611.9112757711502
 20
132.7738726686732
 30
0.0
 11
611.9112757711502
 21
183.1595606686732
 31
0.0
  0
LINE
  5
7DC
330
2
100
AcDbEntity
  8
0
100
AcDbLine
 10
609.9114897711502
 20
170.4667046686732
 30
0.0
 11
609.9114897711502
 21
145.4667276686732
 31
0.0
  0
LINE
  5
7DD
330
2
100
AcDbEntity
  8
0
100
AcDbLine
 10
569.9114897711503
 20
146.9667276686732
 30
0.0
 11
569.9114897711503
 21
168.9667046686732
 31
0.0
  0
LINE
  5
7DE
330
2
100
AcDbEntity
  8
0
100
AcDbLine
 10
609.9114897711502
 20
146.9667276686732
 30
0.0
 11
569.9114897711503
 21
146.9667276686732
 31
0.0
  0
ARC
  5
7DF
330
2
100
AcDbEntity
  8
0
100
AcDbCircle
 10
614.9112757711503
 20
132.7738946686732
 30
0.0
 40
3.0
100
AcDbArc
 50
180.0
 51
255.124603
  0
LINE
  5
7E0
330
2
100
AcDbEntity
  8
0
100
AcDbLine
 10
611.9114897711503
 20
145.4667276686732
 30
0.0
 11
609.9114897711502
 21
145.4667276686732
 31
0.0
  0
LINE
  5
7E1
330
2
100
AcDbEntity
  8
0
100
AcDbLine
 10
601.9114897711503
 20
154.9667206686732
 30
0.0
 11
569.9114897711503
 21
154.9667206686732
 31
0.0
  0
LINE
  5
7E2
330
2
100
AcDbEntity
  8
0
100
AcDbLine
 10
601.9114897711503
 20
160.9667046686732
 30
0.0
 11
569.9114897711503
 21
160.9667046686732
 31
0.0
  0
LINE
  5
7E3
330
2
100
AcDbEntity
  8
0
100
AcDbLine
 10
609.9114897711502
 20
168.9667046686732
 30
0.0
 11
569.9114897711503
 21
168.9667046686732
 31
0.0
  0
ARC
  5
7E4
330
2
100
AcDbEntity
  8
0
100
AcDbCircle
 10
601.9114897711503
 20
157.9667206686732
 30
0.0
 40
3.0
100
AcDbArc
 50
270.0
 51
90.0
  0
LINE
  5
7E5
330
2
100
AcDbEntity
  8
0
100
AcDbLine
 10
611.9114897711503
 20
170.4667046686732
 30
0.0
 11
609.9114897711502
 21
170.4667046686732
 31
0.0
  0
LINE
  5
7E6
330
2
100
AcDbEntity
  8
0
100
AcDbLine
 10
614.4078887711502
 20
210.1137996686732
 30
0.0
 11
615.5172937711502
 21
205.9732816686732
 31
0.0
  0
LINE
  5
7E7
330
2
100
AcDbEntity
  8
0
100
AcDbLine
 10
613.9112757711502
 20
188.2167046686732
 30
0.0
 11
613.9112757711502
 21
209.9667206686732
 31
0.0
  0
LINE
  5
7E9
330
2
100
AcDbEntity
  8
HIDS
  6
SEKKEI_H
100
AcDbLine
 10
601.9112757711503
 20
194.4667206686732
 30
0.0
 11
613.9112757711502
 21
194.4667206686732
 31
0.0
  0
ARC
  5
7EA
330
2
100
AcDbEntity
  8
0
100
AcDbCircle
 10
614.9114897711503
 20
183.1595606686732
 30
0.0
 40
3.0
100
AcDbArc
 50
104.8760990000001
 51
180.0
  0
LINE
  5
7EE
330
2
100
AcDbEntity
  8
HIDS
  6
SEKKEI_H
100
AcDbLine
 10
601.9112757711503
 20
205.4667206686732
 30
0.0
 11
613.9112757711502
 21
205.4667206686732
 31
0.0
  0
LINE
  5
7EF
330
2
100
AcDbEntity
  8
0
100
AcDbLine
 10
611.9930937711502
 20
211.9667206686732
 30
0.0
 11
601.9112757711503
 21
211.9667206686732
 31
0.0
  0
ARC
  5
7F0
330
2
100
AcDbEntity
  8
0
100
AcDbCircle
 10
611.9930937711502
 20
209.4667206686732
 30
0.0
 40
2.5
100
AcDbArc
 50
15.00076000000037
 51
90.0
  0
ARC
  5
7F1
330
2
100
AcDbEntity
  8
0
100
AcDbCircle
 10
611.9112757711502
 20
209.9667206686732
 30
0.0
 40
2.0
100
AcDbArc
 50
0.0
 51
90.0
  0
ARC
  5
7F2
330
2
100
AcDbEntity
  8
0
100
AcDbCircle
 10
659.9110617711502
 20
127.4667246686732
 30
0.0
 40
57.5
100
AcDbArc
 50
326.0032309999999
 51
33.40679200000047
  0
ARC
  5
7F3
330
2
100
AcDbEntity
  8
0
100
AcDbCircle
 10
659.9110617711502
 20
127.4667246686732
 30
0.0
 40
57.25
100
AcDbArc
 50
327.4981120000001
 51
33.02551699999998
  0
LINE
  5
7F4
330
2
100
AcDbEntity
  8
0
100
AcDbLine
 10
697.9110617711502
 20
99.77156466867322
 30
0.0
 11
697.9110617711502
 21
160.0367046686732
 31
0.0
  0
LINE
  5
7F5
330
2
100
AcDbEntity
  8
0
100
AcDbLine
 10
691.9110617711502
 20
78.44940366867323
 30
0.0
 11
691.9110617711502
 21
201.4840386686732
 31
0.0
  0
LINE
  5
7F6
330
2
100
AcDbEntity
  8
CENTER
100
AcDbLine
 10
659.9110617711502
 20
56.96672466867323
 30
0.0
 11
659.9110617711502
 21
216.0251807146059
 31
0.0
  0
ARC
  5
7F7
330
2
100
AcDbEntity
  8
0
100
AcDbCircle
 10
712.4110617711502
 20
94.01806466867322
 30
0.0
 40
5.0
100
AcDbArc
 50
147.4980929999996
 51
180.0
  0
ARC
  5
7F8
330
2
100
AcDbEntity
  8
0
100
AcDbCircle
 10
702.4110617711502
 20
84.96670366867324
 30
0.0
 40
5.0
100
AcDbArc
 50
270.0
 51
0.0
  0
ARC
  5
7F9
330
2
100
AcDbEntity
  8
0
100
AcDbCircle
 10
659.9110617711502
 20
127.4667246686732
 30
0.0
 40
57.5
100
AcDbArc
 50
242.5402980000002
 51
299.4606020000001
  0
ARC
  5
7FA
330
2
100
AcDbEntity
  8
0
100
AcDbCircle
 10
659.9110617711502
 20
127.4667246686732
 30
0.0
 40
57.25
100
AcDbArc
 50
243.0048980000003
 51
298.9955140000002
  0
LINE
  5
7FB
330
2
100
AcDbEntity
  8
0
100
AcDbLine
 10
615.8202727711502
 20
99.96672466867323
 30
0.0
 11
690.5208647711503
 21
99.96672466867323
 31
0.0
  0
LINE
  5
7FC
330
2
100
AcDbEntity
  8
0
100
AcDbLine
 10
690.9288847711501
 20
77.44958366867322
 30
0.0
 11
615.8764857711503
 21
76.13926366867324
 31
0.0
  0
LINE
  5
7FD
330
2
100
AcDbEntity
  8
0
100
AcDbLine
 10
707.4110617711502
 20
84.96670366867324
 30
0.0
 11
707.4110617711502
 21
94.01806466867322
 31
0.0
  0
LINE
  5
7FE
330
2
100
AcDbEntity
  8
0
100
AcDbLine
 10
702.4110617711502
 20
79.96670366867324
 30
0.0
 11
693.3600977711503
 21
79.96670366867324
 31
0.0
  0
ARC
  5
7FF
330
2
100
AcDbEntity
  8
0
100
AcDbCircle
 10
659.9110617711502
 20
127.4667246686732
 30
0.0
 40
57.5
100
AcDbArc
 50
303.8156129999999
 51
303.997314
  0
ARC
  5
800
330
2
100
AcDbEntity
  8
0
100
AcDbCircle
 10
659.9110617711502
 20
127.4667246686732
 30
0.0
 40
57.499821
100
AcDbArc
 50
303.8157039999997
 51
303.9963069999998
  0
ARC
  5
801
330
2
100
AcDbEntity
  8
0
100
AcDbCircle
 10
693.3600977711503
 20
74.96670366867324
 30
0.0
 40
5.0
100
AcDbArc
 50
90.0
 51
106.8420029999997
  0
ARC
  5
802
330
2
100
AcDbEntity
  8
0
100
AcDbCircle
 10
690.9110617711502
 20
78.44940366867323
 30
0.0
 40
1.0
100
AcDbArc
 50
271.000427
 51
0.0
  0
ARC
  5
803
330
2
100
AcDbEntity
  8
0
100
AcDbCircle
 10
694.9110617711502
 20
99.77156466867322
 30
0.0
 40
3.0
100
AcDbArc
 50
284.9315800000002
 51
0.0
  0
ARC
  5
804
330
2
100
AcDbEntity
  8
0
100
AcDbCircle
 10
694.9110617711502
 20
93.56188366867323
 30
0.0
 40
3.0
100
AcDbArc
 50
104.9318009999999
 51
180.0
  0
LINE
  5
805
330
2
100
AcDbEntity
  8
0
100
AcDbLine
 10
695.6842557711502
 20
96.87288466867324
 30
0.0
 11
694.1382957711502
 21
96.46058466867323
 31
0.0
  0
ARC
  5
806
330
2
100
AcDbEntity
  8
0
100
AcDbCircle
 10
704.9110617711502
 20
132.7738726686732
 30
0.0
 40
3.0
100
AcDbArc
 50
284.8757930000001
 51
0.0
  0
ARC
  5
807
330
2
100
AcDbEntity
  8
0
100
AcDbCircle
 10
704.9110617711502
 20
183.1595606686732
 30
0.0
 40
3.0
100
AcDbArc
 50
0.0
 51
75.12441300000024
  0
LINE
  5
809
330
2
100
AcDbEntity
  8
0
100
AcDbLine
 10
618.4678857711502
 20
179.9667046686732
 30
0.0
 11
690.8438627711501
 21
179.9667046686732
 31
0.0
  0
ARC
  5
812
330
2
100
AcDbEntity
  8
0
100
AcDbCircle
 10
700.9110617711502
 20
125.5033296686732
 30
0.0
 40
3.0
100
AcDbArc
 50
104.8760990000001
 51
180.0
  0
LINE
  5
813
330
2
100
AcDbEntity
  8
0
100
AcDbLine
 10
705.6815087711502
 20
129.8744276686732
 30
0.0
 11
700.1408597711502
 21
128.4027666686732
 31
0.0
  0
LINE
  5
814
330
2
100
AcDbEntity
  8
0
100
AcDbLine
 10
690.9288847711501
 20
202.4839016686732
 30
0.0
 11
615.8764857711503
 21
203.7936096686732
 31
0.0
  0
LINE
  5
816
330
2
100
AcDbEntity
  8
0
100
AcDbLine
 10
705.6815087711502
 20
186.0590056686732
 30
0.0
 11
694.1412867711502
 21
189.1244046686732
 31
0.0
  0
ARC
  5
817
330
2
100
AcDbEntity
  8
0
100
AcDbCircle
 10
694.9110617711502
 20
192.0238876686732
 30
0.0
 40
3.0
100
AcDbArc
 50
180.0
 51
255.124603
  0
ARC
  5
818
330
2
100
AcDbEntity
  8
0
100
AcDbCircle
 10
690.9110617711502
 20
201.4840386686732
 30
0.0
 40
1.0
100
AcDbArc
 50
0.0
 51
89.00035899999958
  0
LINE
  5
819
330
2
100
AcDbEntity
  8
0
100
AcDbLine
 10
707.9110617711502
 20
132.7738726686732
 30
0.0
 11
707.9110617711502
 21
183.1595606686732
 31
0.0
  0
LINE
  5
81B
330
2
100
AcDbEntity
  8
CENTER
100
AcDbLine
 10
389.5232207078518
 20
463.0786078426173
 30
0.0
 11
389.5232207078517
 21
299.0786078426173
 31
0.0
  0
LINE
  5
81C
330
2
100
AcDbEntity
  8
0
100
AcDbLine
 10
443.0615207078517
 20
432.6179138426172
 30
0.0
 11
445.0452247078517
 21
356.8809148426172
 31
0.0
  0
LINE
  5
81D
330
2
100
AcDbEntity
  8
0
100
AcDbLine
 10
409.5232207078517
 20
434.0786078426172
 30
0.0
 11
409.5232207078517
 21
356.8809148426172
 31
0.0
  0
LINE
  5
81E
330
2
100
AcDbEntity
  8
0
100
AcDbLine
 10
400.1062287078517
 20
312.0786078426172
 30
0.0
 11
400.1062287078517
 21
344.0786078426172
 31
0.0
  0
LINE
  5
81F
330
2
100
AcDbEntity
  8
0
100
AcDbLine
 10
403.0232207078517
 20
344.0786078426172
 30
0.0
 11
403.0232207078517
 21
312.0786078426172
 31
0.0
  0
LINE
  5
820
330
2
100
AcDbEntity
  8
HIDS
  6
SEKKEI_H
100
AcDbLine
 10
429.0233127078518
 20
356.0786078426172
 30
0.0
 11
429.0233127078518
 21
344.0786078426172
 31
0.0
  0
LINE
  5
821
330
2
100
AcDbEntity
  8
HIDS
  6
SEKKEI_H
100
AcDbLine
 10
440.0233127078518
 20
356.0786078426172
 30
0.0
 11
440.0233127078518
 21
344.0786078426172
 31
0.0
  0
LINE
  5
822
330
2
100
AcDbEntity
  8
CENTER
100
AcDbLine
 10
434.5233127078517
 20
363.0786078426172
 30
0.0
 11
434.5233127078517
 21
337.0786078426172
 31
0.0
  0
LINE
  5
823
330
2
100
AcDbEntity
  8
0
100
AcDbLine
 10
446.5232207078517
 20
344.0786078426172
 30
0.0
 11
446.2344337078517
 21
355.1048218426172
 31
0.0
  0
ARC
  5
824
330
2
100
AcDbEntity
  8
0
100
AcDbCircle
 10
446.0446137078517
 20
356.9070988426171
 30
0.0
 40
1.0
100
AcDbArc
 50
181.500397
 51
246.1088030000002
  0
ARC
  5
825
330
2
100
AcDbEntity
  8
0
100
AcDbCircle
 10
445.2347077078517
 20
355.0786078426172
 30
0.0
 40
1.0
100
AcDbArc
 50
1.500099999999759
 51
90.0
  0
ARC
  5
826
330
2
100
AcDbEntity
  8
0
100
AcDbCircle
 10
414.7160617078517
 20
447.0786078426172
 30
0.0
 40
3.0
100
AcDbArc
 50
14.87567100000014
 51
90.0
  0
ARC
  5
827
330
2
100
AcDbEntity
  8
0
100
AcDbCircle
 10
429.1743747078517
 20
437.0786078426172
 30
0.0
 40
3.0
100
AcDbArc
 50
194.8756869999999
 51
270.0
  0
LINE
  5
828
330
2
100
AcDbEntity
  8
0
100
AcDbLine
 10
419.6794707078517
 20
440.0786078426172
 30
0.0
 11
417.6155067078517
 21
447.8487798426171
 31
0.0
  0
ARC
  5
829
330
2
100
AcDbEntity
  8
0
100
AcDbCircle
 10
422.9663057078517
 20
437.0786078426172
 30
0.0
 40
3.0
100
AcDbArc
 50
14.87567100000014
 51
90.0
  0
LINE
  5
82A
330
2
100
AcDbEntity
  8
0
100
AcDbLine
 10
419.6794707078517
 20
440.0786078426172
 30
0.0
 11
422.9663057078517
 21
440.0786078426172
 31
0.0
  0
LINE
  5
82B
330
2
100
AcDbEntity
  8
0
100
AcDbLine
 10
425.8657807078517
 20
437.8487798426172
 30
0.0
 11
426.2749297078517
 21
436.3084358426172
 31
0.0
  0
ARC
  5
82C
330
2
100
AcDbEntity
  8
0
100
AcDbCircle
 10
441.5619177078517
 20
432.5786078426173
 30
0.0
 40
1.5
100
AcDbArc
 50
1.500199999999734
 51
90.0
  0
LWPOLYLINE
  5
8D8
330
2
100
AcDbEntity
  8
HOJO
100
AcDbPolyline
 90
       24
 70
     0
 43
0.0
 10
601.9112757711503
 20
192.3417206686732
 10
604.9112757711502
 20
191.3417046686732
 10
608.2862757711502
 20
190.7167046686732
 10
611.7862757711503
 20
189.8417046686732
 10
613.9112757711502
 20
188.2167046686732
 10
617.2862757711502
 20
185.4667046686732
 10
617.7862757711502
 20
181.5917046686732
 10
619.4112757711502
 20
177.7167046686732
 10
620.9112757711502
 20
171.4667046686732
 10
619.9112757711502
 20
165.9667046686732
 10
622.1612757711502
 20
160.2167046686732
 10
620.4112757711502
 20
154.4667206686732
 10
618.4112757711503
 20
149.4667206686732
 10
618.9112757711503
 20
140.7167206686732
 10
617.6612757711502
 20
136.2167206686732
 10
617.6612757711502
 20
131.4667206686732
 10
615.6612757711502
 20
124.9667246686732
 10
615.9112757711502
 20
120.9667246686732
 10
614.9112757711503
 20
116.5917246686732
 10
611.4112757711502
 20
113.9667246686732
 10
608.7862757711502
 20
110.7167246686732
 10
605.9112757711503
 20
108.9667246686732
 10
603.5362757711502
 20
106.8417246686732
 10
601.9112757711503
 20
106.4703026686732
  0
LINE
  5
8E0
330
2
100
AcDbEntity
  8
CENTER
100
AcDbLine
 10
344.5231447078517
 20
209.1261286686732
 30
0.0
 11
344.5231447078517
 21
190.8073126686732
 31
0.0
  0
LINE
  5
8E1
330
2
100
AcDbEntity
  8
CENTER
100
AcDbLine
 10
335.3637367078517
 20
199.9667206686732
 30
0.0
 11
353.6825527078517
 21
199.9667206686732
 31
0.0
  0
LINE
  5
8E2
330
2
100
AcDbEntity
  8
CENTER
100
AcDbLine
 10
344.5231447078517
 20
89.12611166867321
 30
0.0
 11
344.5231447078517
 21
70.80729566867325
 31
0.0
  0
LINE
  5
8E3
330
2
100
AcDbEntity
  8
CENTER
100
AcDbLine
 10
335.3637367078517
 20
79.96670366867324
 30
0.0
 11
353.6825527078517
 21
79.96670366867324
 31
0.0
  0
LINE
  5
8E4
330
2
100
AcDbEntity
  8
CENTER
100
AcDbLine
 10
434.5233127078517
 20
89.12611166867321
 30
0.0
 11
434.5233127078517
 21
70.80729566867325
 31
0.0
  0
LINE
  5
8E5
330
2
100
AcDbEntity
  8
CENTER
100
AcDbLine
 10
425.3639047078518
 20
79.96670366867324
 30
0.0
 11
443.6827207078517
 21
79.96670366867324
 31
0.0
  0
TEXT
  5
8FF
330
2
100
AcDbEntity
  8
TITLE
100
AcDbText
 10
479.1231765030278
 20
437.4983072750366
 30
0.0
 40
7.0
  1
HFMN-22R-300~1800-T15T
 41
0.8
100
AcDbText
  0
TEXT
  5
900
330
2
100
AcDbEntity
  8
TITLE
100
AcDbText
 10
479.1231765030278
 20
426.2983072750365
 30
0.0
 40
7.0
  1
HFMN-22R-300~1800-T15WT
 41
0.8
100
AcDbText
  0
TEXT
  5
901
330
2
100
AcDbEntity
  8
TITLE
100
AcDbText
 10
479.1231765030278
 20
415.0983072750366
 30
0.0
 40
7.0
  1
HFMN-22R-300~900-T25T
 41
0.8
100
AcDbText
  0
TEXT
  5
902
330
2
100
AcDbEntity
  8
TITLE
100
AcDbText
 10
479.1231765030278
 20
403.8983072750366
 30
0.0
 40
7.0
  1
HFMN-22R-300~900-T25WT
 41
0.8
100
AcDbText
  0
TEXT
  5
903
330
2
100
AcDbEntity
  8
TITLE
100
AcDbText
 10
479.1231765030278
 20
392.6983072750366
 30
0.0
 40
7.0
  1
HFMN-22R-300~450-T40T
 41
0.8
100
AcDbText
  0
TEXT
  5
904
330
2
100
AcDbEntity
  8
TITLE
100
AcDbText
 10
479.1231765030278
 20
381.4983072750365
 30
0.0
 40
7.0
  1
HFMN-22R-300~450-T40WT
 41
0.8
100
AcDbText
  0
TEXT
  5
905
330
2
100
AcDbEntity
  8
TITLE
100
AcDbText
 10
479.1231765030278
 20
370.2983072750366
 30
0.0
 40
7.0
  1
HFMN-22R-300~450-T60T
 41
0.8
100
AcDbText
  0
TEXT
  5
906
330
2
100
AcDbEntity
  8
TITLE
100
AcDbText
 10
479.1231765030278
 20
359.0983072750366
 30
0.0
 40
7.0
  1
HFMN-22R-300~450-T60WT
 41
0.8
100
AcDbText
  0
TEXT
  5
907
330
2
100
AcDbEntity
  8
TITLE
100
AcDbText
 10
617.2604305331528
 20
403.8983072750366
 30
0.0
 40
7.0
  1
HFMN-22R-300~900-S25WT
 41
0.8
100
AcDbText
  0
TEXT
  5
908
330
2
100
AcDbEntity
  8
TITLE
100
AcDbText
 10
617.2604305331528
 20
392.6983072750366
 30
0.0
 40
7.0
  1
HFMN-22R-300~450-S40T
 41
0.8
100
AcDbText
  0
TEXT
  5
909
330
2
100
AcDbEntity
  8
TITLE
100
AcDbText
 10
617.2604305331528
 20
381.4983072750365
 30
0.0
 40
7.0
  1
HFMN-22R-300~450-S40WT
 41
0.8
100
AcDbText
  0
TEXT
  5
90A
330
2
100
AcDbEntity
  8
TITLE
100
AcDbText
 10
617.2604305331528
 20
370.2983072750366
 30
0.0
 40
7.0
  1
HFMN-22R-300~450-S60T
 41
0.8
100
AcDbText
  0
TEXT
  5
90B
330
2
100
AcDbEntity
  8
TITLE
100
AcDbText
 10
617.2604305331528
 20
359.0983072750366
 30
0.0
 40
7.0
  1
HFMN-22R-300~450-S60WT
 41
0.8
100
AcDbText
  0
TEXT
  5
90C
330
2
100
AcDbEntity
  8
TITLE
100
AcDbText
 10
617.2604305331528
 20
426.2983072750365
 30
0.0
 40
7.0
  1
HFMN-22R-300~1800-S15WT
 41
0.8
100
AcDbText
  0
TEXT
  5
90D
330
2
100
AcDbEntity
  8
TITLE
100
AcDbText
 10
617.2604305331528
 20
437.4983072750366
 30
0.0
 40
7.0
  1
HFMN-22R-300~1800-S15T
 41
0.8
100
AcDbText
  0
TEXT
  5
90E
330
2
100
AcDbEntity
  8
TITLE
100
AcDbText
 10
617.2604305331528
 20
415.0983072750366
 30
0.0
 40
7.0
  1
HFMN-22R-300~900-S25T
 41
0.8
100
AcDbText
  0
LINE
  5
1190
330
2
100
AcDbEntity
  8
CENTER
100
AcDbLine
 10
256.5613334135786
 20
127.4667246686732
 30
0.0
 11
341.7308438049944
 21
127.4667246686732
 31
0.0
  0
ARC
  5
1CFD
330
2
100
AcDbEntity
  8
0
100
AcDbCircle
 10
155.3029437078519
 20
382.6083078426171
 30
0.0
 40
1.742199999999999
100
AcDbArc
 50
179.9986903345002
 51
270.0013096654932
  0
ARC
  5
1CFE
330
2
100
AcDbEntity
  8
0
100
AcDbCircle
 10
153.2732437078517
 20
380.5786078426172
 30
0.0
 40
4.0
100
AcDbArc
 50
0.0
 51
90.0
  0
CIRCLE
  5
1CFF
330
2
100
AcDbEntity
  8
0
100
AcDbCircle
 10
153.2732437078517
 20
380.5786078426172
 30
0.0
 40
3.500000000000028
  0
ARC
  5
1D00
330
2
100
AcDbEntity
  8
0
100
AcDbCircle
 10
151.2435437078518
 20
382.6083078426171
 30
0.0
 40
1.742199999999999
100
AcDbArc
 50
269.9986903345002
 51
0.0013096654997424
  0
LINE
  5
1D01
330
2
100
AcDbEntity
  8
0
100
AcDbLine
 10
149.7732137078518
 20
425.0786078426171
 30
0.0
 11
149.7732137078518
 21
379.0786078426171
 31
0.0
  0
LINE
  5
1D02
330
2
100
AcDbEntity
  8
0
100
AcDbLine
 10
199.7731137078518
 20
425.0786078426171
 30
0.0
 11
199.7731137078517
 21
379.0786078426171
 31
0.0
  0
LINE
  5
1D03
330
2
100
AcDbEntity
  8
0
100
AcDbLine
 10
198.3733187078518
 20
379.4786018426171
 30
0.0
 11
198.3733187078518
 21
419.5786078426171
 31
0.0
  0
LINE
  5
1D04
330
2
100
AcDbEntity
  8
CENTER
100
AcDbLine
 10
174.7732207078518
 20
437.467833786725
 30
0.0
 11
174.7732207078518
 21
366.3286078426172
 31
0.0
  0
LINE
  5
1D09
330
2
100
AcDbEntity
  8
CENTER
100
AcDbLine
 10
174.7732207078518
 20
146.2730036686732
 30
0.0
 11
174.7732207078518
 21
197.3542026686732
 31
0.0
  0
LINE
  5
1D0A
330
2
100
AcDbEntity
  8
0
100
AcDbLine
 10
149.7732137078518
 20
185.9667026686732
 30
0.0
 11
149.7732137078518
 21
157.9667046686732
 31
0.0
  0
LINE
  5
1D0B
330
2
100
AcDbEntity
  8
0
100
AcDbLine
 10
147.7732287078517
 20
183.9667026686732
 30
0.0
 11
147.7732137078518
 21
167.9667046686732
 31
0.0
  0
LINE
  5
1D0C
330
2
100
AcDbEntity
  8
0
100
AcDbLine
 10
199.7732207078518
 20
185.9667026686732
 30
0.0
 11
199.7732207078518
 21
157.9667046686732
 31
0.0
  0
LINE
  5
1D0F
330
2
100
AcDbEntity
  8
0
100
AcDbLine
 10
149.7732137078518
 20
157.9667046686732
 30
0.0
 11
151.7732137078518
 21
155.9667046686732
 31
0.0
  0
LINE
  5
1D11
330
2
100
AcDbEntity
  8
0
100
AcDbLine
 10
149.7732137078518
 20
157.9667046686732
 30
0.0
 11
199.7732207078518
 21
157.9667046686732
 31
0.0
  0
LINE
  5
1D12
330
2
100
AcDbEntity
  8
0
100
AcDbLine
 10
147.7732137078518
 20
167.9667046686732
 30
0.0
 11
199.7732207078518
 21
167.9667046686732
 31
0.0
  0
LINE
  5
1D13
330
2
100
AcDbEntity
  8
0
100
AcDbLine
 10
151.2732137078518
 20
155.9667046686732
 30
0.0
 11
197.7732207078518
 21
155.9667046686732
 31
0.0
  0
LINE
  5
1D16
330
2
100
AcDbEntity
  8
0
100
AcDbLine
 10
151.2732137078518
 20
155.9667046686732
 30
0.0
 11
151.2732137078518
 21
154.4667046686732
 31
0.0
  0
LINE
  5
1D17
330
2
100
AcDbEntity
  8
0
100
AcDbLine
 10
197.7732207078518
 20
155.9667046686732
 30
0.0
 11
199.7732207078518
 21
157.9667046686732
 31
0.0
  0
LINE
  5
1D19
330
2
100
AcDbEntity
  8
0
100
AcDbLine
 10
197.2732207078518
 20
155.9667046686732
 30
0.0
 11
197.2732207078518
 21
154.4667046686732
 31
0.0
  0
LINE
  5
1D1A
330
2
100
AcDbEntity
  8
0
100
AcDbLine
 10
149.7732137078518
 20
379.0786078426171
 30
0.0
 11
151.7732137078518
 21
377.0786078426171
 31
0.0
  0
LINE
  5
1D1B
330
2
100
AcDbEntity
  8
0
100
AcDbLine
 10
149.7732137078518
 20
379.0786078426171
 30
0.0
 11
151.7732137078518
 21
377.0786078426171
 31
0.0
  0
ARC
  5
1D1C
330
2
100
AcDbEntity
  8
0
100
AcDbCircle
 10
151.2435437078518
 20
378.5489078426172
 30
0.0
 40
1.742199999999999
100
AcDbArc
 50
359.9986903345002
 51
90.00130966549322
  0
LINE
  5
1D1E
330
2
100
AcDbEntity
  8
CENTER
100
AcDbLine
 10
136.8294647078518
 20
177.4667026686732
 30
0.0
 11
208.7255236715899
 21
177.4667026686732
 31
0.0
  0
LINE
  5
1D1F
330
2
100
AcDbEntity
  8
0
100
AcDbLine
 10
150.7732137078518
 20
186.9667026686732
 30
0.0
 11
151.9353118918264
 21
186.9667026686732
 31
0.0
  0
SPLINE
  5
1D20
330
2
100
AcDbEntity
  8
0
100
AcDbSpline
210
0.0
220
0.0
230
1.0
 70
     8
 71
     3
 72
    11
 73
     7
 74
     0
 42
0.0000000001
 43
0.0000000001
 40
0.0
 40
0.0
 40
0.0
 40
0.0
 40
0.4601364636755307
 40
1.04988694485363
 40
1.713742833862792
 40
2.320347933405154
 40
2.320347933405154
 40
2.320347933405154
 40
2.320347933405179
 10
152.9857207073969
 20
185.5497026686731
 30
0.0
 10
152.963303050289
 20
185.704726108353
 30
0.0
 10
152.9121529950557
 20
186.0584409262705
 30
0.0
 10
152.4762678335221
 20
186.4831685978722
 30
0.0
 10
151.8712171185147
 20
186.7023557778381
 30
0.0
 10
151.4460324943388
 20
186.6333644782273
 30
0.0
 10
151.2434808846878
 20
186.6191442060507
 30
0.0
  0
ARC
  5
1D21
330
2
100
AcDbEntity
  8
0
100
AcDbCircle
 10
153.2732207078519
 20
178.0667026686731
 30
0.0
 40
9.0
100
AcDbArc
 50
74.11914999172243
 51
105.8808500082775
  0
LINE
  5
1D22
330
2
100
AcDbEntity
  8
0
100
AcDbLine
 10
157.2732141364227
 20
184.4667026686731
 30
0.0
 11
149.7732141364227
 21
184.4667026686731
 31
0.0
  0
LINE
  5
1D35
330
2
100
AcDbEntity
  8
0
100
AcDbLine
 10
144.2732287078517
 20
181.4667026686732
 30
0.0
 11
147.7732287078517
 21
182.9667026686732
 31
0.0
  0
LINE
  5
1D36
330
2
100
AcDbEntity
  8
0
100
AcDbLine
 10
144.2732137078518
 20
173.4667026686732
 30
0.0
 11
147.7732137078518
 21
171.9667026686732
 31
0.0
  0
LINE
  5
1D37
330
2
100
AcDbEntity
  8
0
100
AcDbLine
 10
144.2732287078517
 20
181.4667026686732
 30
0.0
 11
144.2732287078517
 21
173.4667026686732
 31
0.0
  0
LINE
  5
1D38
330
2
100
AcDbEntity
  8
0
100
AcDbLine
 10
151.2434808846878
 20
186.6191442060507
 30
0.0
 11
151.2232207078518
 21
186.8301209515123
 31
0.0
  0
ARC
  5
1D39
330
2
100
AcDbEntity
  8
0
100
AcDbCircle
 10
148.7732287078517
 20
183.9667026686732
 30
0.0
 40
1.0
100
AcDbArc
 50
90.0
 51
180.0
  0
LINE
  5
1D3A
330
2
100
AcDbEntity
  8
0
100
AcDbLine
 10
148.7732137078518
 20
184.9667026686732
 30
0.0
 11
149.7732137078518
 21
184.9667026686732
 31
0.0
  0
LINE
  5
1D3B
330
2
100
AcDbEntity
  8
0
100
AcDbLine
 10
149.7732207078519
 20
184.4667026686731
 30
0.0
 11
149.8711568467397
 21
185.5861178584914
 31
0.0
  0
LINE
  5
1D3C
330
2
100
AcDbEntity
  8
0
100
AcDbLine
 10
149.7732137078518
 20
185.9667026686732
 30
0.0
 11
150.7732137078518
 21
186.9667026686732
 31
0.0
  0
LINE
  5
1D3D
330
2
100
AcDbEntity
  8
0
100
AcDbLine
 10
150.7732141364227
 20
186.9667026686731
 30
0.0
 11
149.7732137078518
 21
185.9667026686732
 31
0.0
  0
ARC
  5
1D3E
330
2
100
AcDbEntity
  8
0
100
AcDbCircle
 10
151.1662099542588
 20
185.4728153929194
 30
0.0
 40
1.3
100
AcDbArc
 50
105.8808500082775
 51
174.9999999999999
  0
ARC
  5
1D3F
330
2
100
AcDbEntity
  8
0
100
AcDbCircle
 10
153.2732437078517
 20
380.5786078426172
 30
0.0
 40
2.049999999999998
100
AcDbArc
 50
171.9380399160183
 51
180.0
  0
ARC
  5
1D40
330
2
100
AcDbEntity
  8
0
100
AcDbCircle
 10
153.2732437078517
 20
380.5786078426172
 30
0.0
 40
2.049999999999998
100
AcDbArc
 50
180.0
 51
188.0619600839816
  0
LINE
  5
1D41
330
2
100
AcDbEntity
  8
0
100
AcDbLine
 10
157.2732141364227
 20
185.9667026686732
 30
0.0
 11
199.7732277078519
 21
185.9667026686732
 31
0.0
  0
LINE
  5
1D42
330
2
100
AcDbEntity
  8
0
100
AcDbLine
 10
154.6111295238773
 20
186.9667026686732
 30
0.0
 11
198.7732207078518
 21
186.9667026686732
 31
0.0
  0
LINE
  5
1D43
330
2
100
AcDbEntity
  8
0
100
AcDbLine
 10
157.7732141364227
 20
186.9667026686731
 30
0.0
 11
157.2732141364227
 21
186.4667026686731
 31
0.0
  0
LINE
  5
1D44
330
2
100
AcDbEntity
  8
0
100
AcDbLine
 10
157.2732141364227
 20
184.4667026686731
 30
0.0
 11
157.2732141364227
 21
186.4667026686731
 31
0.0
  0
SPLINE
  5
1D45
330
2
100
AcDbEntity
  8
0
100
AcDbSpline
210
0.0
220
0.0
230
1.0
 70
     8
 71
     3
 72
    11
 73
     7
 74
     0
 42
0.0000000001
 43
0.0000000001
 40
0.0
 40
0.0
 40
0.0
 40
0.0
 40
0.4601364636755307
 40
1.04988694485363
 40
1.713742833862792
 40
2.320347933405154
 40
2.320347933405154
 40
2.320347933405154
 40
2.320347933405179
 10
153.5607207083069
 20
185.5497026686731
 30
0.0
 10
153.5831383654148
 20
185.704726108353
 30
0.0
 10
153.634288420648
 20
186.0584409262705
 30
0.0
 10
154.0701735821817
 20
186.4831685978722
 30
0.0
 10
154.675224297189
 20
186.7023557778381
 30
0.0
 10
155.1004089213649
 20
186.6333644782273
 30
0.0
 10
155.3029605310159
 20
186.6191442060507
 30
0.0
  0
LINE
  5
1D46
330
2
100
AcDbEntity
  8
0
100
AcDbLine
 10
153.5607207083069
 20
185.5497026686731
 30
0.0
 11
152.9857207073969
 21
185.5497026686731
 31
0.0
  0
LINE
  5
1D47
330
2
100
AcDbEntity
  8
0
100
AcDbLine
 10
155.3029605310159
 20
186.6191442060507
 30
0.0
 11
155.3232207078519
 21
186.8301209515123
 31
0.0
  0
LINE
  5
1D48
330
2
100
AcDbEntity
  8
0
100
AcDbLine
 10
156.7732207078518
 20
184.4667026686731
 30
0.0
 11
156.675284568964
 21
185.5861178584914
 31
0.0
  0
LINE
  5
1D49
330
2
100
AcDbEntity
  8
0
100
AcDbLine
 10
157.2732141364227
 20
186.4667026686731
 30
0.0
 11
156.218198097472
 21
186.4667026686731
 31
0.0
  0
ARC
  5
1D4A
330
2
100
AcDbEntity
  8
0
100
AcDbCircle
 10
155.3802314614447
 20
185.4728153929194
 30
0.0
 40
1.3
100
AcDbArc
 50
5.000000000000026
 51
74.11914999172243
  0
LINE
  5
1D4B
330
2
100
AcDbEntity
  8
0
100
AcDbLine
 10
198.7732277078519
 20
186.9667026686732
 30
0.0
 11
199.7732277078519
 21
185.9667026686732
 31
0.0
  0
LINE
  5
1D4C
330
2
100
AcDbEntity
  8
0
100
AcDbLine
 10
197.3733187078518
 20
378.4786018426172
 30
0.0
 11
198.3733187078518
 21
379.4786018426171
 31
0.0
  0
LINE
  5
1D4D
330
2
100
AcDbEntity
  8
0
100
AcDbLine
 10
199.7733127078518
 20
379.0786078426171
 30
0.0
 11
197.7731137078517
 21
377.0786078426171
 31
0.0
  0
LINE
  5
1D4E
330
2
100
AcDbEntity
  8
0
100
AcDbLine
 10
199.7731137078517
 20
379.0786078426171
 30
0.0
 11
197.7731137078517
 21
377.0786078426171
 31
0.0
  0
LINE
  5
1D4F
330
2
100
AcDbEntity
  8
0
100
AcDbLine
 10
199.7731137078517
 20
379.0786078426171
 30
0.0
 11
197.7731137078517
 21
377.0786078426171
 31
0.0
  0
LINE
  5
1D50
330
2
100
AcDbEntity
  8
0
100
AcDbLine
 10
197.3733187078518
 20
378.4786018426172
 30
0.0
 11
157.2732137078518
 21
378.4786018426172
 31
0.0
  0
LINE
  5
1D51
330
2
100
AcDbEntity
  8
0
100
AcDbLine
 10
151.7732137078518
 20
377.0786078426171
 30
0.0
 11
197.7731137078517
 21
377.0786078426171
 31
0.0
  0
ARC
  5
1D52
330
2
100
AcDbEntity
  8
0
100
AcDbCircle
 10
153.2732437078517
 20
380.5786078426172
 30
0.0
 40
2.049999999999998
100
AcDbArc
 50
0.0
 51
8.061960083981649
  0
ARC
  5
1D53
330
2
100
AcDbEntity
  8
0
100
AcDbCircle
 10
153.2732437078517
 20
380.5786078426172
 30
0.0
 40
2.049999999999998
100
AcDbArc
 50
270.0
 51
278.0619600839818
  0
ARC
  5
1D54
330
2
100
AcDbEntity
  8
0
100
AcDbCircle
 10
153.2732437078517
 20
380.5786078426172
 30
0.0
 40
2.049999999999998
100
AcDbArc
 50
261.9380399160181
 51
270.0
  0
ARC
  5
1D55
330
2
100
AcDbEntity
  8
0
100
AcDbCircle
 10
153.2732437078517
 20
380.5786078426172
 30
0.0
 40
2.049999999999998
100
AcDbArc
 50
351.9380399160183
 51
0.0
  0
ARC
  5
1D56
330
2
100
AcDbEntity
  8
0
100
AcDbCircle
 10
155.3029437078519
 20
378.5489078426172
 30
0.0
 40
1.742199999999999
100
AcDbArc
 50
89.99869033450025
 51
180.0013096654997
  0
LINE
  5
1D57
330
2
100
AcDbEntity
  8
0
100
AcDbLine
 10
157.2732137078518
 20
380.5786078426172
 30
0.0
 11
157.2732137078518
 21
377.0788068426172
 31
0.0
  0
LINE
  5
1D9C
330
2
100
AcDbEntity
  8
0
100
AcDbLine
 10
149.7732137078518
 20
425.0786078426171
 30
0.0
 11
151.7732137078518
 21
427.0786078426172
 31
0.0
  0
LINE
  5
1D9D
330
2
100
AcDbEntity
  8
0
100
AcDbLine
 10
151.1732077078518
 20
424.6785988426172
 30
0.0
 11
152.1732147078518
 21
425.6785988426171
 31
0.0
  0
LINE
  5
1D9F
330
2
100
AcDbEntity
  8
0
100
AcDbLine
 10
153.2732437078518
 20
384.5786078426172
 30
0.0
 11
149.7732437078518
 21
384.5786078426172
 31
0.0
  0
LINE
  5
1DA0
330
2
100
AcDbEntity
  8
0
100
AcDbLine
 10
147.7732137078518
 20
395.5786078426172
 30
0.0
 11
147.7732137078518
 21
408.5786078426171
 31
0.0
  0
LINE
  5
1DA1
330
2
100
AcDbEntity
  8
0
100
AcDbLine
 10
144.2732137078518
 20
404.0786078426171
 30
0.0
 11
144.2732137078518
 21
400.0786078426171
 31
0.0
  0
LINE
  5
1DA2
330
2
100
AcDbEntity
  8
0
100
AcDbLine
 10
151.1732077078518
 20
424.6785988426172
 30
0.0
 11
151.1732147078518
 21
384.5786078426172
 31
0.0
  0
LINE
  5
1DA3
330
2
100
AcDbEntity
  8
0
100
AcDbLine
 10
147.7732137078518
 20
396.5786078426172
 30
0.0
 11
144.2732137078518
 21
400.0786078426171
 31
0.0
  0
LINE
  5
1DA4
330
2
100
AcDbEntity
  8
0
100
AcDbLine
 10
148.7732137078518
 20
394.5786078426172
 30
0.0
 11
149.7732137078518
 21
394.5786078426172
 31
0.0
  0
ARC
  5
1DA5
330
2
100
AcDbEntity
  8
0
100
AcDbCircle
 10
148.7732137078516
 20
395.5786078426172
 30
0.0
 40
1.0
100
AcDbArc
 50
180.0
 51
270.0
  0
ARC
  5
1DA6
330
2
100
AcDbEntity
  8
0
100
AcDbCircle
 10
148.7732287078517
 20
408.5786078426171
 30
0.0
 40
1.0
100
AcDbArc
 50
90.0
 51
180.0
  0
LINE
  5
1DA7
330
2
100
AcDbEntity
  8
0
100
AcDbLine
 10
144.2732137078518
 20
404.0786078426171
 30
0.0
 11
147.7732137078518
 21
407.5786078426172
 31
0.0
  0
LINE
  5
1DA8
330
2
100
AcDbEntity
  8
0
100
AcDbLine
 10
148.7732137078518
 20
409.5786078426171
 30
0.0
 11
149.7732137078518
 21
409.5786078426171
 31
0.0
  0
LINE
  5
1DA9
330
2
100
AcDbEntity
  8
0
100
AcDbLine
 10
192.2731137078518
 20
423.5786078426171
 30
0.0
 11
192.2731137078518
 21
427.0786078426171
 31
0.0
  0
CIRCLE
  5
1DAA
330
2
100
AcDbEntity
  8
0
100
AcDbCircle
 10
196.2733127078518
 20
423.5786078426172
 30
0.0
 40
3.500000000000028
  0
LINE
  5
1DAB
330
2
100
AcDbEntity
  8
0
100
AcDbLine
 10
197.7731137078518
 20
427.0786078426171
 30
0.0
 11
199.7731137078518
 21
425.0786078426171
 31
0.0
  0
LINE
  5
1DAC
330
2
100
AcDbEntity
  8
0
100
AcDbLine
 10
199.7731137078518
 20
425.0786078426171
 30
0.0
 11
197.7731137078518
 21
427.0786078426171
 31
0.0
  0
ARC
  5
1DAD
330
2
100
AcDbEntity
  8
0
100
AcDbCircle
 10
198.3030127078519
 20
425.6083078426171
 30
0.0
 40
1.742199999999999
100
AcDbArc
 50
179.9986903345002
 51
270.0013096654932
  0
ARC
  5
1DAE
330
2
100
AcDbEntity
  8
0
100
AcDbCircle
 10
198.3030127078519
 20
421.5489078426172
 30
0.0
 40
1.742199999999999
100
AcDbArc
 50
89.99869033450025
 51
180.0013096654997
  0
LINE
  5
1DAF
330
2
100
AcDbEntity
  8
0
100
AcDbLine
 10
196.2731137078518
 20
419.5786078426171
 30
0.0
 11
199.7731137078518
 21
419.5786078426171
 31
0.0
  0
ARC
  5
1DB0
330
2
100
AcDbEntity
  8
0
100
AcDbCircle
 10
153.2732437078517
 20
380.5786078426172
 30
0.0
 40
2.049999999999998
100
AcDbArc
 50
81.93803991601813
 51
90.0
  0
ARC
  5
1DB1
330
2
100
AcDbEntity
  8
0
100
AcDbCircle
 10
153.2732437078517
 20
380.5786078426172
 30
0.0
 40
2.049999999999998
100
AcDbArc
 50
90.0
 51
98.06196008398188
  0
LINE
  5
1DB2
330
2
100
AcDbEntity
  8
0
100
AcDbLine
 10
152.1732147078518
 20
425.6785988426171
 30
0.0
 11
192.2731137078518
 21
425.6785988426171
 31
0.0
  0
ARC
  5
1DB3
330
2
100
AcDbEntity
  8
0
100
AcDbCircle
 10
196.2733127078518
 20
423.5786078426172
 30
0.0
 40
2.049999999999998
100
AcDbArc
 50
270.0
 51
278.0619600839818
  0
ARC
  5
1DB4
330
2
100
AcDbEntity
  8
0
100
AcDbCircle
 10
194.2436127078518
 20
425.6083078426171
 30
0.0
 40
1.742199999999999
100
AcDbArc
 50
269.9986903345002
 51
0.0013096654997424
  0
ARC
  5
1DB5
330
2
100
AcDbEntity
  8
0
100
AcDbCircle
 10
194.2436127078518
 20
421.5489078426172
 30
0.0
 40
1.742199999999999
100
AcDbArc
 50
359.9986903345002
 51
90.00130966549322
  0
ARC
  5
1DB6
330
2
100
AcDbEntity
  8
0
100
AcDbCircle
 10
196.2733127078518
 20
423.5786078426172
 30
0.0
 40
2.049999999999998
100
AcDbArc
 50
180.0
 51
188.0619600839816
  0
ARC
  5
1DB7
330
2
100
AcDbEntity
  8
0
100
AcDbCircle
 10
196.2733127078518
 20
423.5786078426172
 30
0.0
 40
2.049999999999998
100
AcDbArc
 50
171.9380399160183
 51
180.0
  0
ARC
  5
1DB8
330
2
100
AcDbEntity
  8
0
100
AcDbCircle
 10
196.2733127078518
 20
423.5786078426172
 30
0.0
 40
2.049999999999998
100
AcDbArc
 50
261.9380399160181
 51
270.0
  0
ARC
  5
1DB9
330
2
100
AcDbEntity
  8
0
100
AcDbCircle
 10
196.2733127078518
 20
423.5786078426172
 30
0.0
 40
4.0
100
AcDbArc
 50
180.0
 51
270.0
  0
ARC
  5
1DBA
330
2
100
AcDbEntity
  8
0
100
AcDbCircle
 10
196.2733127078518
 20
423.5786078426172
 30
0.0
 40
2.049999999999998
100
AcDbArc
 50
81.93803991601813
 51
90.0
  0
ARC
  5
1DBB
330
2
100
AcDbEntity
  8
0
100
AcDbCircle
 10
196.2733127078518
 20
423.5786078426172
 30
0.0
 40
2.049999999999998
100
AcDbArc
 50
90.0
 51
98.06196008398188
  0
ARC
  5
1DBC
330
2
100
AcDbEntity
  8
0
100
AcDbCircle
 10
196.2733127078518
 20
423.5786078426172
 30
0.0
 40
2.049999999999998
100
AcDbArc
 50
351.9380399160183
 51
0.0
  0
ARC
  5
1DBD
330
2
100
AcDbEntity
  8
0
100
AcDbCircle
 10
196.2733127078518
 20
423.5786078426172
 30
0.0
 40
2.049999999999998
100
AcDbArc
 50
0.0
 51
8.061960083981649
  0
LINE
  5
1DBE
330
2
100
AcDbEntity
  8
0
100
AcDbLine
 10
151.7732137078518
 20
427.0786078426172
 30
0.0
 11
197.7731137078518
 21
427.0786078426171
 31
0.0
  0
LINE
  5
1E1A
330
2
100
AcDbEntity
  8
0
100
AcDbLine
 10
149.2733437078517
 20
409.5786078426171
 30
0.0
 11
149.2733437078517
 21
442.0785768426171
 31
0.0
  0
VIEWPORT
  5
12A8
330
12A7
100
AcDbEntity
 67
     1
  8
0
100
AcDbViewport
 10
144.6494032678484
 20
98.18346866433632
 30
0.0
 40
337.078217044107
 41
215.1146463957828
 68
     1
 69
     1
1001
ACAD
1000
MVIEW
1002
{
1070
    16
1010
0.0
1020
0.0
1030
0.0
1010
0.0
1020
0.0
1030
1.0
1040
0.0
1040
215.1146463957828
1040
144.6494032678484
1040
98.18346866433632
1040
50.0
1040
0.0
1040
0.0
1070
     0
1070
   100
1070
     1
1070
     1
1070
     0
1070
     0
1070
     0
1070
     0
1040
0.0
1040
0.0
1040
0.0
1040
10.0
1040
10.0
1040
10.0
1040
10.0
1070
     0
1002
{
1002
}
1002
}
  0
TEXT
  5
12A9
330
12A7
100
AcDbEntity
 67
     1
  8
TEXT
100
AcDbText
 10
266.4665517915716
 20
9.492177985111482
 30
0.0
 40
2.0
  1
2006.03.10
 41
0.7
100
AcDbText
  0
TEXT
  5
12AA
330
12A7
100
AcDbEntity
 67
     1
  8
TEXT
100
AcDbText
 10
221.2876186247744
 20
25.81289445791026
 30
0.0
 40
2.0
  1
HFMN22R-S40WT
100
AcDbText
  0
INSERT
  5
12AB
330
12A7
100
AcDbEntity
 67
     1
  8
0
100
AcDbBlockReference
 66
     1
  2
外寸枠A4テンプレート
 10
0.0
 20
0.0
 30
0.0
  0
ATTRIB
  5
12AC
330
12AB
100
AcDbEntity
 67
     1
  8
TEXT
100
AcDbText
 10
213.8999333333332
 20
34.33735183158626
 30
0.0
 40
2.500000000000001
  1
HFMN-22R-300~450-S40WT
 72
     4
 11
241.8165999999999
 21
35.58735183158626
 31
0.0
100
AcDbAttribute
  2
T　I　T　L　E
 70
     0
  0
ATTRIB
  5
12AD
330
12AB
100
AcDbEntity
 67
     1
  8
TEXT
100
AcDbText
 10
231.4275923057046
 20
7.13444951887557
 30
0.0
 40
2.0
  1
1：3
 72
     4
 11
234.056163734276
 21
8.13444951887557
 31
0.0
100
AcDbAttribute
  2
FREE
 70
     0
  0
ATTRIB
  5
12AE
330
12AB
100
AcDbEntity
 67
     1
  8
TEXT
100
AcDbText
 10
205.1985180173093
 20
6.884449518875568
 30
0.0
 40
2.500000000000004
  1
海野
 72
     4
 11
207.865184683976
 21
8.13444951887557
 31
0.0
100
AcDbAttribute
  2
海野
 70
     0
  0
ATTRIB
  5
12AF
330
12AB
100
AcDbEntity
 67
     1
  8
TEXT
100
AcDbText
 10
222.7519560922427
 20
6.884449518875568
 30
0.0
 40
2.500000000000004
  1
吉田
 72
     4
 11
225.3352894255761
 21
8.13444951887557
 31
0.0
100
AcDbAttribute
  2
鳥居
 70
     0
  0
ATTRIB
  5
12B0
330
12AB
100
AcDbEntity
 67
     1
  8
TEXT
100
AcDbText
 10
213.9476826899094
 20
6.884449518875567
 30
0.0
 40
2.500000000000004
  1
永坂
 72
     4
 11
216.6143493565761
 21
8.13444951887557
 31
0.0
100
AcDbAttribute
  2
永坂
 70
     0
  0
SEQEND
  5
12B1
330
12AB
100
AcDbEntity
 67
     1
  8
0
  0
INSERT
  5
12B2
330
12A7
100
AcDbEntity
 67
     1
  8
TEXT
100
AcDbBlockReference
  2
1
 10
202.0
 20
40.0
 30
0.0
  0
VIEWPORT
  5
12B3
330
12A7
100
AcDbEntity
 67
     1
  8
DEFPOINTS
100
AcDbViewport
 10
141.5
 20
118.5774545812709
 30
0.0
 40
277.0
 41
96.38253677281909
 68
    -1
 69
     2
1001
ACAD
1000
MVIEW
1002
{
1070
    16
1010
0.0
1020
0.0
1030
0.0
1010
0.0
1020
0.0
1030
1.0
1040
0.0
1040
289.1476109453849
1040
411.568896155448
1040
145.3309678456542
1040
50.0
1040
0.0
1040
0.0
1070
     0
1070
   100
1070
     1
1070
     3
1070
     0
1070
     0
1070
     0
1070
     0
1040
0.0
1040
0.0
1040
0.0
1040
10.0
1040
10.0
1040
10.0
1040
10.0
1070
     0
1002
{
1003
TITLE
1002
}
1002
}
  0
INSERT
  5
13FE
330
12A7
100
AcDbEntity
 67
     1
  8
TEXT
100
AcDbBlockReference
  2
GSPEC_H-22R-300-450
 10
3.0
 20
4.0
 30
0.0
  0
INSERT
  5
165C
330
12A7
100
AcDbEntity
 67
     1
  8
TEXT
100
AcDbBlockReference
  2
MSPEC_S40WF-75
 10
3.0
 20
4.0
 30
0.0
  0
INSERT
  5
176D
330
12A7
100
AcDbEntity
 67
     1
  8
TEXT
100
AcDbBlockReference
  2
BSPEC_90-90-0038
 10
3.0
 20
4.0
 30
0.0
  0
ENDSEC
  0
SECTION
  2
OBJECTS
  0
DICTIONARY
  5
7
330
0
100
AcDbDictionary
  3
ACAD_GROUP
350
75
  3
ACAD_LAYOUT
350
61
  3
ACAD_MLINESTYLE
350
76
  3
ACAD_PLOTSETTINGS
350
77
  3
ACAD_PLOTSTYLENAME
350
6
  3
ACADDIM
350
480
  3
ACDBHEADERROUNDTRIPXREC
350
1E96
  3
ACDBVARIABLEDICTIONARY
350
102
  3
DWGPROPS
350
3D2
  0
DICTIONARY
  5
1EB7
330
2
100
AcDbDictionary
280
     1
  3
ACAD_LAYOUTSELFREF
360
1EB8
  0
DICTIONARY
  5
1EBA
330
12A7
100
AcDbDictionary
280
     1
  3
ACAD_LAYOUTSELFREF
360
1EBB
  0
DICTIONARY
  5
75
102
{ACAD_REACTORS
330
7
102
}
330
7
100
AcDbDictionary
  0
DICTIONARY
  5
61
102
{ACAD_REACTORS
330
7
102
}
330
7
100
AcDbDictionary
  0
DICTIONARY
  5
76
102
{ACAD_REACTORS
330
7
102
}
330
7
100
AcDbDictionary
  3
STANDARD
350
78
  0
DICTIONARY
  5
77
102
{ACAD_REACTORS
330
7
102
}
330
7
100
AcDbDictionary
  0
ACDBDICTIONARYWDFLT
  5
6
102
{ACAD_REACTORS
330
7
102
}
330
7
100
AcDbDictionary
281
     1
  3
Normal
350
5
100
AcDbDictionaryWithDefault
340
5
  0
XRECORD
  5
480
102
{ACAD_REACTORS
330
7
102
}
330
7
100
AcDbXrecord
 90
   990106
  3

 60
     0
 61
     0
 62
     1
 63
     3
 64
     1
 65
     0
 66
     0
 67
     3
 68
     1
 69
     0
 70
     0
 71
     0
 72
     0
 40
0.0
170
     2
340
0
  0
DICTIONARY
  5
1E96
102
{ACAD_REACTORS
330
7
102
}
330
7
100
AcDbDictionary
  3
CEPSNTYPE
350
1EA0
  3
DIMSTYLEDATA
350
1EA4
  3
FINGERPRINTGUID
350
1EA1
  3
HYPERLINKBASE
350
1E99
  3
INSUNITS
350
1E9F
  3
LAYOUTDICT
350
1E9B
  3
LWETCUNION
350
1E9E
  3
PLOTSETDICT
350
1E9C
  3
PLOTSTYLNAMDICT
350
1E9D
  3
PSVPSCALE
350
1EA3
  3
PUCSBASE
350
1EA7
  3
PUCSORGBACK
350
1EAD
  3
PUCSORGBOTTOM
350
1EA9
  3
PUCSORGFRONT
350
1EAC
  3
PUCSORGLEFT
350
1EAA
  3
PUCSORGRIGHT
350
1EAB
  3
PUCSORGTOP
350
1EA8
  3
PUCSORTHOREF
350
1EA5
  3
PUCSORTHOVIEW
350
1EA6
  3
STYLESHEET
350
1E9A
  3
TSTACKALIGN
350
1E97
  3
TSTACKSIZE
350
1E98
  3
UCSBASE
350
1EB0
  3
UCSORGBACK
350
1EB6
  3
UCSORGBOTTOM
350
1EB2
  3
UCSORGFRONT
350
1EB5
  3
UCSORGLEFT
350
1EB3
  3
UCSORGRIGHT
350
1EB4
  3
UCSORGTOP
350
1EB1
  3
UCSORTHOREF
350
1EAE
  3
UCSORTHOVIEW
350
1EAF
  3
VERSIONGUID
350
1EA2
  0
DICTIONARY
  5
102
102
{ACAD_REACTORS
330
7
102
}
330
7
100
AcDbDictionary
  3
DIMASSOC
350
103
  0
XRECORD
  5
3D2
102
{ACAD_REACTORS
330
7
102
}
330
7
100
AcDbXrecord
  1
DWGPROPS COOKIE
  2

  3

  4

  6

  7

  8

  9

300
=
301
=
302
=
303
=
304
=
305
=
306
=
307
=
308
=
309
=
 40
0.5353330671296296
 41
2452052.431989363
 42
2453406.550756377
  1

 90
        0
  0
XRECORD
  5
1EB8
102
{ACAD_REACTORS
330
1EB7
102
}
330
1EB7
100
AcDbXrecord
340
2
  0
XRECORD
  5
1EBB
102
{ACAD_REACTORS
330
1EBA
102
}
330
1EBA
100
AcDbXrecord
340
12A7
  0
MLINESTYLE
  5
78
102
{ACAD_REACTORS
330
76
102
}
330
76
100
AcDbMlineStyle
  2
STANDARD
 70
     0
  3

 62
     0
 51
90.0
 52
90.0
 71
     2
 49
0.5
 62
   256
  6
BYLAYER
 49
-0.5
 62
   256
  6
BYLAYER
  0
ACDBPLACEHOLDER
  5
5
102
{ACAD_REACTORS
330
6
102
}
330
6
100
AcDbPlaceHolder
280
     0
  0
XRECORD
  5
1EA0
102
{ACAD_REACTORS
330
1E96
102
}
330
1E96
100
AcDbXrecord
 90
        0
  0
XRECORD
  5
1EA4
102
{ACAD_REACTORS
330
1E96
102
}
330
1E96
100
AcDbXrecord
1000
DSTYLE
1002
{
1070
   179
 70
     2
1070
   277
 70
     6
1002
}
  0
XRECORD
  5
1EA1
102
{ACAD_REACTORS
330
1E96
102
}
330
1E96
100
AcDbXrecord
  1
{6385560B-F4B1-4644-A7C2-A3E32AC3D232}
  0
XRECORD
  5
1E99
102
{ACAD_REACTORS
330
1E96
102
}
330
1E96
100
AcDbXrecord
  1

  0
XRECORD
  5
1E9F
102
{ACAD_REACTORS
330
1E96
102
}
330
1E96
100
AcDbXrecord
 90
        0
  0
XRECORD
  5
1E9B
102
{ACAD_REACTORS
330
1E96
102
}
330
1E96
100
AcDbXrecord
340
61
  0
XRECORD
  5
1E9E
102
{ACAD_REACTORS
330
1E96
102
}
330
1E96
100
AcDbXrecord
 90
    10781
  0
XRECORD
  5
1E9C
102
{ACAD_REACTORS
330
1E96
102
}
330
1E96
100
AcDbXrecord
340
77
  0
XRECORD
  5
1E9D
102
{ACAD_REACTORS
330
1E96
102
}
330
1E96
100
AcDbXrecord
340
6
  0
XRECORD
  5
1EA3
102
{ACAD_REACTORS
330
1E96
102
}
330
1E96
100
AcDbXrecord
 40
0.0
  0
XRECORD
  5
1EA7
102
{ACAD_REACTORS
330
1E96
102
}
330
1E96
100
AcDbXrecord
340
0
  0
XRECORD
  5
1EAD
102
{ACAD_REACTORS
330
1E96
102
}
330
1E96
100
AcDbXrecord
 10
0.0
 20
0.0
 30
0.0
  0
XRECORD
  5
1EA9
102
{ACAD_REACTORS
330
1E96
102
}
330
1E96
100
AcDbXrecord
 10
0.0
 20
0.0
 30
0.0
  0
XRECORD
  5
1EAC
102
{ACAD_REACTORS
330
1E96
102
}
330
1E96
100
AcDbXrecord
 10
0.0
 20
0.0
 30
0.0
  0
XRECORD
  5
1EAA
102
{ACAD_REACTORS
330
1E96
102
}
330
1E96
100
AcDbXrecord
 10
0.0
 20
0.0
 30
0.0
  0
XRECORD
  5
1EAB
102
{ACAD_REACTORS
330
1E96
102
}
330
1E96
100
AcDbXrecord
 10
0.0
 20
0.0
 30
0.0
  0
XRECORD
  5
1EA8
102
{ACAD_REACTORS
330
1E96
102
}
330
1E96
100
AcDbXrecord
 10
0.0
 20
0.0
 30
0.0
  0
XRECORD
  5
1EA5
102
{ACAD_REACTORS
330
1E96
102
}
330
1E96
100
AcDbXrecord
340
0
  0
XRECORD
  5
1EA6
102
{ACAD_REACTORS
330
1E96
102
}
330
1E96
100
AcDbXrecord
 70
     0
  0
XRECORD
  5
1E9A
102
{ACAD_REACTORS
330
1E96
102
}
330
1E96
100
AcDbXrecord
  1
Sekkei.ctb
  0
XRECORD
  5
1E97
102
{ACAD_REACTORS
330
1E96
102
}
330
1E96
100
AcDbXrecord
 90
        1
  0
XRECORD
  5
1E98
102
{ACAD_REACTORS
330
1E96
102
}
330
1E96
100
AcDbXrecord
 90
       70
  0
XRECORD
  5
1EB0
102
{ACAD_REACTORS
330
1E96
102
}
330
1E96
100
AcDbXrecord
340
0
  0
XRECORD
  5
1EB6
102
{ACAD_REACTORS
330
1E96
102
}
330
1E96
100
AcDbXrecord
 10
0.0
 20
0.0
 30
0.0
  0
XRECORD
  5
1EB2
102
{ACAD_REACTORS
330
1E96
102
}
330
1E96
100
AcDbXrecord
 10
0.0
 20
0.0
 30
0.0
  0
XRECORD
  5
1EB5
102
{ACAD_REACTORS
330
1E96
102
}
330
1E96
100
AcDbXrecord
 10
0.0
 20
0.0
 30
0.0
  0
XRECORD
  5
1EB3
102
{ACAD_REACTORS
330
1E96
102
}
330
1E96
100
AcDbXrecord
 10
0.0
 20
0.0
 30
0.0
  0
XRECORD
  5
1EB4
102
{ACAD_REACTORS
330
1E96
102
}
330
1E96
100
AcDbXrecord
 10
0.0
 20
0.0
 30
0.0
  0
XRECORD
  5
1EB1
102
{ACAD_REACTORS
330
1E96
102
}
330
1E96
100
AcDbXrecord
 10
0.0
 20
0.0
 30
0.0
  0
XRECORD
  5
1EAE
102
{ACAD_REACTORS
330
1E96
102
}
330
1E96
100
AcDbXrecord
340
0
  0
XRECORD
  5
1EAF
102
{ACAD_REACTORS
330
1E96
102
}
330
1E96
100
AcDbXrecord
 70
     0
  0
XRECORD
  5
1EA2
102
{ACAD_REACTORS
330
1E96
102
}
330
1E96
100
AcDbXrecord
  1
{5A9C37D1-5387-4357-B29D-C52583F0E1EB}
  0
DICTIONARYVAR
  5
103
102
{ACAD_REACTORS
330
102
102
}
330
102
100
DictionaryVariables
280
     0
  1
1
  0
ENDSEC
  0
EOF
