  0
SECTION
  2
HEADER
  9
$ACADVER
  1
AC1014
  9
$ACADMAINTVER
 70
     9
  9
$DWGCODEPAGE
  3
ANSI_932
  9
$INSBASE
 10
0.0
 20
0.0
 30
0.0
  9
$EXTMIN
 10
46.12124790633493
 20
55.23062367764805
 30
0.0
  9
$EXTMAX
 10
721.7590879696333
 20
511.9498380311287
 30
0.0
  9
$LIMMIN
 10
-44.07589355546906
 20
55.14214237050225
  9
$LIMMAX
 10
830.2092174735491
 20
439.4895484448532
  9
$ORTHOMODE
 70
     1
  9
$REGENMODE
 70
     1
  9
$FILLMODE
 70
     1
  9
$QTEXTMODE
 70
     0
  9
$MIRRTEXT
 70
     0
  9
$DRAGMODE
 70
     2
  9
$LTSCALE
 40
3.0
  9
$OSMODE
 70
    37
  9
$ATTMODE
 70
     1
  9
$TEXTSIZE
 40
2.0
  9
$TRACEWID
 40
1.0
  9
$TEXTSTYLE
  7
STANDARD
  9
$CLAYER
  8
0
  9
$CELTYPE
  6
BYLAYER
  9
$CECOLOR
 62
   256
  9
$CELTSCALE
 40
1.0
  9
$DELOBJ
 70
     1
  9
$DISPSILH
 70
     0
  9
$DIMSCALE
 40
3.0
  9
$DIMASZ
 40
1.8
  9
$DIMEXO
 40
0.625
  9
$DIMDLI
 40
3.75
  9
$DIMRND
 40
0.0
  9
$DIMDLE
 40
0.0
  9
$DIMEXE
 40
0.8
  9
$DIMTP
 40
0.0
  9
$DIMTM
 40
0.0
  9
$DIMTXT
 40
1.8
  9
$DIMCEN
 40
2.5
  9
$DIMTSZ
 40
0.0
  9
$DIMTOL
 70
     0
  9
$DIMLIM
 70
     0
  9
$DIMTIH
 70
     0
  9
$DIMTOH
 70
     0
  9
$DIMSE1
 70
     0
  9
$DIMSE2
 70
     0
  9
$DIMTAD
 70
     1
  9
$DIMZIN
 70
     8
  9
$DIMBLK
  1

  9
$DIMASO
 70
     1
  9
$DIMSHO
 70
     1
  9
$DIMPOST
  1

  9
$DIMAPOST
  1

  9
$DIMALT
 70
     0
  9
$DIMALTD
 70
     4
  9
$DIMALTF
 40
0.0394
  9
$DIMLFAC
 40
1.0
  9
$DIMTOFL
 70
     1
  9
$DIMTVP
 40
0.0
  9
$DIMTIX
 70
     0
  9
$DIMSOXD
 70
     0
  9
$DIMSAH
 70
     0
  9
$DIMBLK1
  1

  9
$DIMBLK2
  1

  9
$DIMSTYLE
  2
STANDARD
  9
$DIMCLRD
 70
     0
  9
$DIMCLRE
 70
     0
  9
$DIMCLRT
 70
     0
  9
$DIMTFAC
 40
1.0
  9
$DIMGAP
 40
0.75
  9
$DIMJUST
 70
     0
  9
$DIMSD1
 70
     0
  9
$DIMSD2
 70
     0
  9
$DIMTOLJ
 70
     1
  9
$DIMTZIN
 70
     0
  9
$DIMALTZ
 70
     0
  9
$DIMALTTZ
 70
     0
  9
$DIMFIT
 70
     3
  9
$DIMUPT
 70
     0
  9
$DIMUNIT
 70
     8
  9
$DIMDEC
 70
     2
  9
$DIMTDEC
 70
     2
  9
$DIMALTU
 70
     8
  9
$DIMALTTD
 70
     4
  9
$DIMTXSTY
  7
STANDARD
  9
$DIMAUNIT
 70
     0
  9
$LUNITS
 70
     2
  9
$LUPREC
 70
     3
  9
$SKETCHINC
 40
1.0
  9
$FILLETRAD
 40
10.0
  9
$AUNITS
 70
     0
  9
$AUPREC
 70
     2
  9
$MENU
  1
.
  9
$ELEVATION
 40
0.0
  9
$PELEVATION
 40
0.0
  9
$THICKNESS
 40
0.0
  9
$LIMCHECK
 70
     0
  9
$BLIPMODE
 70
     0
  9
$CHAMFERA
 40
0.0
  9
$CHAMFERB
 40
0.0
  9
$CHAMFERC
 40
20.0
  9
$CHAMFERD
 40
0.0
  9
$SKPOLY
 70
     0
  9
$TDCREATE
 40
2453754.488461724
  9
$TDUPDATE
 40
2453832.462426215
  9
$TDINDWG
 40
0.2733777778
  9
$TDUSRTIMER
 40
0.2733776042
  9
$USRTIMER
 70
     1
  9
$ANGBASE
 50
0.0
  9
$ANGDIR
 70
     0
  9
$PDMODE
 70
     0
  9
$PDSIZE
 40
-10.0
  9
$PLINEWID
 40
0.0
  9
$COORDS
 70
     0
  9
$SPLFRAME
 70
     0
  9
$SPLINETYPE
 70
     6
  9
$SPLINESEGS
 70
     8
  9
$ATTDIA
 70
     0
  9
$ATTREQ
 70
     1
  9
$HANDLING
 70
-16383
  9
$HANDSEED
  5
1D90
  9
$SURFTAB1
 70
     6
  9
$SURFTAB2
 70
     6
  9
$SURFTYPE
 70
     6
  9
$SURFU
 70
     6
  9
$SURFV
 70
     6
  9
$UCSNAME
  2

  9
$UCSORG
 10
0.0
 20
0.0
 30
0.0
  9
$UCSXDIR
 10
1.0
 20
0.0
 30
0.0
  9
$UCSYDIR
 10
0.0
 20
1.0
 30
0.0
  9
$PUCSNAME
  2

  9
$PUCSORG
 10
0.0
 20
0.0
 30
0.0
  9
$PUCSXDIR
 10
1.0
 20
0.0
 30
0.0
  9
$PUCSYDIR
 10
0.0
 20
1.0
 30
0.0
  9
$USERI1
 70
     0
  9
$USERI2
 70
     0
  9
$USERI3
 70
     0
  9
$USERI4
 70
     0
  9
$USERI5
 70
     0
  9
$USERR1
 40
0.0
  9
$USERR2
 40
0.0
  9
$USERR3
 40
0.0
  9
$USERR4
 40
0.0
  9
$USERR5
 40
0.0
  9
$WORLDVIEW
 70
     1
  9
$SHADEDGE
 70
     3
  9
$SHADEDIF
 70
    70
  9
$TILEMODE
 70
     1
  9
$MAXACTVP
 70
    48
  9
$PINSBASE
 10
0.0
 20
0.0
 30
0.0
  9
$PLIMCHECK
 70
     0
  9
$PEXTMIN
 10
3.0
 20
3.999999999999998
 30
0.0
  9
$PEXTMAX
 10
280.0
 20
194.0
 30
0.0
  9
$PLIMMIN
 10
-5.873748779296875
 20
-5.873749732971191
  9
$PLIMMAX
 10
291.05224609375
 20
204.0995779037475
  9
$UNITMODE
 70
     0
  9
$VISRETAIN
 70
     1
  9
$PLINEGEN
 70
     0
  9
$PSLTSCALE
 70
     0
  9
$TREEDEPTH
 70
  3020
  9
$PICKSTYLE
 70
     1
  9
$CMLSTYLE
  2
STANDARD
  9
$CMLJUST
 70
     0
  9
$CMLSCALE
 40
1.0
  9
$PROXYGRAPHICS
 70
     1
  9
$MEASUREMENT
 70
     0
  0
ENDSEC
  0
SECTION
  2
CLASSES
  0
CLASS
  1
DICTIONARYVAR
  2
AcDbDictionaryVar
  3
AutoCAD 2000
 90
        0
280
     0
281
     0
  0
CLASS
  1
ACDBDICTIONARYWDFLT
  2
AcDbDictionaryWithDefault
  3
AutoCAD 2000
 90
        0
280
     0
281
     0
  0
CLASS
  1
ACDBPLACEHOLDER
  2
AcDbPlaceHolder
  3
AutoCAD 2000
 90
        0
280
     0
281
     0
  0
CLASS
  1
LAYOUT
  2
AcDbLayout
  3
AutoCAD 2000
 90
        0
280
     0
281
     0
  0
CLASS
  1
LONG_TRANSACTION
  2
AcDbLongTransaction
  3
AutoCAD 2000
 90
        0
280
     0
281
     0
  0
CLASS
  1
LWPOLYLINE
  2
AcDbPolyline
  3
AutoCAD 2000
 90
        0
280
     0
281
     1
  0
CLASS
  1
HATCH
  2
AcDbHatch
  3
AutoCAD 2000
 90
        0
280
     0
281
     1
  0
CLASS
  1
XRECORD
  2
AcDbXrecord
  3
AutoCAD 2000
 90
        0
280
     0
281
     0
  0
ENDSEC
  0
SECTION
  2
TABLES
  0
TABLE
  2
VPORT
  5
6E
330
0
100
AcDbSymbolTable
 70
     2
  0
VPORT
  5
1D65
330
6E
100
AcDbSymbolTableRecord
100
AcDbViewportTableRecord
  2
*ACTIVE
 70
     0
 10
0.0
 20
0.0
 11
1.0
 21
1.0
 12
380.0929965223303
 22
266.862636009478
 13
0.0
 23
0.0
 14
10.0
 24
10.0
 15
18.0
 25
18.0
 16
0.0
 26
0.0
 36
1.0
 17
0.0
 27
0.0
 37
0.0
 40
494.0793356806197
 41
1.566970091027308
 42
50.0
 43
0.0
 44
0.0
 50
0.0
 51
0.0
 71
     0
 72
   100
 73
     1
 74
     3
 75
     0
 76
     0
 77
     0
 78
     0
  0
ENDTAB
  0
TABLE
  2
LTYPE
  5
69
330
0
100
AcDbSymbolTable
 70
     4
  0
LTYPE
  5
6A
330
69
100
AcDbSymbolTableRecord
100
AcDbLinetypeTableRecord
  2
BYBLOCK
 70
     0
  3

 72
    65
 73
     0
 40
0.0
  0
LTYPE
  5
6B
330
69
100
AcDbSymbolTableRecord
100
AcDbLinetypeTableRecord
  2
BYLAYER
 70
     0
  3

 72
    65
 73
     0
 40
0.0
  0
LTYPE
  5
8
330
69
100
AcDbSymbolTableRecord
100
AcDbLinetypeTableRecord
  2
CONTINUOUS
 70
     0
  3
Solid line
 72
    65
 73
     0
 40
0.0
  0
LTYPE
  5
27C
330
69
100
AcDbSymbolTableRecord
100
AcDbLinetypeTableRecord
  2
SEKKEI_A2_
 70
     0
  3
center(A2)  ____ _ ____ _ ____ _ ____ _ ____ _ 
 72
    65
 73
     4
 40
14.28749999999999
 49
9.525
 74
     0
 49
-1.587499999999999
 74
     0
 49
1.587499999999999
 74
     0
 49
-1.587499999999999
 74
     0
  0
LTYPE
  5
2B4
330
69
100
AcDbSymbolTableRecord
100
AcDbLinetypeTableRecord
  2
HIDDEN2
 70
     0
  3
Hidden (.5x) _ _ _ _ _ _ _ _ _ _ _ _ _ _ _ _ _
 72
    65
 73
     2
 40
4.762499999999999
 49
3.174999999999999
 74
     0
 49
-1.587499999999999
 74
     0
  0
LTYPE
  5
48F
330
69
100
AcDbSymbolTableRecord
100
AcDbLinetypeTableRecord
  2
SEKKEI_H
 70
     0
  3
Hidden-S _ _ _ _ _ _ _ _ _ _ _ _ _ _ _ _ _
 72
    65
 73
     2
 40
2.381249999999999
 49
1.587499999999999
 74
     0
 49
-0.79375
 74
     0
  0
ENDTAB
  0
TABLE
  2
LAYER
  5
66
330
0
100
AcDbSymbolTable
 70
     9
  0
LAYER
  5
5E
330
66
100
AcDbSymbolTableRecord
100
AcDbLayerTableRecord
  2
0
 70
     0
 62
     7
  6
CONTINUOUS
  0
LAYER
  5
3E
330
66
100
AcDbSymbolTableRecord
100
AcDbLayerTableRecord
  2
CENTER
 70
     0
 62
     3
  6
SEKKEI_A2_
  0
LAYER
  5
4
330
66
100
AcDbSymbolTableRecord
100
AcDbLayerTableRecord
  2
WAKU
 70
     0
 62
     5
  6
CONTINUOUS
  0
LAYER
  5
E4
330
66
100
AcDbSymbolTableRecord
100
AcDbLayerTableRecord
  2
TEXT
 70
     0
 62
     4
  6
CONTINUOUS
  0
LAYER
  5
135
330
66
100
AcDbSymbolTableRecord
100
AcDbLayerTableRecord
  2
DEFPOINTS
 70
     0
 62
     7
  6
CONTINUOUS
  0
LAYER
  5
2B5
330
66
100
AcDbSymbolTableRecord
100
AcDbLayerTableRecord
  2
HIDS
 70
     0
 62
     1
  6
HIDDEN2
  0
LAYER
  5
2BA
330
66
100
AcDbSymbolTableRecord
100
AcDbLayerTableRecord
  2
HOJO
 70
     0
 62
     4
  6
CONTINUOUS
  0
LAYER
  5
3FA
330
66
100
AcDbSymbolTableRecord
100
AcDbLayerTableRecord
  2
TITLE
 70
     0
 62
     4
  6
CONTINUOUS
  0
ENDTAB
  0
TABLE
  2
STYLE
  5
67
330
0
100
AcDbSymbolTable
 70
     1
  0
STYLE
  5
16
330
67
100
AcDbSymbolTableRecord
100
AcDbTextStyleTableRecord
  2
STANDARD
 70
     0
 40
0.0
 41
1.0
 50
0.0
 71
     0
 42
2.0
  3
simplex.shx
  4
extfont.shx
  0
ENDTAB
  0
TABLE
  2
VIEW
  5
6C
330
0
100
AcDbSymbolTable
 70
     0
  0
ENDTAB
  0
TABLE
  2
UCS
  5
6D
330
0
100
AcDbSymbolTable
 70
     0
  0
ENDTAB
  0
TABLE
  2
APPID
  5
70
330
0
100
AcDbSymbolTable
 70
     2
  0
APPID
  5
71
330
70
100
AcDbSymbolTableRecord
100
AcDbRegAppTableRecord
  2
ACAD
 70
     0
  0
APPID
  5
1D89
330
70
100
AcDbSymbolTableRecord
100
AcDbRegAppTableRecord
  2
CONTENTBLOCKICON
 70
     0
  0
ENDTAB
  0
TABLE
  2
DIMSTYLE
  5
72
330
0
100
AcDbSymbolTable
 70
     1
  0
DIMSTYLE
105
73
330
72
100
AcDbSymbolTableRecord
100
AcDbDimStyleTableRecord
  2
STANDARD
 70
     0
  3

  4

  5

  6

  7

 40
3.0
 41
1.8
 42
0.625
 43
3.75
 44
0.8
 45
0.0
 46
0.0
 47
0.0
 48
0.0
140
1.8
141
2.5
142
0.0
143
0.0394
144
1.0
145
0.0
146
1.0
147
0.75
 71
     0
 72
     0
 73
     0
 74
     0
 75
     0
 76
     0
 77
     1
 78
     8
170
     0
171
     4
172
     1
173
     0
174
     0
175
     0
176
     0
177
     0
178
     0
270
     8
271
     2
272
     2
273
     8
274
     4
340
16
275
     0
280
     0
281
     0
282
     0
283
     1
284
     0
285
     0
286
     0
287
     3
288
     0
  0
ENDTAB
  0
TABLE
  2
BLOCK_RECORD
  5
1
330
0
100
AcDbSymbolTable
 70
    71
  0
BLOCK_RECORD
  5
2
102
{ACAD_XDICTIONARY
360
1D87
102
}
330
1
100
AcDbSymbolTableRecord
100
AcDbBlockTableRecord
  2
*MODEL_SPACE
  0
BLOCK_RECORD
  5
1403
102
{ACAD_XDICTIONARY
360
1D8A
102
}
330
1
100
AcDbSymbolTableRecord
100
AcDbBlockTableRecord
  2
*PAPER_SPACE
  0
BLOCK_RECORD
  5
40C
330
1
100
AcDbSymbolTableRecord
100
AcDbBlockTableRecord
  2
外寸枠A4テンプレート
1001
CONTENTBLOCKICON
1071
        0
1004
2800000020000000200000000100080000000000000400000000000000000000000000000000000000000000000080000080000000808000800000008000800080800000C0C0C000C0DCC000F0CAA6000020400000206000002080000020A0000020C0000020E00000400000004020000040400000406000004080000040A0
1004
000040C0000040E00000600000006020000060400000606000006080000060A0000060C0000060E00000800000008020000080400000806000008080000080A0000080C0000080E00000A0000000A0200000A0400000A0600000A0800000A0A00000A0C00000A0E00000C0000000C0200000C0400000C0600000C0800000C0
1004
A00000C0C00000C0E00000E0000000E0200000E0400000E0600000E0800000E0A00000E0C00000E0E00040000000400020004000400040006000400080004000A0004000C0004000E00040200000402020004020400040206000402080004020A0004020C0004020E000404000004040200040404000404060004040800040
1004
40A0004040C0004040E00040600000406020004060400040606000406080004060A0004060C0004060E00040800000408020004080400040806000408080004080A0004080C0004080E00040A0000040A0200040A0400040A0600040A0800040A0A00040A0C00040A0E00040C0000040C0200040C0400040C0600040C08000
1004
40C0A00040C0C00040C0E00040E0000040E0200040E0400040E0600040E0800040E0A00040E0C00040E0E00080000000800020008000400080006000800080008000A0008000C0008000E00080200000802020008020400080206000802080008020A0008020C0008020E00080400000804020008040400080406000804080
1004
008040A0008040C0008040E00080600000806020008060400080606000806080008060A0008060C0008060E00080800000808020008080400080806000808080008080A0008080C0008080E00080A0000080A0200080A0400080A0600080A0800080A0A00080A0C00080A0E00080C0000080C0200080C0400080C0600080C0
1004
800080C0A00080C0C00080C0E00080E0000080E0200080E0400080E0600080E0800080E0A00080E0C00080E0E000C0000000C0002000C0004000C0006000C0008000C000A000C000C000C000E000C0200000C0202000C0204000C0206000C0208000C020A000C020C000C020E000C0400000C0402000C0404000C0406000C0
1004
408000C040A000C040C000C040E000C0600000C0602000C0604000C0606000C0608000C060A000C060C000C060E000C0800000C0802000C0804000C0806000C0808000C080A000C080C000C080E000C0A00000C0A02000C0A04000C0A06000C0A08000C0A0A000C0A0C000C0A0E000C0C00000C0C02000C0C04000C0C06000
1004
C0C08000C0C0A000F0FBFF00A4A0A000808080000000FF0000FF000000FFFF00FF000000FF00FF00FFFF0000FFFFFF0000000000000000000000000000000000000000000000000000000000000000000000000000000000000000000000000000000000000000000000000000000000000000000000000000000000000000
1004
000000000000000000000000000000000000000000000000000000000000000000000000000000000000000000000000000000000000000000000000000000000000000000000000000000000000000000000000000000000000000000000000000000000000000000000000000000000000FCFCFCFCFCFCFCFCFCFCFCFCFC
1004
FCFCFCFCFCFCFCFCFEFEFEFDFDFCFDFDFD0000FC0000000000000000000000000000000000000000FDFDFDFDFDFDFDFDFD0000FC0000000000000000000000000000000000000000FDFDFEFEFEFEFDFDFD0000FC0000000000000000000000000000000000000000FDFCFEFEFEFEFCFCFC0000FC0000000000000000000000
1004
0000000000000000000000000000000000FC0000FC00000000000000000000000000000000000000000000000000000000FC0000FC00000000000000000000000000000000000000000000000000000000FC0000FC00000000000000000000000000000000000000000000000000000000FC0000FC00000000000000000000
1004
000000000000000000000000000000000000FC0000FC00000000000000000000000000000000000000000000000000000000FC0000FC00000000000000000000000000000000000000000000000000000000FC0000FC00000000000000000000000000000000000000000000000000000000FC0000FC000000000000000000
1004
00000000000000000000000000000000000000FC0000FC00000000000000000000000000000000000000000000000000000000FC0000FC00000000000000000000000000000000000000000000000000000000FC0000FC00000000000000000000000000000000000000000000000000000000FC0000FC0000000000000000
1004
0000000000000000000000000000000000000000FC0000FC00000000000000000000000000000000000000000000000000000000FC0000FC00000000000000000000000000000000000000000000FCFCFCFCFCFCFC0000FCFCFCFCFCFCFCFCFCFCFCFCFCFCFCFCFCFCFCFCFCFCFCFCFDFCFCFCFCFC00000000000000000000
1004
00000000000000000000000000000000000000000000000000000000000000000000000000000000000000000000000000000000000000000000000000000000000000000000000000000000000000000000000000000000000000000000000000000000000000000000000000000000000000000000000000000000000000
1004
0000000000000000000000000000000000000000000000000000000000000000000000000000000000000000000000000000000000000000
  0
BLOCK_RECORD
  5
4DC
330
1
100
AcDbSymbolTableRecord
100
AcDbBlockTableRecord
  2
1
  0
BLOCK_RECORD
  5
1520
330
1
100
AcDbSymbolTableRecord
100
AcDbBlockTableRecord
  2
GSPEC_H-22T-300-450
  0
BLOCK_RECORD
  5
1791
330
1
100
AcDbSymbolTableRecord
100
AcDbBlockTableRecord
  2
MSPEC_S40WF-75
  0
BLOCK_RECORD
  5
17BB
330
1
100
AcDbSymbolTableRecord
100
AcDbBlockTableRecord
  2
MSPEC_S60F-75
  0
BLOCK_RECORD
  5
17E1
330
1
100
AcDbSymbolTableRecord
100
AcDbBlockTableRecord
  2
MSPEC_S60WF-75
  0
BLOCK_RECORD
  5
1849
330
1
100
AcDbSymbolTableRecord
100
AcDbBlockTableRecord
  2
BSPEC_90-90-0038
  0
BLOCK_RECORD
  5
18DE
330
1
100
AcDbSymbolTableRecord
100
AcDbBlockTableRecord
  2
BSPEC_90-45-0038
  0
BLOCK_RECORD
  5
196B
330
1
100
AcDbSymbolTableRecord
100
AcDbBlockTableRecord
  2
17
  0
ENDTAB
  0
ENDSEC
  0
SECTION
  2
BLOCKS
  0
BLOCK
  5
5D
330
2
100
AcDbEntity
  8
0
100
AcDbBlockBegin
  2
*MODEL_SPACE
 70
     0
 10
0.0
 20
0.0
 30
0.0
  3
*MODEL_SPACE
  1

  0
ENDBLK
  5
5F
330
2
100
AcDbEntity
  8
0
100
AcDbBlockEnd
  0
BLOCK
  5
1410
330
1403
100
AcDbEntity
 67
     1
  8
0
100
AcDbBlockBegin
  2
*PAPER_SPACE
 70
     0
 10
0.0
 20
0.0
 30
0.0
  3
*PAPER_SPACE
  1

  0
ENDBLK
  5
1411
330
1403
100
AcDbEntity
 67
     1
  8
0
100
AcDbBlockEnd
  0
BLOCK
  5
463
330
40C
100
AcDbEntity
  8
0
100
AcDbBlockBegin
  2
外寸枠A4テンプレート
 70
     2
 10
0.0
 20
0.0
 30
0.0
  3
外寸枠A4テンプレート
  1

  0
LWPOLYLINE
  5
40D
330
40C
100
AcDbEntity
  8
WAKU
100
AcDbPolyline
 90
        4
 70
     1
 43
0.0
 10
3.0
 20
4.0
 10
280.0
 20
4.0
 10
280.0
 20
194.0
 10
3.0
 20
194.0
  0
LWPOLYLINE
  5
40E
330
40C
100
AcDbEntity
  8
WAKU
100
AcDbPolyline
 90
        4
 70
     1
 43
0.0
 10
3.0
 20
4.0
 10
280.0
 20
4.0
 10
280.0
 20
194.0
 10
3.0
 20
194.0
  0
LINE
  5
40F
330
40C
100
AcDbEntity
  8
WAKU
100
AcDbLine
 10
280.0
 20
182.0
 30
0.0
 11
226.4018178786999
 21
182.0
 31
0.0
  0
TEXT
  5
410
330
40C
100
AcDbEntity
  8
WAKU
 62
     6
100
AcDbText
 10
228.3816999999999
 20
190.11095
 30
0.0
 40
2.1213
  1
REVISIONS
 41
0.7
100
AcDbText
  0
LINE
  5
411
330
40C
100
AcDbEntity
  8
WAKU
100
AcDbLine
 10
226.4018178786999
 20
194.0
 30
0.0
 11
226.4018178786999
 21
181.9999999999999
 31
0.0
  0
LINE
  5
412
330
40C
100
AcDbEntity
  8
WAKU
 62
     6
100
AcDbLine
 10
203.6331999999998
 20
29.0030567071
 30
0.0
 11
280.0
 21
29.0030567071
 31
0.0
  0
LINE
  5
413
330
40C
100
AcDbEntity
  8
WAKU
 62
     6
100
AcDbLine
 10
203.6331999999998
 20
24.47761529289999
 30
0.0
 11
280.0
 21
24.47761529289999
 31
0.0
  0
LINE
  5
414
330
40C
100
AcDbEntity
  8
WAKU
 62
     6
100
AcDbLine
 10
203.6331999999998
 20
19.9521752929
 30
0.0
 11
280.0
 21
19.9521752929
 31
0.0
  0
LINE
  5
415
330
40C
100
AcDbEntity
  8
WAKU
 62
     6
100
AcDbLine
 10
203.6331999999998
 20
15.42673599999999
 30
0.0
 11
280.0
 21
15.42673599999999
 31
0.0
  0
LINE
  5
416
330
40C
100
AcDbEntity
  8
WAKU
 62
     6
100
AcDbLine
 10
203.6331999999998
 20
29.0030567071
 30
0.0
 11
280.0
 21
29.0030567071
 31
0.0
  0
LINE
  5
417
330
40C
100
AcDbEntity
  8
WAKU
 62
     6
100
AcDbLine
 10
203.6331999999998
 20
24.47761529289999
 30
0.0
 11
280.0
 21
24.47761529289999
 31
0.0
  0
LINE
  5
418
330
40C
100
AcDbEntity
  8
WAKU
 62
     6
100
AcDbLine
 10
203.6331999999998
 20
19.9521752929
 30
0.0
 11
280.0
 21
19.9521752929
 31
0.0
  0
LINE
  5
419
330
40C
100
AcDbEntity
  8
WAKU
 62
     6
100
AcDbLine
 10
203.6331999999998
 20
15.42673599999999
 30
0.0
 11
280.0
 21
15.42673599999999
 31
0.0
  0
LINE
  5
41A
330
40C
100
AcDbEntity
  8
WAKU
 62
     6
100
AcDbLine
 10
203.6331999999998
 20
29.0030567071
 30
0.0
 11
280.0
 21
29.0030567071
 31
0.0
  0
LINE
  5
41B
330
40C
100
AcDbEntity
  8
WAKU
 62
     6
100
AcDbLine
 10
203.6331999999998
 20
24.47761529289999
 30
0.0
 11
280.0
 21
24.47761529289999
 31
0.0
  0
LINE
  5
41C
330
40C
100
AcDbEntity
  8
WAKU
 62
     6
100
AcDbLine
 10
203.6331999999998
 20
19.9521752929
 30
0.0
 11
280.0
 21
19.9521752929
 31
0.0
  0
LINE
  5
41D
330
40C
100
AcDbEntity
  8
WAKU
 62
     6
100
AcDbLine
 10
203.6331999999998
 20
15.42673599999999
 30
0.0
 11
280.0
 21
15.42673599999999
 31
0.0
  0
LINE
  5
41E
330
40C
100
AcDbEntity
  8
WAKU
100
AcDbLine
 10
203.6331999999998
 20
38.053936
 30
0.0
 11
280.0
 21
38.053936
 31
0.0
  0
LINE
  5
41F
330
40C
100
AcDbEntity
  8
WAKU
100
AcDbLine
 10
203.6331999999998
 20
38.053936
 30
0.0
 11
280.0
 21
38.053936
 31
0.0
  0
LINE
  5
420
330
40C
100
AcDbEntity
  8
WAKU
100
AcDbLine
 10
203.6331999999998
 20
38.053936
 30
0.0
 11
280.0
 21
38.053936
 31
0.0
  0
TEXT
  5
421
330
40C
100
AcDbEntity
  8
WAKU
 62
     6
100
AcDbText
 10
231.4464545235218
 20
12.856420429
 30
0.0
 40
1.76775
  1
SCALE
 41
0.7
100
AcDbText
  0
TEXT
  5
422
330
40C
100
AcDbEntity
  8
TEXT
100
AcDbText
 10
228.8293221750166
 20
29.96641277760619
 30
0.0
 40
2.5
  1
外　形　寸　法　図
100
AcDbText
  0
ATTDEF
  5
423
330
40C
100
AcDbEntity
  8
TEXT
100
AcDbText
 10
241.8165999999999
 20
35.58735183158626
 30
0.0
 40
2.500000000000001
  1

 72
     4
 11
241.8165999999999
 21
35.58735183158626
 31
0.0
100
AcDbAttributeDefinition
  3
タイトル
  2
T　I　T　L　E
 70
     0
  0
LINE
  5
424
330
40C
100
AcDbEntity
  8
WAKU
100
AcDbLine
 10
203.6331999999998
 20
38.053936
 30
0.0
 11
203.6331999999998
 21
3.999999999999998
 31
0.0
  0
LINE
  5
425
330
40C
100
AcDbEntity
  8
WAKU
100
AcDbLine
 10
203.6331999999998
 20
38.053936
 30
0.0
 11
203.6331999999998
 21
3.999999999999998
 31
0.0
  0
LINE
  5
426
330
40C
100
AcDbEntity
  8
WAKU
100
AcDbLine
 10
203.6331999999998
 20
38.053936
 30
0.0
 11
203.6331999999998
 21
3.999999999999998
 31
0.0
  0
TEXT
  5
427
330
40C
100
AcDbEntity
  8
WAKU
 62
     6
100
AcDbText
 10
204.7645642425999
 20
25.805189179
 30
0.0
 40
2.1213
  1
DRAWING  NO.
 41
0.7
100
AcDbText
  0
TEXT
  5
428
330
40C
100
AcDbEntity
  8
WAKU
 62
     6
100
AcDbText
 10
204.7645642425999
 20
16.75430988609998
 30
0.0
 40
2.1213
  1
NOTICE
 41
0.7
100
AcDbText
  0
TEXT
  5
429
330
40C
100
AcDbEntity
  8
WAKU
 62
     6
100
AcDbText
 10
204.8446469479863
 20
12.674695729
 30
0.0
 40
1.8097340625
  1
APPROVE
 41
0.512174
100
AcDbText
  0
TEXT
  5
42A
330
40C
100
AcDbEntity
  8
WAKU
 62
     6
100
AcDbText
 10
204.7645642425999
 20
21.279749179
 30
0.0
 40
2.1213
  1
USER
 41
0.7
100
AcDbText
  0
TEXT
  5
42B
330
40C
100
AcDbEntity
  8
WAKU
 62
     6
100
AcDbText
 10
222.3147516895863
 20
12.6973292929
 30
0.0
 40
1.7832163983
  1
DESIGN
 41
0.5729449999999999
100
AcDbText
  0
LINE
  5
42C
330
40C
100
AcDbEntity
  8
WAKU
 62
     6
100
AcDbLine
 10
212.3823646725999
 20
15.42673599999999
 30
0.0
 11
212.3823646725999
 21
3.999999999999998
 31
0.0
  0
LINE
  5
42D
330
40C
100
AcDbEntity
  8
WAKU
 62
     6
100
AcDbLine
 10
212.3823646725999
 20
15.42673599999999
 30
0.0
 11
212.3823646725999
 21
3.999999999999998
 31
0.0
  0
LINE
  5
42E
330
40C
100
AcDbEntity
  8
WAKU
 62
     6
100
AcDbLine
 10
212.3823646725999
 20
15.42673599999999
 30
0.0
 11
212.3823646725999
 21
3.999999999999998
 31
0.0
  0
LINE
  5
42F
330
40C
100
AcDbEntity
  8
WAKU
 62
     6
100
AcDbLine
 10
221.1033047415999
 20
15.42673599999999
 30
0.0
 11
221.1033047415999
 21
3.999999999999998
 31
0.0
  0
LINE
  5
430
330
40C
100
AcDbEntity
  8
WAKU
 62
     6
100
AcDbLine
 10
221.1033047415999
 20
15.42673599999999
 30
0.0
 11
221.1033047415999
 21
3.999999999999998
 31
0.0
  0
LINE
  5
431
330
40C
100
AcDbEntity
  8
WAKU
 62
     6
100
AcDbLine
 10
221.1033047415999
 20
15.42673599999999
 30
0.0
 11
221.1033047415999
 21
3.999999999999998
 31
0.0
  0
TEXT
  5
432
330
40C
100
AcDbEntity
  8
WAKU
 62
     6
100
AcDbText
 10
213.5938010140863
 20
12.674695729
 30
0.0
 40
1.76775
  1
CHECK
 41
0.7
100
AcDbText
  0
LINE
  5
433
330
40C
100
AcDbEntity
  8
WAKU
 62
     6
100
AcDbLine
 10
229.8241790502999
 20
15.42673599999999
 30
0.0
 11
229.8241790502999
 21
3.999999999999998
 31
0.0
  0
LINE
  5
434
330
40C
100
AcDbEntity
  8
WAKU
 62
     6
100
AcDbLine
 10
229.8241790502999
 20
15.42673599999999
 30
0.0
 11
229.8241790502999
 21
3.999999999999998
 31
0.0
  0
LINE
  5
435
330
40C
100
AcDbEntity
  8
WAKU
 62
     6
100
AcDbLine
 10
229.8241790502999
 20
15.42673599999999
 30
0.0
 11
229.8241790502999
 21
3.999999999999998
 31
0.0
  0
TEXT
  5
436
330
40C
100
AcDbEntity
  8
WAKU
 62
     6
100
AcDbText
 10
204.7645642425999
 20
35.31568488609999
 30
0.0
 40
2.1213
  1
TITLE
 41
0.7
100
AcDbText
  0
ATTDEF
  5
437
330
40C
100
AcDbEntity
  8
TEXT
100
AcDbText
 10
234.056163734276
 20
8.134449518875573
 30
0.0
 40
2.0
  1

 72
     4
 11
234.056163734276
 21
8.134449518875573
 31
0.0
100
AcDbAttributeDefinition
  3
SCALE
  2
FREE
 70
     0
  0
ATTDEF
  5
438
330
40C
100
AcDbEntity
  8
TEXT
100
AcDbText
 10
207.865184683976
 20
8.134449518875573
 30
0.0
 40
2.500000000000004
  1

 72
     4
 11
207.865184683976
 21
8.134449518875573
 31
0.0
100
AcDbAttributeDefinition
  3
承認
  2
海野
 70
     0
  0
ATTDEF
  5
439
330
40C
100
AcDbEntity
  8
TEXT
100
AcDbText
 10
225.335289425576
 20
8.134449518875575
 30
0.0
 40
2.500000000000004
  1

 72
     4
 11
225.335289425576
 21
8.134449518875575
 31
0.0
100
AcDbAttributeDefinition
  3
作成
  2
鳥居
 70
     0
  0
ATTDEF
  5
43A
330
40C
100
AcDbEntity
  8
TEXT
100
AcDbText
 10
216.614349356576
 20
8.134449518875575
 30
0.0
 40
2.500000000000004
  1

 72
     4
 11
216.614349356576
 21
8.134449518875575
 31
0.0
100
AcDbAttributeDefinition
  3
確認
  2
永坂
 70
     0
  0
LINE
  5
43B
330
40C
100
AcDbEntity
  8
WAKU
 62
     6
100
AcDbLine
 10
238.6487948283999
 20
8.638576
 30
0.0
 11
280.0
 21
8.638576
 31
0.0
  0
LINE
  5
43C
330
40C
100
AcDbEntity
  8
WAKU
 62
     6
100
AcDbLine
 10
238.6487948283999
 20
8.638576
 30
0.0
 11
280.0
 21
8.638576
 31
0.0
  0
LINE
  5
43D
330
40C
100
AcDbEntity
  8
WAKU
 62
     6
100
AcDbLine
 10
238.6487948283999
 20
8.638576
 30
0.0
 11
280.0
 21
8.638576
 31
0.0
  0
TEXT
  5
43E
330
40C
100
AcDbEntity
  8
WAKU
 62
     6
100
AcDbText
 10
241.15294501234
 20
5.246258800300003
 30
0.0
 40
2.1213
  1
NISSEI  CORPORATION
100
AcDbText
  0
LINE
  5
43F
330
40C
100
AcDbEntity
  8
WAKU
100
AcDbLine
 10
246.5683127070999
 20
13.02259600000001
 30
0.0
 11
250.5280769496998
 21
14.01253599999999
 31
0.0
  0
LINE
  5
440
330
40C
100
AcDbEntity
  8
WAKU
100
AcDbLine
 10
246.5683127070999
 20
13.02259600000001
 30
0.0
 11
250.5280769496998
 21
14.01253599999999
 31
0.0
  0
LINE
  5
441
330
40C
100
AcDbEntity
  8
WAKU
100
AcDbLine
 10
246.5683127070999
 20
13.02259600000001
 30
0.0
 11
250.5280769496998
 21
14.01253599999999
 31
0.0
  0
LINE
  5
442
330
40C
100
AcDbEntity
  8
WAKU
100
AcDbLine
 10
246.5683127070999
 20
11.0427152929
 30
0.0
 11
250.5280769496998
 21
10.052776
 31
0.0
  0
LINE
  5
443
330
40C
100
AcDbEntity
  8
WAKU
100
AcDbLine
 10
246.5683127070999
 20
11.0427152929
 30
0.0
 11
250.5280769496998
 21
10.052776
 31
0.0
  0
LINE
  5
444
330
40C
100
AcDbEntity
  8
WAKU
100
AcDbLine
 10
246.5683127070999
 20
11.0427152929
 30
0.0
 11
250.5280769496998
 21
10.052776
 31
0.0
  0
LINE
  5
445
330
40C
100
AcDbEntity
  8
CENTER
 62
     6
100
AcDbLine
 10
239.4478107573998
 20
12.0326567071
 30
0.0
 11
251.3624499999998
 21
12.0326567071
 31
0.0
  0
LINE
  5
446
330
40C
100
AcDbEntity
  8
CENTER
 62
     6
100
AcDbLine
 10
239.4478107573998
 20
12.0326567071
 30
0.0
 11
251.3624499999998
 21
12.0326567071
 31
0.0
  0
LINE
  5
447
330
40C
100
AcDbEntity
  8
CENTER
 62
     6
100
AcDbLine
 10
239.4478107573998
 20
12.0326567071
 30
0.0
 11
251.3624499999998
 21
12.0326567071
 31
0.0
  0
LINE
  5
448
330
40C
100
AcDbEntity
  8
WAKU
 62
     6
100
AcDbLine
 10
238.6487948283999
 20
15.42673599999999
 30
0.0
 11
238.6487948283999
 21
3.999999999999998
 31
0.0
  0
LINE
  5
449
330
40C
100
AcDbEntity
  8
WAKU
 62
     6
100
AcDbLine
 10
238.6487948283999
 20
15.42673599999999
 30
0.0
 11
238.6487948283999
 21
3.999999999999998
 31
0.0
  0
LINE
  5
44A
330
40C
100
AcDbEntity
  8
WAKU
 62
     6
100
AcDbLine
 10
238.6487948283999
 20
15.42673599999999
 30
0.0
 11
238.6487948283999
 21
3.999999999999998
 31
0.0
  0
CIRCLE
  5
44B
330
40C
100
AcDbEntity
  8
WAKU
100
AcDbCircle
 10
242.0428769496999
 20
12.0326567071
 30
0.0
 40
0.9899399999999999
  0
CIRCLE
  5
44C
330
40C
100
AcDbEntity
  8
WAKU
100
AcDbCircle
 10
242.0428769496999
 20
12.0326567071
 30
0.0
 40
0.9899399999999999
  0
CIRCLE
  5
44D
330
40C
100
AcDbEntity
  8
WAKU
100
AcDbCircle
 10
242.0428769496999
 20
12.0326567071
 30
0.0
 40
0.9899399999999999
  0
CIRCLE
  5
44E
330
40C
100
AcDbEntity
  8
WAKU
100
AcDbCircle
 10
242.0428769496999
 20
12.0326567071
 30
0.0
 40
1.979879999999999
  0
CIRCLE
  5
44F
330
40C
100
AcDbEntity
  8
WAKU
100
AcDbCircle
 10
242.0428769496999
 20
12.0326567071
 30
0.0
 40
1.979879999999999
  0
CIRCLE
  5
450
330
40C
100
AcDbEntity
  8
WAKU
100
AcDbCircle
 10
242.0428769496999
 20
12.0326567071
 30
0.0
 40
1.979879999999999
  0
LINE
  5
451
330
40C
100
AcDbEntity
  8
WAKU
100
AcDbLine
 10
246.5683127070999
 20
13.02259600000001
 30
0.0
 11
246.5683127070999
 21
11.0427152929
 31
0.0
  0
LINE
  5
452
330
40C
100
AcDbEntity
  8
WAKU
100
AcDbLine
 10
246.5683127070999
 20
13.02259600000001
 30
0.0
 11
246.5683127070999
 21
11.0427152929
 31
0.0
  0
LINE
  5
453
330
40C
100
AcDbEntity
  8
WAKU
100
AcDbLine
 10
246.5683127070999
 20
13.02259600000001
 30
0.0
 11
246.5683127070999
 21
11.0427152929
 31
0.0
  0
LINE
  5
454
330
40C
100
AcDbEntity
  8
CENTER
 62
     6
100
AcDbLine
 10
242.0428769496999
 20
14.96005
 30
0.0
 11
242.0428769496999
 21
9.267895000000009
 31
0.0
  0
LINE
  5
455
330
40C
100
AcDbEntity
  8
CENTER
 62
     6
100
AcDbLine
 10
242.0428769496999
 20
14.96005
 30
0.0
 11
242.0428769496999
 21
9.267895000000009
 31
0.0
  0
LINE
  5
456
330
40C
100
AcDbEntity
  8
CENTER
 62
     6
100
AcDbLine
 10
242.0428769496999
 20
14.96005
 30
0.0
 11
242.0428769496999
 21
9.267895000000009
 31
0.0
  0
TEXT
  5
457
330
40C
100
AcDbEntity
  8
TEXT
100
AcDbText
 10
257.3078171288039
 20
9.492177985111482
 30
0.0
 40
2.0
  1
mm
100
AcDbText
  0
LINE
  5
458
330
40C
100
AcDbEntity
  8
WAKU
 62
     6
100
AcDbLine
 10
252.2251127070999
 20
15.42673599999999
 30
0.0
 11
252.2251127070999
 21
8.638576
 31
0.0
  0
LINE
  5
459
330
40C
100
AcDbEntity
  8
WAKU
 62
     6
100
AcDbLine
 10
252.2251127070999
 20
15.42673599999999
 30
0.0
 11
252.2251127070999
 21
8.638576
 31
0.0
  0
LINE
  5
45A
330
40C
100
AcDbEntity
  8
WAKU
 62
     6
100
AcDbLine
 10
252.2251127070999
 20
15.42673599999999
 30
0.0
 11
252.2251127070999
 21
8.638576
 31
0.0
  0
LINE
  5
45B
330
40C
100
AcDbEntity
  8
WAKU
100
AcDbLine
 10
250.5280769496998
 20
14.01253599999999
 30
0.0
 11
250.5280769496998
 21
10.052776
 31
0.0
  0
LINE
  5
45C
330
40C
100
AcDbEntity
  8
WAKU
100
AcDbLine
 10
250.5280769496998
 20
14.01253599999999
 30
0.0
 11
250.5280769496998
 21
10.052776
 31
0.0
  0
LINE
  5
45D
330
40C
100
AcDbEntity
  8
WAKU
100
AcDbLine
 10
250.5280769496998
 20
14.01253599999999
 30
0.0
 11
250.5280769496998
 21
10.052776
 31
0.0
  0
TEXT
  5
45E
330
40C
100
AcDbEntity
  8
WAKU
 62
     6
100
AcDbText
 10
253.4130357573999
 20
13.0508792929
 30
0.0
 40
1.76775
  1
UNIT
 41
0.7
100
AcDbText
  0
TEXT
  5
45F
330
40C
100
AcDbEntity
  8
WAKU
 62
     6
100
AcDbText
 10
266.9893642426
 20
13.0508792929
 30
0.0
 40
1.76775
  1
DATE
 41
0.7
100
AcDbText
  0
LINE
  5
460
330
40C
100
AcDbEntity
  8
WAKU
 62
     6
100
AcDbLine
 10
265.7448611715999
 20
15.42673599999999
 30
0.0
 11
265.7448611715999
 21
8.638576
 31
0.0
  0
LINE
  5
461
330
40C
100
AcDbEntity
  8
WAKU
 62
     6
100
AcDbLine
 10
265.7448611715999
 20
15.42673599999999
 30
0.0
 11
265.7448611715999
 21
8.638576
 31
0.0
  0
LINE
  5
462
330
40C
100
AcDbEntity
  8
WAKU
 62
     6
100
AcDbLine
 10
265.7448611715999
 20
15.42673599999999
 30
0.0
 11
265.7448611715999
 21
8.638576
 31
0.0
  0
ENDBLK
  5
464
330
40C
100
AcDbEntity
  8
0
100
AcDbBlockEnd
  0
BLOCK
  5
4DE
330
4DC
100
AcDbEntity
  8
0
100
AcDbBlockBegin
  2
1
 70
     0
 10
0.0
 20
0.0
 30
0.0
  3
1
  1

  0
TEXT
  5
4DD
330
4DC
100
AcDbEntity
  8
0
100
AcDbText
 10
0.0
 20
0.0
 30
0.0
 40
2.0
  1
注。出力軸キーは JIS B 1301-1976平行キーに依ります。
100
AcDbText
  0
ENDBLK
  5
4DF
330
4DC
100
AcDbEntity
  8
0
100
AcDbBlockEnd
  0
BLOCK
  5
1538
330
1520
100
AcDbEntity
  8
0
100
AcDbBlockBegin
  2
GSPEC_H-22T-300-450
 70
     0
 10
0.0
 20
0.0
 30
0.0
  3
GSPEC_H-22T-300-450
  1

  0
LINE
  5
1521
330
1520
100
AcDbEntity
  8
0
100
AcDbLine
 10
131.0
 20
20.32249999999996
 30
0.0
 11
183.0
 21
20.32249999999996
 31
0.0
  0
LINE
  5
1522
330
1520
100
AcDbEntity
  8
0
100
AcDbLine
 10
131.0
 20
16.78699999999997
 30
0.0
 11
183.0
 21
16.78699999999997
 31
0.0
  0
LINE
  5
1523
330
1520
100
AcDbEntity
  8
0
100
AcDbLine
 10
131.0
 20
23.85799999999994
 30
0.0
 11
183.0
 21
23.85799999999994
 31
0.0
  0
LINE
  5
1524
330
1520
100
AcDbEntity
  8
0
100
AcDbLine
 10
131.0
 20
34.46450000000001
 30
0.0
 11
183.0
 21
34.46450000000001
 31
0.0
  0
LINE
  5
1525
330
1520
100
AcDbEntity
  8
0
100
AcDbLine
 10
131.0
 20
30.929
 30
0.0
 11
183.0
 21
30.92899999999997
 31
0.0
  0
LINE
  5
1526
330
1520
100
AcDbEntity
  8
0
100
AcDbLine
 10
131.0
 20
38.0
 30
0.0
 11
183.0
 21
38.0
 31
0.0
  0
LINE
  5
1527
330
1520
100
AcDbEntity
  8
0
100
AcDbLine
 10
131.0
 20
16.78699999999997
 30
0.0
 11
131.0
 21
38.0
 31
0.0
  0
TEXT
  5
1528
330
1520
100
AcDbEntity
  8
0
100
AcDbText
 10
131.6780944417463
 20
21.02959999999995
 30
0.0
 40
2.0
  1
潤滑
100
AcDbText
  0
TEXT
  5
1529
330
1520
100
AcDbEntity
  8
0
100
AcDbText
 10
131.6780944417462
 20
17.4005422092805
 30
0.0
 40
2.0
  1
塗色
100
AcDbText
  0
TEXT
  5
152A
330
1520
100
AcDbEntity
  8
0
100
AcDbText
 10
131.6780944417462
 20
26.15579327977821
 30
0.0
 40
2.0
  1
減速比
100
AcDbText
  0
TEXT
  5
152B
330
1520
100
AcDbEntity
  8
0
100
AcDbText
 10
131.6780944417462
 20
31.6361
 30
0.0
 40
2.0
  1
枠番
100
AcDbText
  0
TEXT
  5
152C
330
1520
100
AcDbEntity
  8
0
100
AcDbText
 10
131.6780944417462
 20
35.17159999999998
 30
0.0
 40
2.0
  1
名称
100
AcDbText
  0
LINE
  5
152D
330
1520
100
AcDbEntity
  8
0
100
AcDbLine
 10
183.0
 20
16.78699999999997
 30
0.0
 11
183.0
 21
38.0
 31
0.0
  0
LINE
  5
152E
330
1520
100
AcDbEntity
  8
0
100
AcDbLine
 10
142.5
 20
16.78699999999997
 30
0.0
 11
142.5
 21
38.0
 31
0.0
  0
TEXT
  5
152F
330
1520
100
AcDbEntity
  8
0
100
AcDbText
 10
143.3531994322572
 20
28.10060000000001
 30
0.0
 40
2.0
  1
1/300 1/375 1/450 
100
AcDbText
  0
TEXT
  5
1530
330
1520
100
AcDbEntity
  8
0
100
AcDbText
 10
143.3531994322572
 20
17.49409999999994
 30
0.0
 40
2.0
  1
グレー（マンセル値 9B6/0.5）
100
AcDbText
  0
LINE
  5
1531
330
1520
100
AcDbEntity
  8
0
100
AcDbLine
 10
142.5
 20
27.39349999999999
 30
0.0
 11
183.0
 21
27.39349999999999
 31
0.0
  0
TEXT
  5
1532
330
1520
100
AcDbEntity
  8
0
100
AcDbText
 10
143.3531994322572
 20
21.02959999999995
 30
0.0
 40
2.0
  1
グリース
100
AcDbText
  0
LINE
  5
1533
330
1520
100
AcDbEntity
  8
0
100
AcDbLine
 10
150.4725366217368
 20
39.41419999999999
 30
0.0
 11
163.5274633782631
 21
39.41419999999999
 31
0.0
  0
LINE
  5
1534
330
1520
100
AcDbEntity
  8
0
100
AcDbLine
 10
150.4725366217368
 20
40.12129999999999
 30
0.0
 11
163.5274633782631
 21
40.12129999999999
 31
0.0
  0
TEXT
  5
1535
330
1520
100
AcDbEntity
  8
0
100
AcDbText
 10
151.1299348544099
 20
40.47485
 30
0.0
 40
2.0
  1
減速機仕様
100
AcDbText
  0
TEXT
  5
1536
330
1520
100
AcDbEntity
  8
0
100
AcDbText
 10
143.3531994322572
 20
31.6361
 30
0.0
 40
2.0
  1
22T
100
AcDbText
  0
TEXT
  5
1537
330
1520
100
AcDbEntity
  8
0
100
AcDbText
 10
143.3531994322572
 20
35.17159999999998
 30
0.0
 40
2.0
  1
GTR
100
AcDbText
  0
ENDBLK
  5
1539
330
1520
100
AcDbEntity
  8
0
100
AcDbBlockEnd
  0
BLOCK
  5
17B4
330
1791
100
AcDbEntity
  8
0
100
AcDbBlockBegin
  2
MSPEC_S40WF-75
 70
     0
 10
0.0
 20
0.0
 30
0.0
  3
MSPEC_S40WF-75
  1

  0
LINE
  5
1792
330
1791
100
AcDbEntity
  8
0
100
AcDbLine
 10
126.0
 20
6.180499999999994
 30
0.0
 11
126.0
 21
37.99999999999997
 31
0.0
  0
TEXT
  5
1793
330
1791
100
AcDbEntity
  8
0
100
AcDbText
 10
86.35319943225727
 20
28.10060000000001
 30
0.0
 40
2.0
  1
40 W
100
AcDbText
  0
TEXT
  5
1794
330
1791
100
AcDbEntity
  8
0
100
AcDbText
 10
74.67809444174623
 20
28.10059999999998
 30
0.0
 40
2.0
  1
出力
100
AcDbText
  0
LINE
  5
1795
330
1791
100
AcDbEntity
  8
0
100
AcDbLine
 10
85.5
 20
6.180499999999994
 30
0.0
 11
85.5
 21
38.0
 31
0.0
  0
LINE
  5
1796
330
1791
100
AcDbEntity
  8
0
100
AcDbLine
 10
73.99999999999998
 20
6.180500000000023
 30
0.0
 11
74.0
 21
38.0
 31
0.0
  0
TEXT
  5
1797
330
1791
100
AcDbEntity
  8
0
100
AcDbText
 10
86.35319943225727
 20
13.95859999999993
 30
0.0
 40
2.0
  1
1500/1800 rpm
100
AcDbText
  0
LINE
  5
1798
330
1791
100
AcDbEntity
  8
0
100
AcDbLine
 10
74.0
 20
6.180500000000023
 30
0.0
 11
126.0
 21
6.180499999999994
 31
0.0
  0
LINE
  5
1799
330
1791
100
AcDbEntity
  8
0
100
AcDbLine
 10
74.0
 20
9.716000000000008
 30
0.0
 11
126.0
 21
9.715999999999979
 31
0.0
  0
LINE
  5
179A
330
1791
100
AcDbEntity
  8
0
100
AcDbLine
 10
74.0
 20
13.25149999999999
 30
0.0
 11
126.0
 21
13.25149999999996
 31
0.0
  0
LINE
  5
179B
330
1791
100
AcDbEntity
  8
0
100
AcDbLine
 10
74.0
 20
23.85799999999994
 30
0.0
 11
126.0
 21
23.85799999999992
 31
0.0
  0
LINE
  5
179C
330
1791
100
AcDbEntity
  8
0
100
AcDbLine
 10
74.0
 20
16.78699999999997
 30
0.0
 11
126.0
 21
16.78699999999994
 31
0.0
  0
LINE
  5
179D
330
1791
100
AcDbEntity
  8
0
100
AcDbLine
 10
74.0
 20
20.32249999999996
 30
0.0
 11
126.0
 21
20.32249999999993
 31
0.0
  0
LINE
  5
179E
330
1791
100
AcDbEntity
  8
0
100
AcDbLine
 10
74.0
 20
27.39349999999999
 30
0.0
 11
126.0
 21
27.39349999999996
 31
0.0
  0
TEXT
  5
179F
330
1791
100
AcDbEntity
  8
0
100
AcDbText
 10
86.35319943225727
 20
24.56510000000003
 30
0.0
 40
2.0
  1
200 V
100
AcDbText
  0
TEXT
  5
17A0
330
1791
100
AcDbEntity
  8
0
100
AcDbText
 10
86.35319943225727
 20
21.02959999999995
 30
0.0
 40
2.0
  1
50/60 Hz
100
AcDbText
  0
TEXT
  5
17A1
330
1791
100
AcDbEntity
  8
0
100
AcDbText
 10
74.67809444174623
 20
10.3295422092805
 30
0.0
 40
2.0
  1
定格
100
AcDbText
  0
TEXT
  5
17A2
330
1791
100
AcDbEntity
  8
0
100
AcDbText
 10
74.67809444174623
 20
6.794042209280519
 30
0.0
 40
2.0
  1
絶縁
100
AcDbText
  0
TEXT
  5
17A3
330
1791
100
AcDbEntity
  8
0
100
AcDbText
 10
86.35319943225727
 20
10.42309999999994
 30
0.0
 40
2.0
  1
連続
100
AcDbText
  0
TEXT
  5
17A4
330
1791
100
AcDbEntity
  8
0
100
AcDbText
 10
86.35319943225727
 20
6.887599999999963
 30
0.0
 40
2.0
  1
E種
100
AcDbText
  0
TEXT
  5
17A5
330
1791
100
AcDbEntity
  8
0
100
AcDbText
 10
74.67809444174623
 20
13.86504220928048
 30
0.0
 40
2.0
  1
回転速度
100
AcDbText
  0
TEXT
  5
17A6
330
1791
100
AcDbEntity
  8
0
100
AcDbText
 10
74.67809444174633
 20
21.02959999999995
 30
0.0
 40
2.0
  1
周波数
100
AcDbText
  0
TEXT
  5
17A7
330
1791
100
AcDbEntity
  8
0
100
AcDbText
 10
74.67809444174623
 20
17.4005422092805
 30
0.0
 40
2.0
  1
極数
100
AcDbText
  0
TEXT
  5
17A8
330
1791
100
AcDbEntity
  8
0
100
AcDbText
 10
74.67809444174623
 20
24.56509999999997
 30
0.0
 40
2.0
  1
電圧
100
AcDbText
  0
TEXT
  5
17A9
330
1791
100
AcDbEntity
  8
0
100
AcDbText
 10
86.35319943225727
 20
17.49409999999994
 30
0.0
 40
2.0
  1
4
100
AcDbText
  0
TEXT
  5
17AA
330
1791
100
AcDbEntity
  8
0
100
AcDbText
 10
86.35319943225727
 20
31.6361
 30
0.0
 40
2.0
  1
全閉外扇形（ｺﾝﾃﾞﾝｻﾗﾝ）DS-75
100
AcDbText
  0
LINE
  5
17AB
330
1791
100
AcDbEntity
  8
0
100
AcDbLine
 10
74.0
 20
38.0
 30
0.0
 11
126.0
 21
37.99999999999997
 31
0.0
  0
LINE
  5
17AC
330
1791
100
AcDbEntity
  8
0
100
AcDbLine
 10
74.0
 20
30.929
 30
0.0
 11
126.0
 21
30.92899999999994
 31
0.0
  0
LINE
  5
17AD
330
1791
100
AcDbEntity
  8
0
100
AcDbLine
 10
74.0
 20
34.46450000000001
 30
0.0
 11
126.0
 21
34.46449999999998
 31
0.0
  0
TEXT
  5
17AE
330
1791
100
AcDbEntity
  8
0
100
AcDbText
 10
86.35319943225727
 20
35.17159999999998
 30
0.0
 40
2.0
  1
単相誘導電動機
100
AcDbText
  0
TEXT
  5
17AF
330
1791
100
AcDbEntity
  8
0
100
AcDbText
 10
74.67809444174623
 20
31.6361
 30
0.0
 40
2.0
  1
型式
100
AcDbText
  0
TEXT
  5
17B0
330
1791
100
AcDbEntity
  8
0
100
AcDbText
 10
74.67809444174623
 20
35.17159999999998
 30
0.0
 40
2.0
  1
名称
100
AcDbText
  0
LINE
  5
17B1
330
1791
100
AcDbEntity
  8
0
100
AcDbLine
 10
93.80123573807338
 20
40.12129999999999
 30
0.0
 11
106.1987642619266
 21
40.12129999999999
 31
0.0
  0
LINE
  5
17B2
330
1791
100
AcDbEntity
  8
0
100
AcDbLine
 10
93.80123573807338
 20
39.41419999999999
 30
0.0
 11
106.1987642619266
 21
39.41419999999999
 31
0.0
  0
TEXT
  5
17B3
330
1791
100
AcDbEntity
  8
0
100
AcDbText
 10
93.99902987649658
 20
40.47485
 30
0.0
 40
2.0
  1
モータ仕様
100
AcDbText
  0
ENDBLK
  5
17B5
330
1791
100
AcDbEntity
  8
0
100
AcDbBlockEnd
  0
BLOCK
  5
17DE
330
17BB
100
AcDbEntity
  8
0
100
AcDbBlockBegin
  2
MSPEC_S60F-75
 70
     0
 10
0.0
 20
0.0
 30
0.0
  3
MSPEC_S60F-75
  1

  0
LINE
  5
17BC
330
17BB
100
AcDbEntity
  8
0
100
AcDbLine
 10
126.0
 20
6.180499999999994
 30
0.0
 11
126.0
 21
37.99999999999997
 31
0.0
  0
TEXT
  5
17BD
330
17BB
100
AcDbEntity
  8
0
100
AcDbText
 10
86.35319943225727
 20
28.10060000000001
 30
0.0
 40
2.0
  1
60 W
100
AcDbText
  0
TEXT
  5
17BE
330
17BB
100
AcDbEntity
  8
0
100
AcDbText
 10
74.67809444174623
 20
28.10059999999998
 30
0.0
 40
2.0
  1
出力
100
AcDbText
  0
LINE
  5
17BF
330
17BB
100
AcDbEntity
  8
0
100
AcDbLine
 10
85.5
 20
6.180499999999994
 30
0.0
 11
85.5
 21
38.0
 31
0.0
  0
LINE
  5
17C0
330
17BB
100
AcDbEntity
  8
0
100
AcDbLine
 10
73.99999999999998
 20
6.180500000000023
 30
0.0
 11
74.0
 21
38.0
 31
0.0
  0
TEXT
  5
17C1
330
17BB
100
AcDbEntity
  8
0
100
AcDbText
 10
86.35319943225727
 20
13.95859999999993
 30
0.0
 40
2.0
  1
1500/1800 rpm
100
AcDbText
  0
LINE
  5
17C2
330
17BB
100
AcDbEntity
  8
0
100
AcDbLine
 10
74.0
 20
6.180500000000023
 30
0.0
 11
126.0
 21
6.180499999999994
 31
0.0
  0
LINE
  5
17C3
330
17BB
100
AcDbEntity
  8
0
100
AcDbLine
 10
74.0
 20
9.716000000000008
 30
0.0
 11
126.0
 21
9.715999999999979
 31
0.0
  0
LINE
  5
17C4
330
17BB
100
AcDbEntity
  8
0
100
AcDbLine
 10
74.0
 20
13.25149999999999
 30
0.0
 11
126.0
 21
13.25149999999996
 31
0.0
  0
LINE
  5
17C5
330
17BB
100
AcDbEntity
  8
0
100
AcDbLine
 10
74.0
 20
23.85799999999994
 30
0.0
 11
126.0
 21
23.85799999999992
 31
0.0
  0
LINE
  5
17C6
330
17BB
100
AcDbEntity
  8
0
100
AcDbLine
 10
74.0
 20
16.78699999999997
 30
0.0
 11
126.0
 21
16.78699999999994
 31
0.0
  0
LINE
  5
17C7
330
17BB
100
AcDbEntity
  8
0
100
AcDbLine
 10
74.0
 20
20.32249999999996
 30
0.0
 11
126.0
 21
20.32249999999993
 31
0.0
  0
LINE
  5
17C8
330
17BB
100
AcDbEntity
  8
0
100
AcDbLine
 10
74.0
 20
27.39349999999999
 30
0.0
 11
126.0
 21
27.39349999999996
 31
0.0
  0
TEXT
  5
17C9
330
17BB
100
AcDbEntity
  8
0
100
AcDbText
 10
86.35319943225727
 20
24.56510000000003
 30
0.0
 40
2.0
  1
100 V
100
AcDbText
  0
TEXT
  5
17CA
330
17BB
100
AcDbEntity
  8
0
100
AcDbText
 10
86.35319943225727
 20
21.02959999999995
 30
0.0
 40
2.0
  1
50/60 Hz
100
AcDbText
  0
TEXT
  5
17CB
330
17BB
100
AcDbEntity
  8
0
100
AcDbText
 10
74.67809444174623
 20
10.3295422092805
 30
0.0
 40
2.0
  1
定格
100
AcDbText
  0
TEXT
  5
17CC
330
17BB
100
AcDbEntity
  8
0
100
AcDbText
 10
74.67809444174623
 20
6.794042209280519
 30
0.0
 40
2.0
  1
絶縁
100
AcDbText
  0
TEXT
  5
17CD
330
17BB
100
AcDbEntity
  8
0
100
AcDbText
 10
86.35319943225727
 20
10.42309999999994
 30
0.0
 40
2.0
  1
連続
100
AcDbText
  0
TEXT
  5
17CE
330
17BB
100
AcDbEntity
  8
0
100
AcDbText
 10
86.35319943225727
 20
6.887599999999963
 30
0.0
 40
2.0
  1
E種
100
AcDbText
  0
TEXT
  5
17CF
330
17BB
100
AcDbEntity
  8
0
100
AcDbText
 10
74.67809444174623
 20
13.86504220928048
 30
0.0
 40
2.0
  1
回転速度
100
AcDbText
  0
TEXT
  5
17D0
330
17BB
100
AcDbEntity
  8
0
100
AcDbText
 10
74.67809444174633
 20
21.02959999999995
 30
0.0
 40
2.0
  1
周波数
100
AcDbText
  0
TEXT
  5
17D1
330
17BB
100
AcDbEntity
  8
0
100
AcDbText
 10
74.67809444174623
 20
17.4005422092805
 30
0.0
 40
2.0
  1
極数
100
AcDbText
  0
TEXT
  5
17D2
330
17BB
100
AcDbEntity
  8
0
100
AcDbText
 10
74.67809444174623
 20
24.56509999999997
 30
0.0
 40
2.0
  1
電圧
100
AcDbText
  0
TEXT
  5
17D3
330
17BB
100
AcDbEntity
  8
0
100
AcDbText
 10
86.35319943225727
 20
17.49409999999994
 30
0.0
 40
2.0
  1
4
100
AcDbText
  0
TEXT
  5
17D4
330
17BB
100
AcDbEntity
  8
0
100
AcDbText
 10
86.35319943225727
 20
31.6361
 30
0.0
 40
2.0
  1
全閉外扇形（ｺﾝﾃﾞﾝｻﾗﾝ）DS-75
100
AcDbText
  0
LINE
  5
17D5
330
17BB
100
AcDbEntity
  8
0
100
AcDbLine
 10
74.0
 20
38.0
 30
0.0
 11
126.0
 21
37.99999999999997
 31
0.0
  0
LINE
  5
17D6
330
17BB
100
AcDbEntity
  8
0
100
AcDbLine
 10
74.0
 20
30.929
 30
0.0
 11
126.0
 21
30.92899999999994
 31
0.0
  0
LINE
  5
17D7
330
17BB
100
AcDbEntity
  8
0
100
AcDbLine
 10
74.0
 20
34.46450000000001
 30
0.0
 11
126.0
 21
34.46449999999998
 31
0.0
  0
TEXT
  5
17D8
330
17BB
100
AcDbEntity
  8
0
100
AcDbText
 10
86.35319943225727
 20
35.17159999999998
 30
0.0
 40
2.0
  1
単相誘導電動機
100
AcDbText
  0
TEXT
  5
17D9
330
17BB
100
AcDbEntity
  8
0
100
AcDbText
 10
74.67809444174623
 20
31.6361
 30
0.0
 40
2.0
  1
型式
100
AcDbText
  0
TEXT
  5
17DA
330
17BB
100
AcDbEntity
  8
0
100
AcDbText
 10
74.67809444174623
 20
35.17159999999998
 30
0.0
 40
2.0
  1
名称
100
AcDbText
  0
LINE
  5
17DB
330
17BB
100
AcDbEntity
  8
0
100
AcDbLine
 10
93.80123573807338
 20
40.12129999999999
 30
0.0
 11
106.1987642619266
 21
40.12129999999999
 31
0.0
  0
LINE
  5
17DC
330
17BB
100
AcDbEntity
  8
0
100
AcDbLine
 10
93.80123573807338
 20
39.41419999999999
 30
0.0
 11
106.1987642619266
 21
39.41419999999999
 31
0.0
  0
TEXT
  5
17DD
330
17BB
100
AcDbEntity
  8
0
100
AcDbText
 10
93.99902987649658
 20
40.47485
 30
0.0
 40
2.0
  1
モータ仕様
100
AcDbText
  0
ENDBLK
  5
17DF
330
17BB
100
AcDbEntity
  8
0
100
AcDbBlockEnd
  0
BLOCK
  5
1804
330
17E1
100
AcDbEntity
  8
0
100
AcDbBlockBegin
  2
MSPEC_S60WF-75
 70
     0
 10
0.0
 20
0.0
 30
0.0
  3
MSPEC_S60WF-75
  1

  0
LINE
  5
17E2
330
17E1
100
AcDbEntity
  8
0
100
AcDbLine
 10
126.0
 20
6.180499999999994
 30
0.0
 11
126.0
 21
37.99999999999997
 31
0.0
  0
TEXT
  5
17E3
330
17E1
100
AcDbEntity
  8
0
100
AcDbText
 10
86.35319943225727
 20
28.10060000000001
 30
0.0
 40
2.0
  1
60 W
100
AcDbText
  0
TEXT
  5
17E4
330
17E1
100
AcDbEntity
  8
0
100
AcDbText
 10
74.67809444174623
 20
28.10059999999998
 30
0.0
 40
2.0
  1
出力
100
AcDbText
  0
LINE
  5
17E5
330
17E1
100
AcDbEntity
  8
0
100
AcDbLine
 10
85.5
 20
6.180499999999994
 30
0.0
 11
85.5
 21
38.0
 31
0.0
  0
LINE
  5
17E6
330
17E1
100
AcDbEntity
  8
0
100
AcDbLine
 10
73.99999999999998
 20
6.180500000000023
 30
0.0
 11
74.0
 21
38.0
 31
0.0
  0
TEXT
  5
17E7
330
17E1
100
AcDbEntity
  8
0
100
AcDbText
 10
86.35319943225727
 20
13.95859999999993
 30
0.0
 40
2.0
  1
1500/1800 rpm
100
AcDbText
  0
LINE
  5
17E8
330
17E1
100
AcDbEntity
  8
0
100
AcDbLine
 10
74.0
 20
6.180500000000023
 30
0.0
 11
126.0
 21
6.180499999999994
 31
0.0
  0
LINE
  5
17E9
330
17E1
100
AcDbEntity
  8
0
100
AcDbLine
 10
74.0
 20
9.716000000000008
 30
0.0
 11
126.0
 21
9.715999999999979
 31
0.0
  0
LINE
  5
17EA
330
17E1
100
AcDbEntity
  8
0
100
AcDbLine
 10
74.0
 20
13.25149999999999
 30
0.0
 11
126.0
 21
13.25149999999996
 31
0.0
  0
LINE
  5
17EB
330
17E1
100
AcDbEntity
  8
0
100
AcDbLine
 10
74.0
 20
23.85799999999994
 30
0.0
 11
126.0
 21
23.85799999999992
 31
0.0
  0
LINE
  5
17EC
330
17E1
100
AcDbEntity
  8
0
100
AcDbLine
 10
74.0
 20
16.78699999999997
 30
0.0
 11
126.0
 21
16.78699999999994
 31
0.0
  0
LINE
  5
17ED
330
17E1
100
AcDbEntity
  8
0
100
AcDbLine
 10
74.0
 20
20.32249999999996
 30
0.0
 11
126.0
 21
20.32249999999993
 31
0.0
  0
LINE
  5
17EE
330
17E1
100
AcDbEntity
  8
0
100
AcDbLine
 10
74.0
 20
27.39349999999999
 30
0.0
 11
126.0
 21
27.39349999999996
 31
0.0
  0
TEXT
  5
17EF
330
17E1
100
AcDbEntity
  8
0
100
AcDbText
 10
86.35319943225727
 20
24.56510000000003
 30
0.0
 40
2.0
  1
200 V
100
AcDbText
  0
TEXT
  5
17F0
330
17E1
100
AcDbEntity
  8
0
100
AcDbText
 10
86.35319943225727
 20
21.02959999999995
 30
0.0
 40
2.0
  1
50/60 Hz
100
AcDbText
  0
TEXT
  5
17F1
330
17E1
100
AcDbEntity
  8
0
100
AcDbText
 10
74.67809444174623
 20
10.3295422092805
 30
0.0
 40
2.0
  1
定格
100
AcDbText
  0
TEXT
  5
17F2
330
17E1
100
AcDbEntity
  8
0
100
AcDbText
 10
74.67809444174623
 20
6.794042209280519
 30
0.0
 40
2.0
  1
絶縁
100
AcDbText
  0
TEXT
  5
17F3
330
17E1
100
AcDbEntity
  8
0
100
AcDbText
 10
86.35319943225727
 20
10.42309999999994
 30
0.0
 40
2.0
  1
連続
100
AcDbText
  0
TEXT
  5
17F4
330
17E1
100
AcDbEntity
  8
0
100
AcDbText
 10
86.35319943225727
 20
6.887599999999963
 30
0.0
 40
2.0
  1
E種
100
AcDbText
  0
TEXT
  5
17F5
330
17E1
100
AcDbEntity
  8
0
100
AcDbText
 10
74.67809444174623
 20
13.86504220928048
 30
0.0
 40
2.0
  1
回転速度
100
AcDbText
  0
TEXT
  5
17F6
330
17E1
100
AcDbEntity
  8
0
100
AcDbText
 10
74.67809444174633
 20
21.02959999999995
 30
0.0
 40
2.0
  1
周波数
100
AcDbText
  0
TEXT
  5
17F7
330
17E1
100
AcDbEntity
  8
0
100
AcDbText
 10
74.67809444174623
 20
17.4005422092805
 30
0.0
 40
2.0
  1
極数
100
AcDbText
  0
TEXT
  5
17F8
330
17E1
100
AcDbEntity
  8
0
100
AcDbText
 10
74.67809444174623
 20
24.56509999999997
 30
0.0
 40
2.0
  1
電圧
100
AcDbText
  0
TEXT
  5
17F9
330
17E1
100
AcDbEntity
  8
0
100
AcDbText
 10
86.35319943225727
 20
17.49409999999994
 30
0.0
 40
2.0
  1
4
100
AcDbText
  0
TEXT
  5
17FA
330
17E1
100
AcDbEntity
  8
0
100
AcDbText
 10
86.35319943225727
 20
31.6361
 30
0.0
 40
2.0
  1
全閉外扇形（ｺﾝﾃﾞﾝｻﾗﾝ）DS-75
100
AcDbText
  0
LINE
  5
17FB
330
17E1
100
AcDbEntity
  8
0
100
AcDbLine
 10
74.0
 20
38.0
 30
0.0
 11
126.0
 21
37.99999999999997
 31
0.0
  0
LINE
  5
17FC
330
17E1
100
AcDbEntity
  8
0
100
AcDbLine
 10
74.0
 20
30.929
 30
0.0
 11
126.0
 21
30.92899999999994
 31
0.0
  0
LINE
  5
17FD
330
17E1
100
AcDbEntity
  8
0
100
AcDbLine
 10
74.0
 20
34.46450000000001
 30
0.0
 11
126.0
 21
34.46449999999998
 31
0.0
  0
TEXT
  5
17FE
330
17E1
100
AcDbEntity
  8
0
100
AcDbText
 10
86.35319943225727
 20
35.17159999999998
 30
0.0
 40
2.0
  1
単相誘導電動機
100
AcDbText
  0
TEXT
  5
17FF
330
17E1
100
AcDbEntity
  8
0
100
AcDbText
 10
74.67809444174623
 20
31.6361
 30
0.0
 40
2.0
  1
型式
100
AcDbText
  0
TEXT
  5
1800
330
17E1
100
AcDbEntity
  8
0
100
AcDbText
 10
74.67809444174623
 20
35.17159999999998
 30
0.0
 40
2.0
  1
名称
100
AcDbText
  0
LINE
  5
1801
330
17E1
100
AcDbEntity
  8
0
100
AcDbLine
 10
93.80123573807338
 20
40.12129999999999
 30
0.0
 11
106.1987642619266
 21
40.12129999999999
 31
0.0
  0
LINE
  5
1802
330
17E1
100
AcDbEntity
  8
0
100
AcDbLine
 10
93.80123573807338
 20
39.41419999999999
 30
0.0
 11
106.1987642619266
 21
39.41419999999999
 31
0.0
  0
TEXT
  5
1803
330
17E1
100
AcDbEntity
  8
0
100
AcDbText
 10
93.99902987649658
 20
40.47485
 30
0.0
 40
2.0
  1
モータ仕様
100
AcDbText
  0
ENDBLK
  5
1805
330
17E1
100
AcDbEntity
  8
0
100
AcDbBlockEnd
  0
BLOCK
  5
1860
330
1849
100
AcDbEntity
  8
0
100
AcDbBlockBegin
  2
BSPEC_90-90-0038
 70
     0
 10
0.0
 20
0.0
 30
0.0
  3
BSPEC_90-90-0038
  1

  0
TEXT
  5
184A
330
1849
100
AcDbEntity
  8
0
100
AcDbText
 10
35.94757247309064
 20
40.47485
 30
0.0
 40
2.0
  1
ブレーキ仕様
100
AcDbText
  0
LINE
  5
184B
330
1849
100
AcDbEntity
  8
0
100
AcDbLine
 10
35.94757247309064
 20
40.12129999999999
 30
0.0
 11
50.05242752690936
 21
40.12129999999999
 31
0.0
  0
LINE
  5
184C
330
1849
100
AcDbEntity
  8
0
100
AcDbLine
 10
35.94757247309064
 20
39.41419999999999
 30
0.0
 11
50.05242752690936
 21
39.41419999999999
 31
0.0
  0
TEXT
  5
184D
330
1849
100
AcDbEntity
  8
0
100
AcDbText
 10
29.35319943225727
 20
21.29776682820352
 30
0.0
 40
2.0
  1
0.37N・m（0.038kgf・m）
100
AcDbText
  0
TEXT
  5
184E
330
1849
100
AcDbEntity
  8
0
100
AcDbText
 10
29.35319943225727
 20
24.56510000000003
 30
0.0
 40
2.0
  1
12 W （於75℃）
100
AcDbText
  0
TEXT
  5
184F
330
1849
100
AcDbEntity
  8
0
100
AcDbText
 10
29.35319943225727
 20
31.6361
 30
0.0
 40
2.0
  1
無励磁作動形（スプリングクローズ）
100
AcDbText
  0
LINE
  5
1850
330
1849
100
AcDbEntity
  8
0
100
AcDbLine
 10
17.0
 20
20.32249999999996
 30
0.0
 11
69.0
 21
20.32249999999996
 31
0.0
  0
LINE
  5
1851
330
1849
100
AcDbEntity
  8
0
100
AcDbLine
 10
17.0
 20
23.85799999999994
 30
0.0
 11
69.0
 21
23.85799999999994
 31
0.0
  0
LINE
  5
1852
330
1849
100
AcDbEntity
  8
0
100
AcDbLine
 10
17.0
 20
27.39349999999999
 30
0.0
 11
69.0
 21
27.39349999999999
 31
0.0
  0
LINE
  5
1853
330
1849
100
AcDbEntity
  8
0
100
AcDbLine
 10
17.0
 20
30.929
 30
0.0
 11
69.0
 21
30.92899999999997
 31
0.0
  0
LINE
  5
1854
330
1849
100
AcDbEntity
  8
0
100
AcDbLine
 10
17.0
 20
34.46450000000001
 30
0.0
 11
69.0
 21
34.46450000000001
 31
0.0
  0
LINE
  5
1855
330
1849
100
AcDbEntity
  8
0
100
AcDbLine
 10
17.0
 20
38.0
 30
0.0
 11
69.0
 21
38.0
 31
0.0
  0
TEXT
  5
1856
330
1849
100
AcDbEntity
  8
0
100
AcDbText
 10
29.35319943225727
 20
28.10060000000001
 30
0.0
 40
2.0
  1
DC 90V
100
AcDbText
  0
TEXT
  5
1857
330
1849
100
AcDbEntity
  8
0
100
AcDbText
 10
17.67809444174622
 20
28.10059999999998
 30
0.0
 40
2.0
  1
入力電圧
100
AcDbText
  0
LINE
  5
1858
330
1849
100
AcDbEntity
  8
0
100
AcDbLine
 10
28.5
 20
20.32249999999996
 30
0.0
 11
28.5
 21
38.0
 31
0.0
  0
LINE
  5
1859
330
1849
100
AcDbEntity
  8
0
100
AcDbLine
 10
17.0
 20
20.32249999999996
 30
0.0
 11
17.0
 21
38.0
 31
0.0
  0
TEXT
  5
185A
330
1849
100
AcDbEntity
  8
0
100
AcDbText
 10
17.67809444174622
 20
20.93604220928048
 30
0.0
 40
2.0
  1
定格トルク
 41
0.85
100
AcDbText
  0
TEXT
  5
185B
330
1849
100
AcDbEntity
  8
0
100
AcDbText
 10
17.67809444174622
 20
24.56509999999994
 30
0.0
 40
2.0
  1
容量
100
AcDbText
  0
TEXT
  5
185C
330
1849
100
AcDbEntity
  8
0
100
AcDbText
 10
17.67809444174622
 20
35.17159999999998
 30
0.0
 40
2.0
  1
型式
100
AcDbText
  0
TEXT
  5
185D
330
1849
100
AcDbEntity
  8
0
100
AcDbText
 10
17.67809444174622
 20
31.6361
 30
0.0
 40
2.0
  1
方式
100
AcDbText
  0
TEXT
  5
185E
330
1849
100
AcDbEntity
  8
0
100
AcDbText
 10
29.35319943225727
 20
35.17159999999998
 30
0.0
 40
2.0
  1
BS-90
100
AcDbText
  0
LINE
  5
185F
330
1849
100
AcDbEntity
  8
0
100
AcDbLine
 10
69.0
 20
20.32249999999996
 30
0.0
 11
69.0
 21
38.0
 31
0.0
  0
ENDBLK
  5
1861
330
1849
100
AcDbEntity
  8
0
100
AcDbBlockEnd
  0
BLOCK
  5
18F5
330
18DE
100
AcDbEntity
  8
0
100
AcDbBlockBegin
  2
BSPEC_90-45-0038
 70
     0
 10
0.0
 20
0.0
 30
0.0
  3
BSPEC_90-45-0038
  1

  0
TEXT
  5
18DF
330
18DE
100
AcDbEntity
  8
0
100
AcDbText
 10
35.94757247309064
 20
40.47485
 30
0.0
 40
2.0
  1
ブレーキ仕様
100
AcDbText
  0
LINE
  5
18E0
330
18DE
100
AcDbEntity
  8
0
100
AcDbLine
 10
35.94757247309064
 20
40.12129999999999
 30
0.0
 11
50.05242752690936
 21
40.12129999999999
 31
0.0
  0
LINE
  5
18E1
330
18DE
100
AcDbEntity
  8
0
100
AcDbLine
 10
35.94757247309064
 20
39.41419999999999
 30
0.0
 11
50.05242752690936
 21
39.41419999999999
 31
0.0
  0
TEXT
  5
18E2
330
18DE
100
AcDbEntity
  8
0
100
AcDbText
 10
29.35319943225727
 20
21.29776682820352
 30
0.0
 40
2.0
  1
0.37N・m（0.038kgf・m）
100
AcDbText
  0
TEXT
  5
18E3
330
18DE
100
AcDbEntity
  8
0
100
AcDbText
 10
29.35319943225727
 20
24.56510000000003
 30
0.0
 40
2.0
  1
10 W （於75℃）
100
AcDbText
  0
TEXT
  5
18E4
330
18DE
100
AcDbEntity
  8
0
100
AcDbText
 10
29.35319943225727
 20
31.6361
 30
0.0
 40
2.0
  1
無励磁作動形（スプリングクローズ）
100
AcDbText
  0
LINE
  5
18E5
330
18DE
100
AcDbEntity
  8
0
100
AcDbLine
 10
17.0
 20
20.32249999999996
 30
0.0
 11
69.0
 21
20.32249999999996
 31
0.0
  0
LINE
  5
18E6
330
18DE
100
AcDbEntity
  8
0
100
AcDbLine
 10
17.0
 20
23.85799999999994
 30
0.0
 11
69.0
 21
23.85799999999994
 31
0.0
  0
LINE
  5
18E7
330
18DE
100
AcDbEntity
  8
0
100
AcDbLine
 10
17.0
 20
27.39349999999999
 30
0.0
 11
69.0
 21
27.39349999999999
 31
0.0
  0
LINE
  5
18E8
330
18DE
100
AcDbEntity
  8
0
100
AcDbLine
 10
17.0
 20
30.929
 30
0.0
 11
69.0
 21
30.92899999999997
 31
0.0
  0
LINE
  5
18E9
330
18DE
100
AcDbEntity
  8
0
100
AcDbLine
 10
17.0
 20
34.46450000000001
 30
0.0
 11
69.0
 21
34.46450000000001
 31
0.0
  0
LINE
  5
18EA
330
18DE
100
AcDbEntity
  8
0
100
AcDbLine
 10
17.0
 20
38.0
 30
0.0
 11
69.0
 21
38.0
 31
0.0
  0
TEXT
  5
18EB
330
18DE
100
AcDbEntity
  8
0
100
AcDbText
 10
29.35319943225727
 20
28.10060000000001
 30
0.0
 40
2.0
  1
DC 45V
100
AcDbText
  0
TEXT
  5
18EC
330
18DE
100
AcDbEntity
  8
0
100
AcDbText
 10
17.67809444174622
 20
28.10059999999998
 30
0.0
 40
2.0
  1
入力電圧
100
AcDbText
  0
LINE
  5
18ED
330
18DE
100
AcDbEntity
  8
0
100
AcDbLine
 10
28.5
 20
20.32249999999996
 30
0.0
 11
28.5
 21
38.0
 31
0.0
  0
LINE
  5
18EE
330
18DE
100
AcDbEntity
  8
0
100
AcDbLine
 10
17.0
 20
20.32249999999996
 30
0.0
 11
17.0
 21
38.0
 31
0.0
  0
TEXT
  5
18EF
330
18DE
100
AcDbEntity
  8
0
100
AcDbText
 10
17.67809444174622
 20
20.93604220928048
 30
0.0
 40
2.0
  1
定格トルク
 41
0.85
100
AcDbText
  0
TEXT
  5
18F0
330
18DE
100
AcDbEntity
  8
0
100
AcDbText
 10
17.67809444174622
 20
24.56509999999994
 30
0.0
 40
2.0
  1
容量
100
AcDbText
  0
TEXT
  5
18F1
330
18DE
100
AcDbEntity
  8
0
100
AcDbText
 10
17.67809444174622
 20
35.17159999999998
 30
0.0
 40
2.0
  1
型式
100
AcDbText
  0
TEXT
  5
18F2
330
18DE
100
AcDbEntity
  8
0
100
AcDbText
 10
17.67809444174622
 20
31.6361
 30
0.0
 40
2.0
  1
方式
100
AcDbText
  0
TEXT
  5
18F3
330
18DE
100
AcDbEntity
  8
0
100
AcDbText
 10
29.35319943225727
 20
35.17159999999998
 30
0.0
 40
2.0
  1
BS-90
100
AcDbText
  0
LINE
  5
18F4
330
18DE
100
AcDbEntity
  8
0
100
AcDbLine
 10
69.0
 20
20.32249999999996
 30
0.0
 11
69.0
 21
38.0
 31
0.0
  0
ENDBLK
  5
18F6
330
18DE
100
AcDbEntity
  8
0
100
AcDbBlockEnd
  0
BLOCK
  5
196E
330
196B
100
AcDbEntity
  8
0
100
AcDbBlockBegin
  2
17
 70
     0
 10
0.0
 20
0.0
 30
0.0
  3
17
  1

  0
TEXT
  5
196C
330
196B
100
AcDbEntity
  8
0
100
AcDbText
 10
0.0
 20
3.5
 30
0.0
 40
2.0
  1
注。K型ターミナルボックスにはコネクター（キャプコン、膜付ゴム
100
AcDbText
  0
TEXT
  5
196D
330
196B
100
AcDbEntity
  8
0
100
AcDbText
 10
0.0
 20
0.0
 30
0.0
 40
2.0
  1
　　ブッシュ）が付属されています。
100
AcDbText
  0
ENDBLK
  5
196F
330
196B
100
AcDbEntity
  8
0
100
AcDbBlockEnd
  0
ENDSEC
  0
SECTION
  2
ENTITIES
  0
LINE
  5
6A4
330
2
100
AcDbEntity
  8
0
100
AcDbLine
 10
335.8712469063349
 20
458.9498380311286
 30
0.0
 11
360.8712469063349
 21
458.9498380311286
 31
0.0
  0
LINE
  5
6A5
330
2
100
AcDbEntity
  8
0
100
AcDbLine
 10
337.3712469063349
 20
498.9498380311285
 30
0.0
 11
361.8712469063349
 21
498.9498380311285
 31
0.0
  0
LINE
  5
6A6
330
2
100
AcDbEntity
  8
0
100
AcDbLine
 10
337.3712469063349
 20
318.9498380311285
 30
0.0
 11
361.8712469063349
 21
318.9498380311285
 31
0.0
  0
LINE
  5
6A7
330
2
100
AcDbEntity
  8
0
100
AcDbLine
 10
323.1784059063349
 20
456.9498380311285
 30
0.0
 11
373.5640879063349
 21
456.9498380311285
 31
0.0
  0
ARC
  5
6A8
330
2
100
AcDbEntity
  8
0
100
AcDbCircle
 10
348.3712469063349
 20
158.230642677648
 30
0.0
 40
11.0
100
AcDbArc
 50
15.82659900000041
 51
344.1733999999998
  0
LINE
  5
6A9
330
2
100
AcDbEntity
  8
0
100
AcDbLine
 10
361.8712469063349
 20
161.230604677648
 30
0.0
 11
355.8712469063349
 21
161.230619677648
 31
0.0
  0
LINE
  5
6AA
330
2
100
AcDbEntity
  8
0
100
AcDbLine
 10
361.8712469063349
 20
155.230604677648
 30
0.0
 11
355.8712469063349
 21
155.230642677648
 31
0.0
  0
LINE
  5
6AB
330
2
100
AcDbEntity
  8
0
100
AcDbLine
 10
320.3712469063349
 20
207.230642677648
 30
0.0
 11
376.3713389063349
 21
207.230642677648
 31
0.0
  0
LINE
  5
6AC
330
2
100
AcDbEntity
  8
0
100
AcDbLine
 10
376.3713389063349
 20
73.23062367764805
 30
0.0
 11
320.3712469063349
 21
73.23062367764805
 31
0.0
  0
LINE
  5
6AD
330
2
100
AcDbEntity
  8
0
100
AcDbLine
 10
303.3712469063349
 20
68.23062367764805
 30
0.0
 11
393.3713389063349
 21
68.23062367764805
 31
0.0
  0
LINE
  5
6AE
330
2
100
AcDbEntity
  8
0
100
AcDbLine
 10
393.3713389063349
 20
212.230642677648
 30
0.0
 11
303.3711709063349
 21
212.230642677648
 31
0.0
  0
LINE
  5
6AF
330
2
100
AcDbEntity
  8
0
100
AcDbLine
 10
358.3400579063349
 20
115.761896677648
 30
0.0
 11
362.0730599063349
 21
115.759470677648
 31
0.0
  0
LINE
  5
6B0
330
2
100
AcDbEntity
  8
0
100
AcDbLine
 10
358.3400579063349
 20
110.840021677648
 30
0.0
 11
360.9004829063349
 21
110.840021677648
 31
0.0
  0
LINE
  5
6B1
330
2
100
AcDbEntity
  8
0
100
AcDbLine
 10
358.8868419063349
 20
105.230642677648
 30
0.0
 11
356.3712469063349
 21
105.230642677648
 31
0.0
  0
LINE
  5
6B2
330
2
100
AcDbEntity
  8
0
100
AcDbLine
 10
358.3400579063349
 20
106.480642677648
 30
0.0
 11
358.8868419063349
 21
106.480642677648
 31
0.0
  0
LINE
  5
6B3
330
2
100
AcDbEntity
  8
0
100
AcDbLine
 10
361.4202579063349
 20
112.089735677648
 30
0.0
 11
358.3400579063349
 21
112.089735677648
 31
0.0
  0
LINE
  5
6B4
330
2
100
AcDbEntity
  8
0
100
AcDbLine
 10
356.3712469063349
 20
117.230646677648
 30
0.0
 11
361.1680609063349
 21
117.230646677648
 31
0.0
  0
LINE
  5
6B5
330
2
100
AcDbEntity
  8
0
100
AcDbLine
 10
331.6212469063349
 20
97.73064267764807
 30
0.0
 11
365.1212469063349
 21
97.73064267764807
 31
0.0
  0
ARC
  5
6B6
330
2
100
AcDbEntity
  8
0
100
AcDbCircle
 10
348.3712469063349
 20
158.230642677648
 30
0.0
 40
30.15
100
AcDbArc
 50
172.447403
 51
7.552696999999989
  0
LINE
  5
6B7
330
2
100
AcDbEntity
  8
0
100
AcDbLine
 10
331.6212469063349
 20
96.13064467764804
 30
0.0
 11
365.1212469063349
 21
96.13064467764804
 31
0.0
  0
ARC
  5
6B8
330
2
100
AcDbEntity
  8
0
100
AcDbCircle
 10
348.3712469063349
 20
158.230642677648
 30
0.0
 40
31.75
100
AcDbArc
 50
7.552696999999989
 51
172.447403
  0
CIRCLE
  5
6B9
330
2
100
AcDbEntity
  8
0
100
AcDbCircle
 10
348.3712469063349
 20
158.230642677648
 30
0.0
 40
27.5
  0
ARC
  5
6BA
330
2
100
AcDbEntity
  8
0
100
AcDbCircle
 10
348.3712469063349
 20
140.230657677648
 30
0.0
 40
60.0
100
AcDbArc
 50
228.1896969999997
 51
311.8103030000002
  0
ARC
  5
6BB
330
2
100
AcDbEntity
  8
0
100
AcDbCircle
 10
348.3712469063349
 20
140.230657677648
 30
0.0
 40
60.0
100
AcDbArc
 50
48.18962099999969
 51
131.8103940000003
  0
LINE
  5
6BC
330
2
100
AcDbEntity
  8
CENTER
100
AcDbLine
 10
303.3433536643195
 20
158.230642677648
 30
0.0
 11
393.3992198285055
 21
158.230642677648
 31
0.0
  0
LINE
  5
6BD
330
2
100
AcDbEntity
  8
0
100
AcDbLine
 10
292.3712469063349
 20
362.9498380311285
 30
0.0
 11
404.0827339063349
 21
362.9498380311285
 31
0.0
  0
LINE
  5
6BE
330
2
100
AcDbEntity
  8
0
100
AcDbLine
 10
405.3712469063349
 20
350.9498380311285
 30
0.0
 11
291.3712469063349
 21
350.9498380311285
 31
0.0
  0
LINE
  5
6BF
330
2
100
AcDbEntity
  8
0
100
AcDbLine
 10
283.6212469063349
 20
440.9498380311285
 30
0.0
 11
400.4100349063349
 21
440.9498380311285
 31
0.0
  0
LINE
  5
6C0
330
2
100
AcDbEntity
  8
CENTER
100
AcDbLine
 10
415.7094320736315
 20
408.9498380311286
 30
0.0
 11
46.12136990633496
 21
408.9498380311286
 31
0.0
  0
LINE
  5
6C1
330
2
100
AcDbEntity
  8
CENTER
100
AcDbLine
 10
46.12124790633493
 20
116.730642677648
 30
0.0
 11
316.3712469063349
 21
116.730642677648
 31
0.0
  0
LINE
  5
6C2
330
2
100
AcDbEntity
  8
0
100
AcDbLine
 10
117.6212469063349
 20
86.48166367764805
 30
0.0
 11
223.6212469063349
 21
86.48166367764805
 31
0.0
  0
LINE
  5
6C3
330
2
100
AcDbEntity
  8
0
100
AcDbLine
 10
117.6212469063349
 20
146.979620677648
 30
0.0
 11
223.6212469063349
 21
146.979620677648
 31
0.0
  0
LINE
  5
6C4
330
2
100
AcDbEntity
  8
0
100
AcDbLine
 10
117.6212469063349
 20
78.73066367764806
 30
0.0
 11
231.6212469063349
 21
78.73066367764806
 31
0.0
  0
LINE
  5
6C5
330
2
100
AcDbEntity
  8
0
100
AcDbLine
 10
117.6212469063349
 20
154.730619677648
 30
0.0
 11
231.6212469063349
 21
154.730619677648
 31
0.0
  0
LINE
  5
6C6
330
2
100
AcDbEntity
  8
0
100
AcDbLine
 10
117.6212469063349
 20
78.73064367764806
 30
0.0
 11
117.6212469063349
 21
154.730619677648
 31
0.0
  0
LINE
  5
6C7
330
2
100
AcDbEntity
  8
0
100
AcDbLine
 10
59.12124790633493
 20
81.73062367764805
 30
0.0
 11
59.12124790633493
 21
151.730619677648
 31
0.0
  0
LINE
  5
6C8
330
2
100
AcDbEntity
  8
0
100
AcDbLine
 10
108.1212469063349
 20
76.73062367764805
 30
0.0
 11
108.1212469063349
 21
156.730619677648
 31
0.0
  0
LINE
  5
6C9
330
2
100
AcDbEntity
  8
0
100
AcDbLine
 10
61.62124790633493
 20
92.73062367764806
 30
0.0
 11
108.1212469063349
 21
92.73062367764806
 31
0.0
  0
LINE
  5
6CA
330
2
100
AcDbEntity
  8
0
100
AcDbLine
 10
64.12124790633493
 20
76.73062367764805
 30
0.0
 11
108.1212469063349
 21
76.73062367764805
 31
0.0
  0
ARC
  5
6CB
330
2
100
AcDbEntity
  8
0
100
AcDbCircle
 10
64.12124790633493
 20
81.73062367764805
 30
0.0
 40
5.0
100
AcDbArc
 50
180.0
 51
270.0
  0
LINE
  5
6CC
330
2
100
AcDbEntity
  8
0
100
AcDbLine
 10
108.1212469063349
 20
86.48162367764806
 30
0.0
 11
117.6212469063349
 21
86.48162367764806
 31
0.0
  0
LINE
  5
6CD
330
2
100
AcDbEntity
  8
0
100
AcDbLine
 10
108.1212469063349
 20
78.73062367764806
 30
0.0
 11
117.6212469063349
 21
78.73062367764806
 31
0.0
  0
LINE
  5
6CE
330
2
100
AcDbEntity
  8
0
100
AcDbLine
 10
61.62124790633493
 20
142.730619677648
 30
0.0
 11
108.1212469063349
 21
142.730619677648
 31
0.0
  0
LINE
  5
6CF
330
2
100
AcDbEntity
  8
0
100
AcDbLine
 10
64.12124790633493
 20
156.730619677648
 30
0.0
 11
108.1212469063349
 21
156.730619677648
 31
0.0
  0
ARC
  5
6D0
330
2
100
AcDbEntity
  8
0
100
AcDbCircle
 10
64.12124790633493
 20
151.730619677648
 30
0.0
 40
5.0
100
AcDbArc
 50
90.0
 51
180.0
  0
LINE
  5
6D1
330
2
100
AcDbEntity
  8
0
100
AcDbLine
 10
108.1212469063349
 20
146.979620677648
 30
0.0
 11
117.6212469063349
 21
146.979620677648
 31
0.0
  0
LINE
  5
6D4
330
2
100
AcDbEntity
  8
0
100
AcDbLine
 10
108.1212469063349
 20
154.730619677648
 30
0.0
 11
117.6212469063349
 21
154.730619677648
 31
0.0
  0
ARC
  5
6D8
330
2
100
AcDbEntity
  8
0
100
AcDbCircle
 10
108.1212469063349
 20
141.099722677648
 30
0.0
 40
3.0
100
AcDbArc
 50
0.0
 51
90.0
  0
ARC
  5
6D9
330
2
100
AcDbEntity
  8
0
100
AcDbCircle
 10
108.1212469063349
 20
141.099722677648
 30
0.0
 40
4.5
100
AcDbArc
 50
0.0
 51
90.0
  0
LINE
  5
6DA
330
2
100
AcDbEntity
  8
HOJO
100
AcDbLine
 10
109.6212469063349
 20
136.099722677648
 30
0.0
 11
111.1212469063349
 21
136.599722677648
 31
0.0
  0
LINE
  5
6DB
330
2
100
AcDbEntity
  8
0
100
AcDbLine
 10
109.6212469063349
 20
141.099722677648
 30
0.0
 11
109.6212469063349
 21
136.084120677648
 31
0.0
  0
ARC
  5
6DC
330
2
100
AcDbEntity
  8
0
100
AcDbCircle
 10
108.1212469063349
 20
141.099722677648
 30
0.0
 40
1.5
100
AcDbArc
 50
0.0
 51
90.0
  0
LINE
  5
6DD
330
2
100
AcDbEntity
  8
HOJO
100
AcDbLine
 10
111.1212469063349
 20
137.099722677648
 30
0.0
 11
112.6212469063349
 21
136.599722677648
 31
0.0
  0
LINE
  5
6DE
330
2
100
AcDbEntity
  8
0
100
AcDbLine
 10
112.6212469063349
 20
141.099722677648
 30
0.0
 11
112.6212469063349
 21
136.599722677648
 31
0.0
  0
LINE
  5
6DF
330
2
100
AcDbEntity
  8
0
100
AcDbLine
 10
111.1212469063349
 20
141.099722677648
 30
0.0
 11
111.1212469063349
 21
136.599722677648
 31
0.0
  0
LINE
  5
6E5
330
2
100
AcDbEntity
  8
0
100
AcDbLine
 10
231.6212469063349
 20
154.730642677648
 30
0.0
 11
231.6212469063349
 21
78.73064367764806
 31
0.0
  0
LINE
  5
6E6
330
2
100
AcDbEntity
  8
0
100
AcDbLine
 10
275.6212469063349
 20
184.230642677648
 30
0.0
 11
275.6212469063349
 21
86.81798767764803
 31
0.0
  0
LINE
  5
6E7
330
2
100
AcDbEntity
  8
0
100
AcDbLine
 10
223.6212469063349
 20
152.730619677648
 30
0.0
 11
223.6212469063349
 21
80.73064367764805
 31
0.0
  0
LINE
  5
6E8
330
2
100
AcDbEntity
  8
0
100
AcDbLine
 10
283.6212619063349
 20
185.230642677648
 30
0.0
 11
283.6212619063349
 21
70.23064367764806
 31
0.0
  0
LINE
  5
6E9
330
2
100
AcDbEntity
  8
0
100
AcDbLine
 10
296.3711709063348
 20
183.230619677648
 30
0.0
 11
296.3711709063348
 21
97.23064267764806
 31
0.0
  0
LINE
  5
6EA
330
2
100
AcDbEntity
  8
0
100
AcDbLine
 10
291.3711709063349
 20
200.2305966776479
 30
0.0
 11
291.3711709063349
 21
80.23060367764804
 31
0.0
  0
LINE
  5
6EB
330
2
100
AcDbEntity
  8
0
100
AcDbLine
 10
312.7860419063349
 20
119.227938677648
 30
0.0
 11
318.4828499063348
 21
162.193464677648
 31
0.0
  0
LINE
  5
6EC
330
2
100
AcDbEntity
  8
0
100
AcDbLine
 10
311.1998449063348
 20
119.438234677648
 30
0.0
 11
316.8966679063348
 21
162.403745677648
 31
0.0
  0
LINE
  5
6ED
330
2
100
AcDbEntity
  8
0
100
AcDbLine
 10
298.3711709063348
 20
162.591345677648
 30
0.0
 11
298.3711709063348
 21
117.869955677648
 31
0.0
  0
LINE
  5
6EE
330
2
100
AcDbEntity
  8
CENTER
100
AcDbLine
 10
348.3712469063348
 20
225.230642677648
 30
0.0
 11
348.3712469063349
 21
55.23062367764805
 31
0.0
  0
LINE
  5
6EF
330
2
100
AcDbEntity
  8
0
100
AcDbLine
 10
231.6212469063349
 20
97.13064467764803
 30
0.0
 11
275.6212469063349
 21
97.13064467764803
 31
0.0
  0
LINE
  5
6F0
330
2
100
AcDbEntity
  8
0
100
AcDbLine
 10
231.6212469063349
 20
107.330644677648
 30
0.0
 11
275.6212469063349
 21
107.330644677648
 31
0.0
  0
LINE
  5
6F1
330
2
100
AcDbEntity
  8
0
100
AcDbLine
 10
283.6212469063349
 20
76.91476367764806
 30
0.0
 11
231.6212469063349
 21
78.73064367764806
 31
0.0
  0
ARC
  5
6F3
330
2
100
AcDbEntity
  8
0
100
AcDbCircle
 10
225.6212469063349
 20
80.73066367764807
 30
0.0
 40
2.0
100
AcDbArc
 50
180.0
 51
270.0
  0
ARC
  5
6F5
330
2
100
AcDbEntity
  8
0
100
AcDbCircle
 10
303.3711709063349
 20
80.23062367764806
 30
0.0
 40
11.0
100
AcDbArc
 50
0.0
 51
90.0
  0
ARC
  5
6F7
330
2
100
AcDbEntity
  8
0
100
AcDbCircle
 10
331.6212469063349
 20
116.730646677648
 30
0.0
 40
19.0
100
AcDbArc
 50
172.4476009999999
 51
270.0
  0
ARC
  5
6F8
330
2
100
AcDbEntity
  8
0
100
AcDbCircle
 10
331.6212469063349
 20
116.730646677648
 30
0.0
 40
20.6
100
AcDbArc
 50
172.447403
 51
270.0
  0
ARC
  5
6F9
330
2
100
AcDbEntity
  8
0
100
AcDbCircle
 10
302.3711709063348
 20
97.23064267764806
 30
0.0
 40
6.0
100
AcDbArc
 50
180.0
 51
270.0
  0
ARC
  5
6FA
330
2
100
AcDbEntity
  8
0
100
AcDbCircle
 10
328.3712469063349
 20
117.869955677648
 30
0.0
 40
30.0
100
AcDbArc
 50
180.0
 51
228.1896969999997
  0
LINE
  5
6FB
330
2
100
AcDbEntity
  8
0
100
AcDbLine
 10
290.1680459063348
 20
95.77066267764804
 30
0.0
 11
283.6212619063349
 21
95.77066267764804
 31
0.0
  0
LINE
  5
6FC
330
2
100
AcDbEntity
  8
0
100
AcDbLine
 10
283.6212619063349
 20
80.23062367764806
 30
0.0
 11
291.3711709063349
 21
80.23062367764806
 31
0.0
  0
LINE
  5
6FD
330
2
100
AcDbEntity
  8
0
100
AcDbLine
 10
289.1856239063349
 20
70.48062367764805
 30
0.0
 11
283.6212619063349
 21
70.48062367764805
 31
0.0
  0
ARC
  5
6FE
330
2
100
AcDbEntity
  8
0
100
AcDbCircle
 10
273.1212469063349
 20
74.77990767764805
 30
0.0
 40
2.5
100
AcDbArc
 50
0.0
 51
88.00000000000043
  0
ARC
  5
6FF
330
2
100
AcDbEntity
  8
0
100
AcDbCircle
 10
278.1212469063349
 20
72.73064367764806
 30
0.0
 40
2.5
100
AcDbArc
 50
180.0
 51
270.0
  0
LINE
  5
700
330
2
100
AcDbEntity
  8
0
100
AcDbLine
 10
278.1212469063349
 20
70.23064367764806
 30
0.0
 11
283.6212469063349
 21
70.23064367764806
 31
0.0
  0
LINE
  5
701
330
2
100
AcDbEntity
  8
0
100
AcDbLine
 10
275.6212469063349
 20
72.73064367764806
 30
0.0
 11
275.6212469063349
 21
74.77990767764805
 31
0.0
  0
LINE
  5
702
330
2
100
AcDbEntity
  8
0
100
AcDbLine
 10
276.7463229063349
 20
84.57664367764806
 30
0.0
 11
283.6212469063349
 21
84.57664367764806
 31
0.0
  0
ARC
  5
703
330
2
100
AcDbEntity
  8
0
100
AcDbCircle
 10
291.332534906335
 20
79.63064367764804
 30
0.0
 40
0.6
100
AcDbArc
 50
90.0
 51
176.1860960000001
  0
ARC
  5
704
330
2
100
AcDbEntity
  8
0
100
AcDbCircle
 10
303.3711709063349
 20
80.23062367764806
 30
0.0
 40
12.0
100
AcDbArc
 50
180.0
 51
270.0
  0
CIRCLE
  5
705
330
2
100
AcDbEntity
  8
0
100
AcDbCircle
 10
303.3711709063349
 20
80.23062367764806
 30
0.0
 40
5.5
  0
LINE
  5
706
330
2
100
AcDbEntity
  8
0
100
AcDbLine
 10
290.1833809063349
 20
71.41412367764804
 30
0.0
 11
290.7338259063349
 21
79.67054367764806
 31
0.0
  0
ARC
  5
707
330
2
100
AcDbEntity
  8
0
100
AcDbCircle
 10
289.1856239063349
 20
71.48062367764805
 30
0.0
 40
1.0
100
AcDbArc
 50
270.0
 51
356.1857910000001
  0
LINE
  5
708
330
2
100
AcDbEntity
  8
0
100
AcDbLine
 10
302.3711709063348
 20
91.23062367764806
 30
0.0
 11
303.3711709063349
 21
91.23062367764806
 31
0.0
  0
LINE
  5
709
330
2
100
AcDbEntity
  8
0
100
AcDbLine
 10
314.3712469063349
 20
79.23062367764805
 30
0.0
 11
314.3712469063349
 21
80.23062367764806
 31
0.0
  0
ARC
  5
70A
330
2
100
AcDbEntity
  8
0
100
AcDbCircle
 10
320.3712469063349
 20
79.23062367764805
 30
0.0
 40
6.0
100
AcDbArc
 50
180.0
 51
270.0
  0
LINE
  5
70B
330
2
100
AcDbEntity
  8
0
100
AcDbLine
 10
333.8236699063348
 20
117.230646677648
 30
0.0
 11
339.2030339063349
 21
117.230646677648
 31
0.0
  0
LINE
  5
70C
330
2
100
AcDbEntity
  8
0
100
AcDbLine
 10
333.7150579063349
 20
107.603582677648
 30
0.0
 11
334.6326609063349
 21
106.636885677648
 31
0.0
  0
LINE
  5
70D
330
2
100
AcDbEntity
  8
0
100
AcDbLine
 10
334.618255906335
 20
115.636896677648
 30
0.0
 11
333.7150579063349
 21
114.516901677648
 31
0.0
  0
LINE
  5
70E
330
2
100
AcDbEntity
  8
0
100
AcDbLine
 10
338.0748599063349
 20
105.230642677648
 30
0.0
 11
333.9144599063349
 21
105.230642677648
 31
0.0
  0
LINE
  5
70F
330
2
100
AcDbEntity
  8
0
100
AcDbLine
 10
333.7150579063349
 20
114.516901677648
 30
0.0
 11
333.7150579063349
 21
107.603582677648
 31
0.0
  0
LINE
  5
710
330
2
100
AcDbEntity
  8
0
100
AcDbLine
 10
332.3712469063349
 20
115.370890677648
 30
0.0
 11
332.3712469063349
 21
106.787824677648
 31
0.0
  0
LINE
  5
711
330
2
100
AcDbEntity
  8
0
100
AcDbLine
 10
332.3712469063349
 20
106.787824677648
 30
0.0
 11
333.9144599063349
 21
105.230642677648
 31
0.0
  0
LINE
  5
712
330
2
100
AcDbEntity
  8
0
100
AcDbLine
 10
333.8236699063348
 20
117.230646677648
 30
0.0
 11
332.3712469063349
 21
115.370890677648
 31
0.0
  0
LINE
  5
713
330
2
100
AcDbEntity
  8
0
100
AcDbLine
 10
358.3400579063349
 20
115.761896677648
 30
0.0
 11
358.3400579063349
 21
112.089735677648
 31
0.0
  0
LINE
  5
714
330
2
100
AcDbEntity
  8
0
100
AcDbLine
 10
356.9650579063349
 20
115.761896677648
 30
0.0
 11
356.9650579063349
 21
106.480642677648
 31
0.0
  0
LINE
  5
715
330
2
100
AcDbEntity
  8
0
100
AcDbLine
 10
349.0900579063349
 20
115.761896677648
 30
0.0
 11
349.0900579063349
 21
106.543142677648
 31
0.0
  0
LINE
  5
716
330
2
100
AcDbEntity
  8
0
100
AcDbLine
 10
347.5900579063349
 20
115.761896677648
 30
0.0
 11
347.5900579063349
 21
106.543142677648
 31
0.0
  0
LINE
  5
717
330
2
100
AcDbEntity
  8
0
100
AcDbLine
 10
339.215057906335
 20
106.187204677648
 30
0.0
 11
338.0748599063349
 21
105.230642677648
 31
0.0
  0
LINE
  5
718
330
2
100
AcDbEntity
  8
0
100
AcDbLine
 10
339.215057906335
 20
105.230642677648
 30
0.0
 11
340.3712469063349
 21
105.230642677648
 31
0.0
  0
LINE
  5
719
330
2
100
AcDbEntity
  8
0
100
AcDbLine
 10
337.1212469063349
 20
112.199396677648
 30
0.0
 11
337.1212469063349
 21
110.886900677648
 31
0.0
  0
LINE
  5
71A
330
2
100
AcDbEntity
  8
0
100
AcDbLine
 10
339.215057906335
 20
110.886900677648
 30
0.0
 11
339.215057906335
 21
109.136900677648
 31
0.0
  0
LINE
  5
71B
330
2
100
AcDbEntity
  8
0
100
AcDbLine
 10
339.215057906335
 20
106.187204677648
 30
0.0
 11
339.215057906335
 21
105.230642677648
 31
0.0
  0
ARC
  5
71C
330
2
100
AcDbEntity
  8
0
100
AcDbCircle
 10
336.715057906335
 20
109.136892677648
 30
0.0
 40
2.5
100
AcDbArc
 50
270.0002139999998
 51
0.0001089999998967
  0
LINE
  5
71D
330
2
100
AcDbEntity
  8
0
100
AcDbLine
 10
339.215057906335
 20
109.636900677648
 30
0.0
 11
339.215057906335
 21
110.636900677648
 31
0.0
  0
LINE
  5
71E
330
2
100
AcDbEntity
  8
0
100
AcDbLine
 10
336.715057906335
 20
106.636885677648
 30
0.0
 11
334.6326609063349
 21
106.636885677648
 31
0.0
  0
LINE
  5
71F
330
2
100
AcDbEntity
  8
0
100
AcDbLine
 10
339.215057906335
 20
110.886900677648
 30
0.0
 11
337.1212469063349
 21
110.886900677648
 31
0.0
  0
LINE
  5
720
330
2
100
AcDbEntity
  8
0
100
AcDbLine
 10
337.1212469063349
 20
112.199396677648
 30
0.0
 11
340.3712469063349
 21
112.199396677648
 31
0.0
  0
LINE
  5
721
330
2
100
AcDbEntity
  8
0
100
AcDbLine
 10
340.3712469063349
 20
112.199396677648
 30
0.0
 11
340.3712469063349
 21
105.230642677648
 31
0.0
  0
LINE
  5
722
330
2
100
AcDbEntity
  8
0
100
AcDbLine
 10
346.9962469063349
 20
106.543142677648
 30
0.0
 11
347.5900579063349
 21
106.543142677648
 31
0.0
  0
LINE
  5
723
330
2
100
AcDbEntity
  8
0
100
AcDbLine
 10
346.9962469063349
 20
105.230642677648
 30
0.0
 11
349.5900579063349
 21
105.230642677648
 31
0.0
  0
LINE
  5
724
330
2
100
AcDbEntity
  8
0
100
AcDbLine
 10
349.5900579063349
 20
106.543142677648
 30
0.0
 11
349.5900579063349
 21
105.230642677648
 31
0.0
  0
LINE
  5
725
330
2
100
AcDbEntity
  8
0
100
AcDbLine
 10
346.9962469063349
 20
106.543142677648
 30
0.0
 11
346.9962469063349
 21
105.230642677648
 31
0.0
  0
LINE
  5
726
330
2
100
AcDbEntity
  8
0
100
AcDbLine
 10
349.0900579063349
 20
106.543142677648
 30
0.0
 11
349.5900579063349
 21
106.543142677648
 31
0.0
  0
LINE
  5
727
330
2
100
AcDbEntity
  8
0
100
AcDbLine
 10
356.3712469063349
 20
106.480642677648
 30
0.0
 11
356.3712469063349
 21
105.230642677648
 31
0.0
  0
LINE
  5
728
330
2
100
AcDbEntity
  8
0
100
AcDbLine
 10
356.3712469063349
 20
106.480642677648
 30
0.0
 11
356.9650579063349
 21
106.480642677648
 31
0.0
  0
LINE
  5
729
330
2
100
AcDbEntity
  8
0
100
AcDbLine
 10
358.3400579063349
 20
110.840021677648
 30
0.0
 11
358.3400579063349
 21
106.480642677648
 31
0.0
  0
LINE
  5
72A
330
2
100
AcDbEntity
  8
0
100
AcDbLine
 10
347.5900579063349
 20
115.761896677648
 30
0.0
 11
345.6890569063349
 21
115.761896677648
 31
0.0
  0
LINE
  5
72B
330
2
100
AcDbEntity
  8
0
100
AcDbLine
 10
344.3712469063349
 20
117.230646677648
 30
0.0
 11
352.3712469063349
 21
117.230646677648
 31
0.0
  0
LINE
  5
72C
330
2
100
AcDbEntity
  8
0
100
AcDbLine
 10
339.215057906335
 20
114.919794677648
 30
0.0
 11
339.215057906335
 21
114.730646677648
 31
0.0
  0
LINE
  5
72D
330
2
100
AcDbEntity
  8
0
100
AcDbLine
 10
340.3712469063349
 20
115.934152677648
 30
0.0
 11
340.3712469063349
 21
114.730646677648
 31
0.0
  0
LINE
  5
72E
330
2
100
AcDbEntity
  8
0
100
AcDbLine
 10
339.215057906335
 20
114.730646677648
 30
0.0
 11
340.3712469063349
 21
114.730646677648
 31
0.0
  0
LINE
  5
72F
330
2
100
AcDbEntity
  8
0
100
AcDbLine
 10
339.2030339063349
 20
117.230646677648
 30
0.0
 11
340.3712469063349
 21
115.934152677648
 31
0.0
  0
LINE
  5
730
330
2
100
AcDbEntity
  8
0
100
AcDbLine
 10
339.215057906335
 20
114.919794677648
 30
0.0
 11
338.4580699063349
 21
115.636896677648
 31
0.0
  0
LINE
  5
731
330
2
100
AcDbEntity
  8
0
100
AcDbLine
 10
338.4732669063348
 20
115.636896677648
 30
0.0
 11
334.618255906335
 21
115.636896677648
 31
0.0
  0
LINE
  5
732
330
2
100
AcDbEntity
  8
0
100
AcDbLine
 10
345.6890569063349
 20
115.761896677648
 30
0.0
 11
345.2592479063349
 21
114.730646677648
 31
0.0
  0
LINE
  5
733
330
2
100
AcDbEntity
  8
0
100
AcDbLine
 10
344.3712469063349
 20
114.730646677648
 30
0.0
 11
345.2592479063349
 21
114.730646677648
 31
0.0
  0
LINE
  5
734
330
2
100
AcDbEntity
  8
0
100
AcDbLine
 10
344.3712469063349
 20
114.730646677648
 30
0.0
 11
344.3712469063349
 21
117.230646677648
 31
0.0
  0
LINE
  5
735
330
2
100
AcDbEntity
  8
0
100
AcDbLine
 10
349.0900579063349
 20
115.761896677648
 30
0.0
 11
351.1744699063349
 21
115.761896677648
 31
0.0
  0
LINE
  5
736
330
2
100
AcDbEntity
  8
0
100
AcDbLine
 10
351.1744699063349
 20
115.761896677648
 30
0.0
 11
351.5368349063349
 21
114.730646677648
 31
0.0
  0
LINE
  5
737
330
2
100
AcDbEntity
  8
0
100
AcDbLine
 10
351.5368349063349
 20
114.730646677648
 30
0.0
 11
352.3712469063349
 21
114.730646677648
 31
0.0
  0
LINE
  5
738
330
2
100
AcDbEntity
  8
0
100
AcDbLine
 10
352.3712469063349
 20
114.730646677648
 30
0.0
 11
352.3712469063349
 21
117.230646677648
 31
0.0
  0
LINE
  5
739
330
2
100
AcDbEntity
  8
0
100
AcDbLine
 10
356.3712469063349
 20
115.761896677648
 30
0.0
 11
356.9650579063349
 21
115.761896677648
 31
0.0
  0
LINE
  5
73A
330
2
100
AcDbEntity
  8
0
100
AcDbLine
 10
356.3712469063349
 20
117.230646677648
 30
0.0
 11
356.3712469063349
 21
115.761896677648
 31
0.0
  0
LINE
  5
73B
330
2
100
AcDbEntity
  8
0
100
AcDbLine
 10
274.2081149063348
 20
168.048445677648
 30
0.0
 11
248.2646949063349
 21
155.524038677648
 31
0.0
  0
LINE
  5
73C
330
2
100
AcDbEntity
  8
0
100
AcDbLine
 10
273.2084969063348
 20
156.182905677648
 30
0.0
 11
231.6212469063349
 21
154.730642677648
 31
0.0
  0
ARC
  5
73D
330
2
100
AcDbEntity
  8
0
100
AcDbCircle
 10
225.6212469063349
 20
152.730642677648
 30
0.0
 40
2.0
100
AcDbArc
 50
90.0
 51
180.0
  0
ARC
  5
73E
330
2
100
AcDbEntity
  8
0
100
AcDbCircle
 10
247.1778269063349
 20
157.775411677648
 30
0.0
 40
2.5
100
AcDbArc
 50
271.9999999999995
 51
295.769318
  0
ARC
  5
73F
330
2
100
AcDbEntity
  8
0
100
AcDbCircle
 10
303.3711709063349
 20
200.230642677648
 30
0.0
 40
11.0
100
AcDbArc
 50
270.0
 51
0.0
  0
LINE
  5
740
330
2
100
AcDbEntity
  8
CENTER
100
AcDbLine
 10
303.3711709063349
 20
209.136923677648
 30
0.0
 11
303.3711709063349
 21
191.324361677648
 31
0.0
  0
LINE
  5
742
330
2
100
AcDbEntity
  8
0
100
AcDbLine
 10
290.1680459063348
 20
159.690664677648
 30
0.0
 11
283.6212619063349
 21
159.690664677648
 31
0.0
  0
ARC
  5
743
330
2
100
AcDbEntity
  8
0
100
AcDbCircle
 10
273.1212469063349
 20
158.681379677648
 30
0.0
 40
2.5
100
AcDbArc
 50
271.9999999999995
 51
0.0
  0
LINE
  5
744
330
2
100
AcDbEntity
  8
0
100
AcDbLine
 10
290.1680459063348
 20
175.230619677648
 30
0.0
 11
283.6212619063349
 21
175.230619677648
 31
0.0
  0
LINE
  5
745
330
2
100
AcDbEntity
  8
0
100
AcDbLine
 10
283.6212619063349
 20
184.980619677648
 30
0.0
 11
291.3711709063349
 21
184.980619677648
 31
0.0
  0
ARC
  5
746
330
2
100
AcDbEntity
  8
0
100
AcDbCircle
 10
273.1212469063349
 20
170.299826677648
 30
0.0
 40
2.5
100
AcDbArc
 50
295.7693249999996
 51
0.0
  0
ARC
  5
747
330
2
100
AcDbEntity
  8
0
100
AcDbCircle
 10
276.6212469063349
 20
184.230642677648
 30
0.0
 40
1.0
100
AcDbArc
 50
90.0
 51
180.0
  0
LINE
  5
748
330
2
100
AcDbEntity
  8
0
100
AcDbLine
 10
276.6212469063349
 20
185.230642677648
 30
0.0
 11
283.6212619063349
 21
185.230642677648
 31
0.0
  0
ARC
  5
749
330
2
100
AcDbEntity
  8
0
100
AcDbCircle
 10
328.3712469063349
 20
162.591345677648
 30
0.0
 40
30.0
100
AcDbArc
 50
131.8103940000003
 51
180.0
  0
ARC
  5
74A
330
2
100
AcDbEntity
  8
0
100
AcDbCircle
 10
302.3712009063349
 20
183.230680677648
 30
0.0
 40
6.0
100
AcDbArc
 50
90.0
 51
180.0
  0
LINE
  5
74B
330
2
100
AcDbEntity
  8
0
100
AcDbLine
 10
302.3711709063348
 20
189.230619677648
 30
0.0
 11
303.3711709063349
 21
189.230619677648
 31
0.0
  0
LINE
  5
74C
330
2
100
AcDbEntity
  8
0
100
AcDbLine
 10
355.8712469063349
 20
155.230642677648
 30
0.0
 11
355.8712469063349
 21
161.230619677648
 31
0.0
  0
LINE
  5
74D
330
2
100
AcDbEntity
  8
CENTER
100
AcDbLine
 10
294.4648899063349
 20
200.230642677648
 30
0.0
 11
312.2774519063348
 21
200.230642677648
 31
0.0
  0
ARC
  5
74E
330
2
100
AcDbEntity
  8
0
100
AcDbCircle
 10
303.3711709063349
 20
200.230642677648
 30
0.0
 40
12.0
100
AcDbArc
 50
90.0
 51
180.0
  0
CIRCLE
  5
74F
330
2
100
AcDbEntity
  8
0
100
AcDbCircle
 10
303.3711709063349
 20
200.230642677648
 30
0.0
 40
5.5
  0
ARC
  5
750
330
2
100
AcDbEntity
  8
0
100
AcDbCircle
 10
320.3712469063349
 20
201.230703677648
 30
0.0
 40
6.0
100
AcDbArc
 50
90.0
 51
180.0
  0
LINE
  5
751
330
2
100
AcDbEntity
  8
0
100
AcDbLine
 10
314.3712469063349
 20
201.230642677648
 30
0.0
 11
314.3712469063349
 21
200.230642677648
 31
0.0
  0
LINE
  5
752
330
2
100
AcDbEntity
  8
0
100
AcDbLine
 10
158.6210489063349
 20
385.9498380311285
 30
0.0
 11
223.6213689063349
 21
385.9498380311285
 31
0.0
  0
LINE
  5
753
330
2
100
AcDbEntity
  8
0
100
AcDbLine
 10
158.6212469063349
 20
431.9498380311285
 30
0.0
 11
223.6213689063349
 21
431.9498380311285
 31
0.0
  0
LINE
  5
754
330
2
100
AcDbEntity
  8
0
100
AcDbLine
 10
117.6213689063349
 20
370.9498690311285
 30
0.0
 11
231.6213689063349
 21
370.9498690311285
 31
0.0
  0
LINE
  5
755
330
2
100
AcDbEntity
  8
0
100
AcDbLine
 10
117.6213689063349
 20
446.9498080311285
 30
0.0
 11
231.6213689063349
 21
446.9498080311285
 31
0.0
  0
LINE
  5
756
330
2
100
AcDbEntity
  8
0
100
AcDbLine
 10
59.12136990633496
 20
373.9498080311285
 30
0.0
 11
59.12136990633496
 21
443.9498080311286
 31
0.0
  0
LINE
  5
757
330
2
100
AcDbEntity
  8
0
100
AcDbLine
 10
108.1213689063349
 20
368.9498080311285
 30
0.0
 11
108.1213689063349
 21
448.9498080311285
 31
0.0
  0
LINE
  5
758
330
2
100
AcDbEntity
  8
0
100
AcDbLine
 10
117.6213689063349
 20
446.9498080311285
 30
0.0
 11
117.6213689063349
 21
433.9498380311286
 31
0.0
  0
LINE
  5
759
330
2
100
AcDbEntity
  8
0
100
AcDbLine
 10
61.62136990633496
 20
382.9498080311285
 30
0.0
 11
108.1213689063349
 21
382.9498080311285
 31
0.0
  0
LINE
  5
75A
330
2
100
AcDbEntity
  8
0
100
AcDbLine
 10
64.12136990633496
 20
368.9498080311285
 30
0.0
 11
108.1213689063349
 21
368.9498080311285
 31
0.0
  0
ARC
  5
75B
330
2
100
AcDbEntity
  8
0
100
AcDbCircle
 10
64.12136990633496
 20
373.9498080311285
 30
0.0
 40
5.0
100
AcDbArc
 50
180.0
 51
270.0
  0
LINE
  5
760
330
2
100
AcDbEntity
  8
0
100
AcDbLine
 10
108.6211699063349
 20
385.9498080311285
 30
0.0
 11
108.1213689063349
 21
385.9498080311285
 31
0.0
  0
LINE
  5
761
330
2
100
AcDbEntity
  8
0
100
AcDbLine
 10
117.6213689063349
 20
370.9498080311285
 30
0.0
 11
108.1213689063349
 21
370.9498080311285
 31
0.0
  0
ARC
  5
762
330
2
100
AcDbEntity
  8
0
100
AcDbCircle
 10
108.1213689063349
 20
376.6799710311286
 30
0.0
 40
3.0
100
AcDbArc
 50
0.0
 51
90.0
  0
ARC
  5
763
330
2
100
AcDbEntity
  8
0
100
AcDbCircle
 10
108.1213689063349
 20
376.6799710311286
 30
0.0
 40
4.5
100
AcDbArc
 50
0.0
 51
90.0
  0
ARC
  5
764
330
2
100
AcDbEntity
  8
0
100
AcDbCircle
 10
108.1213689063349
 20
376.6799710311286
 30
0.0
 40
1.5
100
AcDbArc
 50
0.0
 51
90.0
  0
LINE
  5
765
330
2
100
AcDbEntity
  8
HOJO
100
AcDbLine
 10
111.1213689063349
 20
372.6799710311286
 30
0.0
 11
112.6213689063349
 21
372.1799710311286
 31
0.0
  0
LINE
  5
766
330
2
100
AcDbEntity
  8
HOJO
100
AcDbLine
 10
109.6213689063349
 20
371.6799710311286
 30
0.0
 11
111.1213689063349
 21
372.1799710311286
 31
0.0
  0
LINE
  5
767
330
2
100
AcDbEntity
  8
0
100
AcDbLine
 10
112.6213689063349
 20
376.6799710311286
 30
0.0
 11
112.6213689063349
 21
372.1799710311286
 31
0.0
  0
LINE
  5
768
330
2
100
AcDbEntity
  8
0
100
AcDbLine
 10
111.1213689063349
 20
376.6799710311286
 30
0.0
 11
111.1213689063349
 21
372.1799710311286
 31
0.0
  0
LINE
  5
769
330
2
100
AcDbEntity
  8
0
100
AcDbLine
 10
109.6213689063349
 20
376.6799710311286
 30
0.0
 11
109.6213689063349
 21
371.6643770311285
 31
0.0
  0
LINE
  5
770
330
2
100
AcDbEntity
  8
0
100
AcDbLine
 10
117.6213689063349
 20
383.9498380311285
 30
0.0
 11
117.6213689063349
 21
370.9498080311285
 31
0.0
  0
LINE
  5
775
330
2
100
AcDbEntity
  8
0
100
AcDbLine
 10
61.62136990633496
 20
432.9498080311285
 30
0.0
 11
108.1213689063349
 21
432.9498080311285
 31
0.0
  0
LINE
  5
776
330
2
100
AcDbEntity
  8
0
100
AcDbLine
 10
64.12136990633496
 20
448.9498080311285
 30
0.0
 11
108.1213689063349
 21
448.9498080311285
 31
0.0
  0
ARC
  5
777
330
2
100
AcDbEntity
  8
0
100
AcDbCircle
 10
64.12136990633496
 20
443.9498080311286
 30
0.0
 40
5.0
100
AcDbArc
 50
90.0
 51
180.0
  0
LINE
  5
778
330
2
100
AcDbEntity
  8
0
100
AcDbLine
 10
108.6211399063349
 20
431.9498080311285
 30
0.0
 11
108.1213689063349
 21
431.9498080311285
 31
0.0
  0
LINE
  5
779
330
2
100
AcDbEntity
  8
0
100
AcDbLine
 10
117.6213689063349
 20
446.9498080311285
 30
0.0
 11
108.1213689063349
 21
446.9498080311285
 31
0.0
  0
LINE
  5
77A
330
2
100
AcDbEntity
  8
0
100
AcDbLine
 10
274.7530679063348
 20
439.0558260311285
 30
0.0
 11
252.9999549063349
 21
420.3137300311285
 31
0.0
  0
LINE
  5
77B
330
2
100
AcDbEntity
  8
0
100
AcDbLine
 10
231.6212469063349
 20
446.9498380311286
 30
0.0
 11
231.6212469063349
 21
370.9498380311285
 31
0.0
  0
LINE
  5
77C
330
2
100
AcDbEntity
  8
0
100
AcDbLine
 10
231.6212469063349
 20
446.9498380311286
 30
0.0
 11
231.6212469063349
 21
370.9498380311285
 31
0.0
  0
LINE
  5
77D
330
2
100
AcDbEntity
  8
0
100
AcDbLine
 10
275.6212469063349
 20
353.9498380311286
 30
0.0
 11
275.6212469063349
 21
463.9498380311286
 31
0.0
  0
ARC
  5
77E
330
2
100
AcDbEntity
  8
0
100
AcDbCircle
 10
233.186828906335
 20
410.5435270311286
 30
0.0
 40
65.0
100
AcDbArc
 50
337.9579239999996
 51
19.04138799999967
  0
LINE
  5
77F
330
2
100
AcDbEntity
  8
CENTER
100
AcDbLine
 10
348.3712469063349
 20
511.9498380311287
 30
0.0
 11
348.3712469063349
 21
305.9498380311286
 31
0.0
  0
LINE
  5
780
330
2
100
AcDbEntity
  8
0
100
AcDbLine
 10
328.3712469063349
 20
440.9498380311285
 30
0.0
 11
328.3712469063349
 21
363.7521300311285
 31
0.0
  0
LINE
  5
781
330
2
100
AcDbEntity
  8
0
100
AcDbLine
 10
283.6212469063349
 20
466.4498380311285
 30
0.0
 11
283.6212469063349
 21
351.4498380311286
 31
0.0
  0
LINE
  5
782
330
2
100
AcDbEntity
  8
0
100
AcDbLine
 10
274.7530679063348
 20
378.8438510311285
 30
0.0
 11
252.9999549063349
 21
397.5859470311285
 31
0.0
  0
LINE
  5
783
330
2
100
AcDbEntity
  8
0
100
AcDbLine
 10
273.2084969063348
 20
369.4975680311285
 30
0.0
 11
231.6212469063349
 21
370.9498380311285
 31
0.0
  0
LINE
  5
784
330
2
100
AcDbEntity
  8
0
100
AcDbLine
 10
223.6213689063349
 20
385.9498380311285
 30
0.0
 11
223.6213689063349
 21
372.9498380311285
 31
0.0
  0
ARC
  5
785
330
2
100
AcDbEntity
  8
0
100
AcDbCircle
 10
225.6213689063349
 20
372.9498690311285
 30
0.0
 40
2.0
100
AcDbArc
 50
180.0
 51
270.0
  0
ARC
  5
786
330
2
100
AcDbEntity
  8
0
100
AcDbCircle
 10
262.7908789063349
 20
408.9498380311286
 30
0.0
 40
15.0
100
AcDbArc
 50
130.7476199999996
 51
229.2523800000003
  0
LINE
  5
787
330
2
100
AcDbEntity
  8
HIDS
  6
SEKKEI_H
100
AcDbLine
 10
297.8711709063349
 20
362.9498380311285
 30
0.0
 11
297.8711709063349
 21
350.9498380311285
 31
0.0
  0
LINE
  5
788
330
2
100
AcDbEntity
  8
CENTER
100
AcDbLine
 10
303.3711709063349
 20
369.9498380311286
 30
0.0
 11
303.3711709063349
 21
343.9498380311285
 31
0.0
  0
LINE
  5
789
330
2
100
AcDbEntity
  8
HIDS
  6
SEKKEI_H
100
AcDbLine
 10
308.8711709063348
 20
362.9498380311285
 30
0.0
 11
308.8711709063348
 21
350.9498380311285
 31
0.0
  0
ARC
  5
78A
330
2
100
AcDbEntity
  8
0
100
AcDbCircle
 10
292.3712469063349
 20
361.9498380311286
 30
0.0
 40
1.0
100
AcDbArc
 50
90.0
 51
180.0
  0
LINE
  5
78B
330
2
100
AcDbEntity
  8
0
100
AcDbLine
 10
290.8878489063349
 20
361.4498380311285
 30
0.0
 11
283.6212469063349
 21
361.4498380311285
 31
0.0
  0
LINE
  5
78C
330
2
100
AcDbEntity
  8
0
100
AcDbLine
 10
290.8712469063349
 20
351.6998380311286
 30
0.0
 11
283.6212469063349
 21
351.6998380311286
 31
0.0
  0
LINE
  5
78D
330
2
100
AcDbEntity
  8
0
100
AcDbLine
 10
286.1212469063349
 20
351.6998380311286
 30
0.0
 11
283.6212469063349
 21
351.6998380311286
 31
0.0
  0
LINE
  5
78E
330
2
100
AcDbEntity
  8
0
100
AcDbLine
 10
278.1212469063349
 20
351.4498380311286
 30
0.0
 11
283.6212469063349
 21
351.4498380311286
 31
0.0
  0
ARC
  5
78F
330
2
100
AcDbEntity
  8
0
100
AcDbCircle
 10
278.1212469063349
 20
353.9498380311286
 30
0.0
 40
2.5
100
AcDbArc
 50
180.0
 51
270.0
  0
LINE
  5
790
330
2
100
AcDbEntity
  8
0
100
AcDbLine
 10
291.3712469063349
 20
361.9498380311286
 30
0.0
 11
291.3712469063349
 21
350.9498380311285
 31
0.0
  0
ARC
  5
791
330
2
100
AcDbEntity
  8
0
100
AcDbCircle
 10
290.8712469063349
 20
351.1998380311286
 30
0.0
 40
0.5
100
AcDbArc
 50
0.0
 51
90.0
  0
LINE
  5
792
330
2
100
AcDbEntity
  8
0
100
AcDbLine
 10
337.3712469063349
 20
350.9498380311285
 30
0.0
 11
337.3712469063349
 21
318.9498380311285
 31
0.0
  0
LINE
  5
793
330
2
100
AcDbEntity
  8
0
100
AcDbLine
 10
292.3254709063348
 20
376.9498380311286
 30
0.0
 11
283.6212469063349
 21
376.9498380311286
 31
0.0
  0
ARC
  5
794
330
2
100
AcDbEntity
  8
0
100
AcDbCircle
 10
273.1212469063349
 20
376.9498690311285
 30
0.0
 40
2.5
100
AcDbArc
 50
0.0
 51
49.25237300000009
  0
ARC
  5
795
330
2
100
AcDbEntity
  8
0
100
AcDbCircle
 10
273.1212469063349
 20
366.9990940311286
 30
0.0
 40
2.5
100
AcDbArc
 50
0.0
 51
88.00000000000043
  0
LINE
  5
796
330
2
100
AcDbEntity
  8
0
100
AcDbLine
 10
293.4358829063348
 20
386.1498500311286
 30
0.0
 11
292.8519449063348
 21
363.8551570311285
 31
0.0
  0
ARC
  5
797
330
2
100
AcDbEntity
  8
0
100
AcDbCircle
 10
291.8522959063349
 20
363.8813260311285
 30
0.0
 40
1.0
100
AcDbArc
 50
285.0391850000003
 51
358.4996640000001
  0
LINE
  5
798
330
2
100
AcDbEntity
  8
0
100
AcDbLine
 10
273.2084969063348
 20
448.4021090311285
 30
0.0
 11
231.6212469063349
 21
446.9498380311286
 31
0.0
  0
LINE
  5
799
330
2
100
AcDbEntity
  8
0
100
AcDbLine
 10
223.6213689063349
 20
444.9498080311285
 30
0.0
 11
223.6213689063349
 21
431.9498380311285
 31
0.0
  0
ARC
  5
79A
330
2
100
AcDbEntity
  8
0
100
AcDbCircle
 10
225.6213689063349
 20
444.9498380311285
 30
0.0
 40
2.0
100
AcDbArc
 50
90.0
 51
180.0
  0
LINE
  5
79B
330
2
100
AcDbEntity
  8
0
100
AcDbLine
 10
337.3712469063349
 20
458.9498380311286
 30
0.0
 11
337.3712469063349
 21
498.9498380311285
 31
0.0
  0
ARC
  5
79C
330
2
100
AcDbEntity
  8
0
100
AcDbCircle
 10
308.7200929063349
 20
443.9498380311285
 30
0.0
 40
3.0
100
AcDbArc
 50
270.0
 51
345.1243179999998
  0
LINE
  5
79D
330
2
100
AcDbEntity
  8
0
100
AcDbLine
 10
289.1384439063349
 20
465.2173250311285
 30
0.0
 11
289.4763339063349
 21
445.8625580311285
 31
0.0
  0
LINE
  5
79E
330
2
100
AcDbEntity
  8
0
100
AcDbLine
 10
288.9816439063349
 20
456.4498380311285
 30
0.0
 11
283.6212469063349
 21
456.4498380311285
 31
0.0
  0
ARC
  5
79F
330
2
100
AcDbEntity
  8
0
100
AcDbCircle
 10
273.1212469063349
 20
440.9498080311285
 30
0.0
 40
2.5
100
AcDbArc
 50
310.7476269999999
 51
0.0
  0
ARC
  5
7A0
330
2
100
AcDbEntity
  8
0
100
AcDbCircle
 10
273.1212469063349
 20
450.9005830311285
 30
0.0
 40
2.5
100
AcDbArc
 50
271.9999999999995
 51
0.0
  0
ARC
  5
7A1
330
2
100
AcDbEntity
  8
0
100
AcDbCircle
 10
294.4756479063348
 20
445.9498380311286
 30
0.0
 40
5.0
100
AcDbArc
 50
181.0001979999998
 51
270.0
  0
LINE
  5
7A2
330
2
100
AcDbEntity
  8
0
100
AcDbLine
 10
294.8329469063348
 20
439.4891140311285
 30
0.0
 11
294.630233906335
 21
431.7498260311285
 31
0.0
  0
ARC
  5
7A3
330
2
100
AcDbEntity
  8
0
100
AcDbCircle
 10
296.3324289063349
 20
439.4498380311286
 30
0.0
 40
1.5
100
AcDbArc
 50
90.0
 51
178.4996489999996
  0
LINE
  5
7A4
330
2
100
AcDbEntity
  8
0
100
AcDbLine
 10
288.1386419063348
 20
466.1998380311286
 30
0.0
 11
283.6212469063349
 21
466.1998380311286
 31
0.0
  0
LINE
  5
7A5
330
2
100
AcDbEntity
  8
0
100
AcDbLine
 10
278.1212469063349
 20
466.4498380311285
 30
0.0
 11
283.6212469063349
 21
466.4498380311285
 31
0.0
  0
ARC
  5
7A6
330
2
100
AcDbEntity
  8
0
100
AcDbCircle
 10
278.1212469063349
 20
463.9498380311286
 30
0.0
 40
2.5
100
AcDbArc
 50
90.0
 51
180.0
  0
ARC
  5
7A7
330
2
100
AcDbEntity
  8
0
100
AcDbCircle
 10
288.1385499063349
 20
465.1998380311286
 30
0.0
 40
1.0
100
AcDbArc
 50
1.000700000000289
 51
90.0
  0
LINE
  5
7A8
330
2
100
AcDbEntity
  8
0
100
AcDbLine
 10
312.0287019063349
 20
444.7200100311285
 30
0.0
 11
311.6195529063348
 21
443.1796660311285
 31
0.0
  0
ARC
  5
7A9
330
2
100
AcDbEntity
  8
0
100
AcDbCircle
 10
323.1784059063349
 20
453.9498380311285
 30
0.0
 40
3.0
100
AcDbArc
 50
90.0
 51
165.124313
  0
LINE
  5
7AA
330
2
100
AcDbEntity
  8
0
100
AcDbLine
 10
318.2149969063349
 20
446.9498380311286
 30
0.0
 11
320.2789619063348
 21
454.7200100311284
 31
0.0
  0
LINE
  5
7AB
330
2
100
AcDbEntity
  8
0
100
AcDbLine
 10
318.2149969063349
 20
446.9498380311286
 30
0.0
 11
314.9281619063349
 21
446.9498380311286
 31
0.0
  0
ARC
  5
7AC
330
2
100
AcDbEntity
  8
0
100
AcDbCircle
 10
314.9281619063349
 20
443.9498380311285
 30
0.0
 40
3.0
100
AcDbArc
 50
90.0
 51
165.124313
  0
LINE
  5
7AD
330
2
100
AcDbEntity
  8
0
100
AcDbLine
 10
335.8712469063349
 20
456.9498380311285
 30
0.0
 11
335.8712469063349
 21
458.9498380311286
 31
0.0
  0
ARC
  5
7AE
330
2
100
AcDbEntity
  8
0
100
AcDbCircle
 10
618.7590879696333
 20
127.730642677648
 30
0.0
 40
57.5
100
AcDbArc
 50
242.5402980000002
 51
299.4606020000001
  0
ARC
  5
7AF
330
2
100
AcDbEntity
  8
0
100
AcDbCircle
 10
618.7590879696333
 20
127.730642677648
 30
0.0
 40
57.25
100
AcDbArc
 50
243.0048980000003
 51
298.9955140000002
  0
LINE
  5
7B0
330
2
100
AcDbEntity
  8
0
100
AcDbLine
 10
574.6683289696334
 20
100.230642677648
 30
0.0
 11
649.3688899696334
 21
100.230642677648
 31
0.0
  0
LINE
  5
7B1
330
2
100
AcDbEntity
  8
0
100
AcDbLine
 10
577.3159119696333
 20
180.230619677648
 30
0.0
 11
649.6918879696334
 21
180.230619677648
 31
0.0
  0
LINE
  5
7B2
330
2
100
AcDbEntity
  8
0
100
AcDbLine
 10
649.7769099696333
 20
77.71350367764805
 30
0.0
 11
574.7245119696333
 21
76.40318367764805
 31
0.0
  0
LINE
  5
7B3
330
2
100
AcDbEntity
  8
0
100
AcDbLine
 10
649.7769099696333
 20
202.747824677648
 30
0.0
 11
574.7245119696333
 21
204.0575166776481
 31
0.0
  0
LINE
  5
7B4
330
2
100
AcDbEntity
  8
CENTER
100
AcDbLine
 10
515.7595149696333
 20
158.230642677648
 30
0.0
 11
721.7590879696333
 21
158.230642677648
 31
0.0
  0
LINE
  5
7B5
330
2
100
AcDbEntity
  8
CENTER
100
AcDbLine
 10
547.7593019696334
 20
127.730642677648
 30
0.0
 11
689.2590879696333
 21
127.730642677648
 31
0.0
  0
LINE
  5
7B6
330
2
100
AcDbEntity
  8
0
100
AcDbLine
 10
567.7593019696335
 20
147.230642677648
 30
0.0
 11
567.7593019696335
 21
111.135404677648
 31
0.0
  0
LINE
  5
7B8
330
2
100
AcDbEntity
  8
0
100
AcDbLine
 10
560.7593019696334
 20
147.230642677648
 30
0.0
 11
560.7593019696334
 21
68.23062367764805
 31
0.0
  0
LINE
  5
7B9
330
2
100
AcDbEntity
  8
0
100
AcDbLine
 10
400.3713389063348
 20
183.230619677648
 30
0.0
 11
400.3713389063348
 21
97.23064267764806
 31
0.0
  0
LINE
  5
7BA
330
2
100
AcDbEntity
  8
0
100
AcDbLine
 10
405.3713389063349
 20
200.230642677648
 30
0.0
 11
405.3713389063349
 21
80.23062367764806
 31
0.0
  0
LINE
  5
7BB
330
2
100
AcDbEntity
  8
0
100
AcDbLine
 10
378.2597359063349
 20
162.193479677648
 30
0.0
 11
383.9565129063349
 21
119.227972677648
 31
0.0
  0
LINE
  5
7BC
330
2
100
AcDbEntity
  8
0
100
AcDbLine
 10
379.8459169063349
 20
162.403807677648
 30
0.0
 11
385.5425419063349
 21
119.438272677648
 31
0.0
  0
LINE
  5
7BD
330
2
100
AcDbEntity
  8
0
100
AcDbLine
 10
398.3713389063349
 20
162.591307677648
 30
0.0
 11
398.3713389063349
 21
117.869955677648
 31
0.0
  0
ARC
  5
7BE
330
2
100
AcDbEntity
  8
0
100
AcDbCircle
 10
393.3713389063349
 20
80.23062367764806
 30
0.0
 40
12.0
100
AcDbArc
 50
270.0
 51
0.0
  0
ARC
  5
7C0
330
2
100
AcDbEntity
  8
0
100
AcDbCircle
 10
368.3713389063349
 20
117.869970677648
 30
0.0
 40
30.0
100
AcDbArc
 50
311.8105509999999
 51
0.0
  0
ARC
  5
7C1
330
2
100
AcDbEntity
  8
0
100
AcDbCircle
 10
394.3713389063349
 20
97.23064267764806
 30
0.0
 40
6.0
100
AcDbArc
 50
270.0
 51
0.0
  0
ARC
  5
7C2
330
2
100
AcDbEntity
  8
0
100
AcDbCircle
 10
365.1212469063349
 20
116.730646677648
 30
0.0
 40
19.0
100
AcDbArc
 50
270.0
 51
7.552700000000432
  0
ARC
  5
7C3
330
2
100
AcDbEntity
  8
0
100
AcDbCircle
 10
365.1212469063349
 20
116.730646677648
 30
0.0
 40
20.6
100
AcDbArc
 50
270.0
 51
7.552700000000432
  0
ARC
  5
7C4
330
2
100
AcDbEntity
  8
0
100
AcDbCircle
 10
376.3713389063349
 20
79.23062367764805
 30
0.0
 40
6.0
100
AcDbArc
 50
270.0
 51
0.0
  0
ARC
  5
7C5
330
2
100
AcDbEntity
  8
0
100
AcDbCircle
 10
393.3713389063349
 20
80.23062367764806
 30
0.0
 40
11.0
100
AcDbArc
 50
90.0
 51
180.0
  0
LINE
  5
7C6
330
2
100
AcDbEntity
  8
0
100
AcDbLine
 10
382.3713389063349
 20
79.23062367764805
 30
0.0
 11
382.3713389063349
 21
80.23060367764804
 31
0.0
  0
CIRCLE
  5
7C7
330
2
100
AcDbEntity
  8
0
100
AcDbCircle
 10
393.3713389063349
 20
80.23062367764806
 30
0.0
 40
5.5
  0
LINE
  5
7C9
330
2
100
AcDbEntity
  8
0
100
AcDbLine
 10
394.3713389063349
 20
91.23062367764806
 30
0.0
 11
393.3713389063349
 21
91.23062367764806
 31
0.0
  0
ARC
  5
7CA
330
2
100
AcDbEntity
  8
0
100
AcDbCircle
 10
361.1680609063349
 20
114.027521677648
 30
0.0
 40
1.954124
100
AcDbArc
 50
277.4147259999995
 51
62.41185000000021
  0
ARC
  5
7CB
330
2
100
AcDbEntity
  8
0
100
AcDbCircle
 10
361.1680609063349
 20
114.027521677648
 30
0.0
 40
3.203125999999999
100
AcDbArc
 50
286.0181269999995
 51
90.00350999999964
  0
LINE
  5
7CC
330
2
100
AcDbEntity
  8
0
100
AcDbLine
 10
358.8868419063349
 20
106.480642677648
 30
0.0
 11
358.8868419063349
 21
105.230642677648
 31
0.0
  0
LINE
  5
7CD
330
2
100
AcDbEntity
  8
0
100
AcDbLine
 10
362.5274359063349
 20
106.480642677648
 30
0.0
 11
362.5274359063349
 21
105.230642677648
 31
0.0
  0
LINE
  5
7CE
330
2
100
AcDbEntity
  8
0
100
AcDbLine
 10
362.5274359063349
 20
105.230642677648
 30
0.0
 11
364.3712469063349
 21
105.230642677648
 31
0.0
  0
LINE
  5
7CF
330
2
100
AcDbEntity
  8
0
100
AcDbLine
 10
362.5274359063349
 20
106.480642677648
 30
0.0
 11
362.7766429063349
 21
106.480642677648
 31
0.0
  0
LINE
  5
7D0
330
2
100
AcDbEntity
  8
0
100
AcDbLine
 10
360.9004829063349
 20
110.840021677648
 30
0.0
 11
362.7766429063349
 21
106.480642677648
 31
0.0
  0
LINE
  5
7D1
330
2
100
AcDbEntity
  8
0
100
AcDbLine
 10
362.0520329063349
 20
110.948755677648
 30
0.0
 11
364.0344549063349
 21
106.480642677648
 31
0.0
  0
LINE
  5
7D2
330
2
100
AcDbEntity
  8
0
100
AcDbLine
 10
572.7593019696334
 20
70.23066367764807
 30
0.0
 11
572.7593019696334
 21
116.105642677648
 31
0.0
  0
LINE
  5
7D3
330
2
100
AcDbEntity
  8
CENTER
100
AcDbLine
 10
553.7593019696335
 20
80.23062367764802
 30
0.0
 11
579.7593019696335
 21
80.23062367764806
 31
0.0
  0
ARC
  5
7D4
330
2
100
AcDbEntity
  8
0
100
AcDbCircle
 10
577.2629029696333
 20
73.44702367764805
 30
0.0
 40
3.0
100
AcDbArc
 50
91.00052599999987
 51
165.0003050000002
  0
LINE
  5
7D5
330
2
100
AcDbEntity
  8
HIDS
  6
SEKKEI_H
100
AcDbLine
 10
560.7593019696334
 20
74.73062367764805
 30
0.0
 11
572.7593019696334
 21
74.73062367764805
 31
0.0
  0
LINE
  5
7D6
330
2
100
AcDbEntity
  8
0
100
AcDbLine
 10
570.8411189696334
 20
68.23066367764806
 30
0.0
 11
560.7593019696334
 21
68.23066367764806
 31
0.0
  0
LINE
  5
7D7
330
2
100
AcDbEntity
  8
0
100
AcDbLine
 10
573.2559139696333
 20
70.08362367764807
 30
0.0
 11
574.3651059696333
 21
74.22346367764806
 31
0.0
  0
ARC
  5
7D8
330
2
100
AcDbEntity
  8
0
100
AcDbCircle
 10
570.8411189696334
 20
70.73066367764806
 30
0.0
 40
2.5
100
AcDbArc
 50
270.0
 51
345.000214
  0
ARC
  5
7D9
330
2
100
AcDbEntity
  8
0
100
AcDbCircle
 10
570.7593019696335
 20
70.23066367764807
 30
0.0
 40
2.0
100
AcDbArc
 50
270.0
 51
0.0
  0
ARC
  5
7DA
330
2
100
AcDbEntity
  8
0
100
AcDbCircle
 10
574.7593019696335
 20
74.40350367764804
 30
0.0
 40
2.0
100
AcDbArc
 50
91.00063300000034
 51
180.0
  0
LINE
  5
7DB
330
2
100
AcDbEntity
  8
HIDS
  6
SEKKEI_H
100
AcDbLine
 10
560.7593019696334
 20
85.73062367764805
 30
0.0
 11
572.7593019696334
 21
85.73062367764805
 31
0.0
  0
ARC
  5
7E3
330
2
100
AcDbEntity
  8
0
100
AcDbCircle
 10
393.3713389063349
 20
200.230642677648
 30
0.0
 40
11.0
100
AcDbArc
 50
180.0
 51
270.0
  0
LINE
  5
7E5
330
2
100
AcDbEntity
  8
0
100
AcDbLine
 10
361.8712469063349
 20
155.230604677648
 30
0.0
 11
361.8712469063349
 21
161.230604677648
 31
0.0
  0
ARC
  5
7E6
330
2
100
AcDbEntity
  8
0
100
AcDbCircle
 10
368.3713389063349
 20
162.591307677648
 30
0.0
 40
30.0
100
AcDbArc
 50
0.0
 51
48.18962899999986
  0
ARC
  5
7E7
330
2
100
AcDbEntity
  8
0
100
AcDbCircle
 10
394.3713389063349
 20
183.230619677648
 30
0.0
 40
6.0
100
AcDbArc
 50
0.0
 51
90.0
  0
LINE
  5
7E8
330
2
100
AcDbEntity
  8
0
100
AcDbLine
 10
394.3713389063349
 20
189.230619677648
 30
0.0
 11
393.3713389063349
 21
189.230619677648
 31
0.0
  0
ARC
  5
7E9
330
2
100
AcDbEntity
  8
0
100
AcDbCircle
 10
393.3713389063349
 20
200.230642677648
 30
0.0
 40
12.0
100
AcDbArc
 50
0.0
 51
90.0
  0
ARC
  5
7EB
330
2
100
AcDbEntity
  8
0
100
AcDbCircle
 10
376.3713389063349
 20
201.230642677648
 30
0.0
 40
6.0
100
AcDbArc
 50
0.0
 51
90.0
  0
LINE
  5
7EC
330
2
100
AcDbEntity
  8
0
100
AcDbLine
 10
382.3713389063349
 20
201.230642677648
 30
0.0
 11
382.3713389063349
 21
200.2305966776479
 31
0.0
  0
CIRCLE
  5
7ED
330
2
100
AcDbEntity
  8
0
100
AcDbCircle
 10
393.3713389063349
 20
200.230642677648
 30
0.0
 40
5.5
  0
LINE
  5
7EE
330
2
100
AcDbEntity
  8
0
100
AcDbLine
 10
560.7593019696334
 20
212.230642677648
 30
0.0
 11
560.7593019696334
 21
169.230619677648
 31
0.0
  0
LINE
  5
7EF
330
2
100
AcDbEntity
  8
0
100
AcDbLine
 10
572.7593019696334
 20
188.480619677648
 30
0.0
 11
572.7593019696334
 21
210.230642677648
 31
0.0
  0
LINE
  5
7F0
330
2
100
AcDbEntity
  8
0
100
AcDbLine
 10
560.7595149696334
 20
155.230642677648
 30
0.0
 11
528.7595149696334
 21
155.230642677648
 31
0.0
  0
LINE
  5
7F1
330
2
100
AcDbEntity
  8
0
100
AcDbLine
 10
560.7595149696334
 20
161.230619677648
 30
0.0
 11
528.7595149696334
 21
161.230619677648
 31
0.0
  0
LINE
  5
7F2
330
2
100
AcDbEntity
  8
0
100
AcDbLine
 10
568.7595149696334
 20
147.230642677648
 30
0.0
 11
528.7595149696334
 21
147.230642677648
 31
0.0
  0
LINE
  5
7F3
330
2
100
AcDbEntity
  8
0
100
AcDbLine
 10
568.7595149696334
 20
169.230619677648
 30
0.0
 11
528.7595149696334
 21
169.230619677648
 31
0.0
  0
LINE
  5
7F4
330
2
100
AcDbEntity
  8
0
100
AcDbLine
 10
528.7595149696334
 20
147.230642677648
 30
0.0
 11
528.7595149696334
 21
169.230619677648
 31
0.0
  0
ARC
  5
7F5
330
2
100
AcDbEntity
  8
0
100
AcDbCircle
 10
560.7595149696334
 20
158.230642677648
 30
0.0
 40
3.0
100
AcDbArc
 50
270.0
 51
90.0
  0
LINE
  5
7F6
330
2
100
AcDbEntity
  8
0
100
AcDbLine
 10
568.7595149696334
 20
170.730619677648
 30
0.0
 11
568.7595149696334
 21
145.730642677648
 31
0.0
  0
LINE
  5
7F8
330
2
100
AcDbEntity
  8
0
100
AcDbLine
 10
570.7593019696335
 20
133.037790677648
 30
0.0
 11
570.7593019696335
 21
183.423483677648
 31
0.0
  0
ARC
  5
7FA
330
2
100
AcDbEntity
  8
0
100
AcDbCircle
 10
573.7593019696334
 20
133.037809677648
 30
0.0
 40
3.0
100
AcDbArc
 50
180.0
 51
255.124603
  0
LINE
  5
7FC
330
2
100
AcDbEntity
  8
0
100
AcDbLine
 10
572.9893129696334
 20
130.138334677648
 30
0.0
 11
575.7905209696333
 21
129.394251677648
 31
0.0
  0
LINE
  5
7FD
330
2
100
AcDbEntity
  8
0
100
AcDbLine
 10
570.7595149696333
 20
145.730642677648
 30
0.0
 11
568.7595149696334
 21
145.730642677648
 31
0.0
  0
LINE
  5
802
330
2
100
AcDbEntity
  8
0
100
AcDbLine
 10
567.7593019696335
 20
190.824400677648
 30
0.0
 11
567.7593019696335
 21
169.230619677648
 31
0.0
  0
LINE
  5
803
330
2
100
AcDbEntity
  8
0
100
AcDbLine
 10
570.7595149696333
 20
170.730619677648
 30
0.0
 11
568.7595149696334
 21
170.730619677648
 31
0.0
  0
ARC
  5
806
330
2
100
AcDbEntity
  8
0
100
AcDbCircle
 10
573.7595149696334
 20
183.423483677648
 30
0.0
 40
3.0
100
AcDbArc
 50
104.8760990000001
 51
180.0
  0
LINE
  5
80A
330
2
100
AcDbEntity
  8
0
100
AcDbLine
 10
572.9893129696334
 20
186.322920677648
 30
0.0
 11
574.8129209696332
 21
186.807363677648
 31
0.0
  0
LINE
  5
80E
330
2
100
AcDbEntity
  8
CENTER
100
AcDbLine
 10
553.7593019696335
 20
200.2306426776481
 30
0.0
 11
579.7593019696336
 21
200.2306426776481
 31
0.0
  0
ARC
  5
80F
330
2
100
AcDbEntity
  8
0
100
AcDbCircle
 10
577.2631159696334
 20
207.013723677648
 30
0.0
 40
3.0
100
AcDbArc
 50
195.0007019999996
 51
269.0004879999996
  0
LINE
  5
810
330
2
100
AcDbEntity
  8
0
100
AcDbLine
 10
573.2559139696333
 20
210.377722677648
 30
0.0
 11
574.3653199696334
 21
206.237203677648
 31
0.0
  0
LINE
  5
811
330
2
100
AcDbEntity
  8
HIDS
  6
SEKKEI_H
100
AcDbLine
 10
560.7593019696334
 20
194.730642677648
 30
0.0
 11
572.7593019696334
 21
194.730642677648
 31
0.0
  0
LINE
  5
812
330
2
100
AcDbEntity
  8
HIDS
  6
SEKKEI_H
100
AcDbLine
 10
560.7593019696334
 20
205.730642677648
 30
0.0
 11
572.7593019696334
 21
205.730642677648
 31
0.0
  0
ARC
  5
813
330
2
100
AcDbEntity
  8
0
100
AcDbCircle
 10
574.7593019696335
 20
206.057241677648
 30
0.0
 40
2.0
100
AcDbArc
 50
180.0
 51
269.0006099999996
  0
LINE
  5
814
330
2
100
AcDbEntity
  8
0
100
AcDbLine
 10
570.8411189696334
 20
212.230642677648
 30
0.0
 11
560.7593019696334
 21
212.230642677648
 31
0.0
  0
ARC
  5
815
330
2
100
AcDbEntity
  8
0
100
AcDbCircle
 10
570.8411189696334
 20
209.730642677648
 30
0.0
 40
2.5
100
AcDbArc
 50
15.00076000000037
 51
90.0
  0
ARC
  5
816
330
2
100
AcDbEntity
  8
0
100
AcDbCircle
 10
570.7593019696335
 20
210.230642677648
 30
0.0
 40
2.0
100
AcDbArc
 50
0.0
 51
90.0
  0
ARC
  5
817
330
2
100
AcDbEntity
  8
0
100
AcDbCircle
 10
618.7590879696333
 20
127.730642677648
 30
0.0
 40
57.5
100
AcDbArc
 50
326.0032309999999
 51
19.82389100000008
  0
ARC
  5
818
330
2
100
AcDbEntity
  8
0
100
AcDbCircle
 10
618.7590879696333
 20
127.730642677648
 30
0.0
 40
57.25
100
AcDbArc
 50
327.4981120000001
 51
19.91411000000002
  0
ARC
  5
819
330
2
100
AcDbEntity
  8
0
100
AcDbCircle
 10
659.7590879696333
 20
125.767248677648
 30
0.0
 40
3.0
100
AcDbArc
 50
104.8760990000001
 51
180.0
  0
LINE
  5
81A
330
2
100
AcDbEntity
  8
0
100
AcDbLine
 10
656.7590879696333
 20
100.035482677648
 30
0.0
 11
656.7590879696333
 21
160.300627677648
 31
0.0
  0
LINE
  5
81B
330
2
100
AcDbEntity
  8
0
100
AcDbLine
 10
650.7590879696333
 20
78.71332367764805
 30
0.0
 11
650.7590879696333
 21
201.747961677648
 31
0.0
  0
LINE
  5
81C
330
2
100
AcDbEntity
  8
CENTER
100
AcDbLine
 10
618.7590879696333
 20
57.23064267764806
 30
0.0
 11
618.7590879696333
 21
216.2890971008266
 31
0.0
  0
ARC
  5
81D
330
2
100
AcDbEntity
  8
0
100
AcDbCircle
 10
671.2590879696334
 20
94.28198267764804
 30
0.0
 40
5.0
100
AcDbArc
 50
147.4980929999996
 51
180.0
  0
ARC
  5
81E
330
2
100
AcDbEntity
  8
0
100
AcDbCircle
 10
653.7590879696333
 20
93.82580467764805
 30
0.0
 40
3.0
100
AcDbArc
 50
104.9318009999999
 51
180.0
  0
ARC
  5
81F
330
2
100
AcDbEntity
  8
0
100
AcDbCircle
 10
661.2590879696333
 20
85.23062367764806
 30
0.0
 40
5.0
100
AcDbArc
 50
270.0
 51
0.0
  0
ARC
  5
820
330
2
100
AcDbEntity
  8
0
100
AcDbCircle
 10
649.7590879696333
 20
78.71332367764805
 30
0.0
 40
1.0
100
AcDbArc
 50
271.000427
 51
0.0
  0
LINE
  5
821
330
2
100
AcDbEntity
  8
0
100
AcDbLine
 10
661.2590879696333
 20
80.23062367764806
 30
0.0
 11
652.2081239696334
 21
80.23062367764806
 31
0.0
  0
ARC
  5
822
330
2
100
AcDbEntity
  8
0
100
AcDbCircle
 10
618.7590879696333
 20
127.730642677648
 30
0.0
 40
57.5
100
AcDbArc
 50
303.8156129999999
 51
303.997314
  0
ARC
  5
823
330
2
100
AcDbEntity
  8
0
100
AcDbCircle
 10
618.7590879696333
 20
127.730642677648
 30
0.0
 40
57.499821
100
AcDbArc
 50
303.8157039999997
 51
303.9963069999998
  0
ARC
  5
824
330
2
100
AcDbEntity
  8
0
100
AcDbCircle
 10
652.2081239696334
 20
75.23062367764805
 30
0.0
 40
5.0
100
AcDbArc
 50
90.0
 51
106.8420029999997
  0
LINE
  5
825
330
2
100
AcDbEntity
  8
0
100
AcDbLine
 10
666.2590879696333
 20
85.23062367764806
 30
0.0
 11
666.2590879696333
 21
94.28198267764804
 31
0.0
  0
ARC
  5
826
330
2
100
AcDbEntity
  8
0
100
AcDbCircle
 10
653.7590879696333
 20
100.035482677648
 30
0.0
 40
3.0
100
AcDbArc
 50
284.9315800000002
 51
0.0
  0
LINE
  5
827
330
2
100
AcDbEntity
  8
0
100
AcDbLine
 10
654.5323419696334
 20
97.13680367764807
 30
0.0
 11
652.9863219696334
 21
96.72450267764805
 31
0.0
  0
LINE
  5
828
330
2
100
AcDbEntity
  8
0
100
AcDbLine
 10
676.7590879696333
 20
155.230642677648
 30
0.0
 11
708.7590879696334
 21
155.230642677648
 31
0.0
  0
LINE
  5
829
330
2
100
AcDbEntity
  8
0
100
AcDbLine
 10
676.7590879696333
 20
161.230619677648
 30
0.0
 11
708.7590879696334
 21
161.230619677648
 31
0.0
  0
LINE
  5
82A
330
2
100
AcDbEntity
  8
0
100
AcDbLine
 10
668.7590879696333
 20
147.230642677648
 30
0.0
 11
708.7590879696334
 21
147.230642677648
 31
0.0
  0
LINE
  5
82B
330
2
100
AcDbEntity
  8
0
100
AcDbLine
 10
668.7590879696333
 20
169.230619677648
 30
0.0
 11
708.7590879696334
 21
169.230619677648
 31
0.0
  0
ARC
  5
82C
330
2
100
AcDbEntity
  8
0
100
AcDbCircle
 10
676.7590879696333
 20
158.230642677648
 30
0.0
 40
3.0
100
AcDbArc
 50
90.0
 51
270.0
  0
LINE
  5
82D
330
2
100
AcDbEntity
  8
0
100
AcDbLine
 10
668.7590879696333
 20
170.730619677648
 30
0.0
 11
668.7590879696333
 21
145.730642677648
 31
0.0
  0
LINE
  5
82E
330
2
100
AcDbEntity
  8
0
100
AcDbLine
 10
666.7590879696334
 20
133.037794677648
 30
0.0
 11
666.7590879696334
 21
183.423483677648
 31
0.0
  0
LINE
  5
82F
330
2
100
AcDbEntity
  8
0
100
AcDbLine
 10
664.5295349696334
 20
130.138346677648
 30
0.0
 11
658.9888849696334
 21
128.666689677648
 31
0.0
  0
ARC
  5
830
330
2
100
AcDbEntity
  8
0
100
AcDbCircle
 10
663.7590879696333
 20
133.037794677648
 30
0.0
 40
3.0
100
AcDbArc
 50
284.8757930000001
 51
0.0
  0
LINE
  5
831
330
2
100
AcDbEntity
  8
0
100
AcDbLine
 10
666.7590879696334
 20
145.730642677648
 30
0.0
 11
668.7590879696333
 21
145.730642677648
 31
0.0
  0
LINE
  5
832
330
2
100
AcDbEntity
  8
0
100
AcDbLine
 10
666.7590879696334
 20
170.730619677648
 30
0.0
 11
668.7590879696333
 21
170.730619677648
 31
0.0
  0
LINE
  5
833
330
2
100
AcDbEntity
  8
0
100
AcDbLine
 10
664.5295349696334
 20
186.322920677648
 30
0.0
 11
652.9893129696334
 21
189.388326677648
 31
0.0
  0
ARC
  5
834
330
2
100
AcDbEntity
  8
0
100
AcDbCircle
 10
653.7590879696333
 20
192.287802677648
 30
0.0
 40
3.0
100
AcDbArc
 50
180.0
 51
255.124603
  0
ARC
  5
835
330
2
100
AcDbEntity
  8
0
100
AcDbCircle
 10
663.7590879696333
 20
183.423483677648
 30
0.0
 40
3.0
100
AcDbArc
 50
0.0
 51
75.12441300000024
  0
ARC
  5
836
330
2
100
AcDbEntity
  8
0
100
AcDbCircle
 10
649.7590879696333
 20
201.747961677648
 30
0.0
 40
1.0
100
AcDbArc
 50
0.0
 51
89.00035899999958
  0
LINE
  5
837
330
2
100
AcDbEntity
  8
0
100
AcDbLine
 10
708.7590879696334
 20
147.230642677648
 30
0.0
 11
708.7590879696334
 21
169.230619677648
 31
0.0
  0
LINE
  5
838
330
2
100
AcDbEntity
  8
0
100
AcDbLine
 10
401.9095469063349
 20
439.4891450311285
 30
0.0
 11
403.8932499063348
 21
363.7521300311285
 31
0.0
  0
LINE
  5
839
330
2
100
AcDbEntity
  8
0
100
AcDbLine
 10
368.3712469063349
 20
440.9498380311285
 30
0.0
 11
368.3712469063349
 21
363.7521300311285
 31
0.0
  0
LINE
  5
83A
330
2
100
AcDbEntity
  8
HIDS
  6
SEKKEI_H
100
AcDbLine
 10
398.8713389063349
 20
362.9498380311285
 30
0.0
 11
398.8713389063349
 21
350.9498380311285
 31
0.0
  0
LINE
  5
83B
330
2
100
AcDbEntity
  8
CENTER
100
AcDbLine
 10
393.3713389063349
 20
369.9498380311286
 30
0.0
 11
393.3713389063349
 21
343.9498380311285
 31
0.0
  0
LINE
  5
83C
330
2
100
AcDbEntity
  8
HIDS
  6
SEKKEI_H
100
AcDbLine
 10
387.8713389063349
 20
362.9498380311285
 30
0.0
 11
387.8713389063349
 21
350.9498380311285
 31
0.0
  0
ARC
  5
83D
330
2
100
AcDbEntity
  8
0
100
AcDbCircle
 10
404.0827339063349
 20
361.9498380311286
 30
0.0
 40
1.0
100
AcDbArc
 50
1.500099999999759
 51
90.0
  0
LINE
  5
83E
330
2
100
AcDbEntity
  8
0
100
AcDbLine
 10
358.9542549063349
 20
318.9498380311285
 30
0.0
 11
358.9542549063349
 21
350.9498380311285
 31
0.0
  0
LINE
  5
83F
330
2
100
AcDbEntity
  8
0
100
AcDbLine
 10
361.8712469063349
 20
350.9498380311285
 30
0.0
 11
361.8712469063349
 21
318.9498380311285
 31
0.0
  0
LINE
  5
840
330
2
100
AcDbEntity
  8
0
100
AcDbLine
 10
405.3712469063349
 20
350.9498380311285
 30
0.0
 11
405.0824589063349
 21
361.9760380311286
 31
0.0
  0
ARC
  5
841
330
2
100
AcDbEntity
  8
0
100
AcDbCircle
 10
404.8926399063349
 20
363.7783290311285
 30
0.0
 40
1.0
100
AcDbArc
 50
181.500397
 51
246.1088030000002
  0
LINE
  5
843
330
2
100
AcDbEntity
  8
0
100
AcDbLine
 10
358.9542549063349
 20
498.9498380311285
 30
0.0
 11
358.9542549063349
 21
463.9498380311286
 31
0.0
  0
LINE
  5
844
330
2
100
AcDbEntity
  8
0
100
AcDbLine
 10
361.8712469063349
 20
463.9498380311286
 30
0.0
 11
361.8712469063349
 21
498.9498380311285
 31
0.0
  0
LINE
  5
845
330
2
100
AcDbEntity
  8
0
100
AcDbLine
 10
359.3712469063349
 20
458.9498380311286
 30
0.0
 11
359.3712469063349
 21
463.9498380311286
 31
0.0
  0
ARC
  5
846
330
2
100
AcDbEntity
  8
0
100
AcDbCircle
 10
381.8143319063349
 20
443.9498380311285
 30
0.0
 40
3.0
100
AcDbArc
 50
14.87567100000014
 51
90.0
  0
LINE
  5
847
330
2
100
AcDbEntity
  8
0
100
AcDbLine
 10
360.8712469063349
 20
456.9498380311285
 30
0.0
 11
360.8712469063349
 21
458.9498380311286
 31
0.0
  0
LINE
  5
848
330
2
100
AcDbEntity
  8
0
100
AcDbLine
 10
378.5274969063349
 20
446.9498380311286
 30
0.0
 11
376.4635629063349
 21
454.7200100311284
 31
0.0
  0
LINE
  5
849
330
2
100
AcDbEntity
  8
0
100
AcDbLine
 10
378.5274969063349
 20
446.9498380311286
 30
0.0
 11
381.8143319063349
 21
446.9498380311286
 31
0.0
  0
ARC
  5
84A
330
2
100
AcDbEntity
  8
0
100
AcDbCircle
 10
373.5640879063349
 20
453.9498380311285
 30
0.0
 40
3.0
100
AcDbArc
 50
14.87567100000014
 51
90.0
  0
LINE
  5
84B
330
2
100
AcDbEntity
  8
0
100
AcDbLine
 10
384.7138069063349
 20
444.7200100311285
 30
0.0
 11
385.1229559063349
 21
443.1796660311285
 31
0.0
  0
ARC
  5
84C
330
2
100
AcDbEntity
  8
0
100
AcDbCircle
 10
388.0224009063348
 20
443.9498380311285
 30
0.0
 40
3.0
100
AcDbArc
 50
194.8756869999999
 51
270.0
  0
ARC
  5
84D
330
2
100
AcDbEntity
  8
0
100
AcDbCircle
 10
400.4099429063349
 20
439.4498380311286
 30
0.0
 40
1.5
100
AcDbArc
 50
1.500199999999734
 51
90.0
  0
LINE
  5
84E
330
2
100
AcDbEntity
  8
0
100
AcDbLine
 10
358.9542549063349
 20
463.9498380311286
 30
0.0
 11
361.8712469063349
 21
463.9498380311286
 31
0.0
  0
LWPOLYLINE
  5
8FA
330
2
100
AcDbEntity
  8
HOJO
100
AcDbPolyline
 90
       22
 70
     0
 43
0.0
 10
560.7593019696334
 20
192.605642677648
 10
563.7593019696335
 20
191.605619677648
 10
570.6343019696334
 20
190.105619677648
 10
576.1343019696335
 20
185.730619677648
 10
576.6343019696335
 20
181.855619677648
 10
578.2593019696334
 20
177.980619677648
 10
579.7593019696335
 20
171.730619677648
 10
578.7593019696335
 20
166.230619677648
 10
581.0093019696335
 20
160.480619677648
 10
579.2593019696335
 20
154.730642677648
 10
577.2593019696334
 20
149.730642677648
 10
577.7593019696334
 20
140.980642677648
 10
576.5093019696335
 20
136.480642677648
 10
576.5093019696335
 20
131.730642677648
 10
574.5093019696335
 20
125.230642677648
 10
574.7593019696335
 20
121.230642677648
 10
573.7593019696334
 20
116.855642677648
 10
570.2593019696335
 20
114.230642677648
 10
567.6343019696335
 20
110.980646677648
 10
564.7593019696334
 20
109.230646677648
 10
562.3843019696335
 20
107.105642677648
 10
560.7593019696334
 20
106.734224677648
  0
LINE
  5
903
330
2
100
AcDbEntity
  8
CENTER
100
AcDbLine
 10
384.4650579063349
 20
200.230642677648
 30
0.0
 11
402.2776199063349
 21
200.230642677648
 31
0.0
  0
LINE
  5
904
330
2
100
AcDbEntity
  8
CENTER
100
AcDbLine
 10
393.3713389063349
 20
209.136923677648
 30
0.0
 11
393.3713389063349
 21
191.324361677648
 31
0.0
  0
LINE
  5
905
330
2
100
AcDbEntity
  8
CENTER
100
AcDbLine
 10
384.4650579063349
 20
80.23062367764806
 30
0.0
 11
402.2776199063349
 21
80.23062367764806
 31
0.0
  0
LINE
  5
906
330
2
100
AcDbEntity
  8
CENTER
100
AcDbLine
 10
393.3713389063349
 20
89.13690467764803
 30
0.0
 11
393.3713389063349
 21
71.32434267764807
 31
0.0
  0
LINE
  5
907
330
2
100
AcDbEntity
  8
CENTER
100
AcDbLine
 10
294.4648899063349
 20
80.23062367764806
 30
0.0
 11
312.2774519063348
 21
80.23062367764806
 31
0.0
  0
LINE
  5
908
330
2
100
AcDbEntity
  8
CENTER
100
AcDbLine
 10
303.3711709063349
 20
89.13690467764803
 30
0.0
 11
303.3711709063349
 21
71.32434267764807
 31
0.0
  0
TEXT
  5
922
330
2
100
AcDbEntity
  8
TITLE
100
AcDbText
 10
448.5575604123566
 20
444.3695374635479
 30
0.0
 40
7.0
  1
HFMN-22T-300~1800-T15K
 41
0.8
100
AcDbText
  0
TEXT
  5
923
330
2
100
AcDbEntity
  8
TITLE
100
AcDbText
 10
448.5575604123566
 20
433.1695374635479
 30
0.0
 40
7.0
  1
HFMN-22T-300~1800-T15WK
 41
0.8
100
AcDbText
  0
TEXT
  5
924
330
2
100
AcDbEntity
  8
TITLE
100
AcDbText
 10
448.5575604123566
 20
421.9695374635479
 30
0.0
 40
7.0
  1
HFMN-22T-300~900-T25K
 41
0.8
100
AcDbText
  0
TEXT
  5
925
330
2
100
AcDbEntity
  8
TITLE
100
AcDbText
 10
448.5575604123566
 20
410.7695374635479
 30
0.0
 40
7.0
  1
HFMN-22T-300~900-T25WK
 41
0.8
100
AcDbText
  0
TEXT
  5
926
330
2
100
AcDbEntity
  8
TITLE
100
AcDbText
 10
448.5575604123566
 20
399.5695374635479
 30
0.0
 40
7.0
  1
HFMN-22T-300~450-T40K
 41
0.8
100
AcDbText
  0
TEXT
  5
927
330
2
100
AcDbEntity
  8
TITLE
100
AcDbText
 10
448.5575604123566
 20
388.3695374635479
 30
0.0
 40
7.0
  1
HFMN-22T-300~450-T40WK
 41
0.8
100
AcDbText
  0
TEXT
  5
928
330
2
100
AcDbEntity
  8
TITLE
100
AcDbText
 10
448.5575604123566
 20
377.1695374635479
 30
0.0
 40
7.0
  1
HFMN-22T-300~450-T60K
 41
0.8
100
AcDbText
  0
TEXT
  5
929
330
2
100
AcDbEntity
  8
TITLE
100
AcDbText
 10
448.5575604123566
 20
365.9695374635479
 30
0.0
 40
7.0
  1
HFMN-22T-300~450-T60WK
 41
0.8
100
AcDbText
  0
TEXT
  5
92A
330
2
100
AcDbEntity
  8
TITLE
100
AcDbText
 10
586.6948144424816
 20
410.7695374635479
 30
0.0
 40
7.0
  1
HFMN-22T-300~900-S25WK
 41
0.8
100
AcDbText
  0
TEXT
  5
92B
330
2
100
AcDbEntity
  8
TITLE
100
AcDbText
 10
586.6948144424816
 20
399.5695374635479
 30
0.0
 40
7.0
  1
HFMN-22T-300~450-S40K
 41
0.8
100
AcDbText
  0
TEXT
  5
92C
330
2
100
AcDbEntity
  8
TITLE
100
AcDbText
 10
586.6948144424816
 20
388.3695374635479
 30
0.0
 40
7.0
  1
HFMN-22T-300~450-S40WK
 41
0.8
100
AcDbText
  0
TEXT
  5
92D
330
2
100
AcDbEntity
  8
TITLE
100
AcDbText
 10
586.6948144424816
 20
377.1695374635479
 30
0.0
 40
7.0
  1
HFMN-22T-300~450-S60K
 41
0.8
100
AcDbText
  0
TEXT
  5
92E
330
2
100
AcDbEntity
  8
TITLE
100
AcDbText
 10
586.6948144424816
 20
365.9695374635479
 30
0.0
 40
7.0
  1
HFMN-22T-300~450-S60WK
 41
0.8
100
AcDbText
  0
TEXT
  5
92F
330
2
100
AcDbEntity
  8
TITLE
100
AcDbText
 10
586.6948144424816
 20
433.1695374635479
 30
0.0
 40
7.0
  1
HFMN-22T-300~1800-S15WK
 41
0.8
100
AcDbText
  0
TEXT
  5
930
330
2
100
AcDbEntity
  8
TITLE
100
AcDbText
 10
586.6948144424816
 20
444.3695374635479
 30
0.0
 40
7.0
  1
HFMN-22T-300~1800-S15K
 41
0.8
100
AcDbText
  0
TEXT
  5
931
330
2
100
AcDbEntity
  8
TITLE
100
AcDbText
 10
586.6948144424816
 20
421.9695374635479
 30
0.0
 40
7.0
  1
HFMN-22T-300~900-S25K
 41
0.8
100
AcDbText
  0
LINE
  5
12E9
330
2
100
AcDbEntity
  8
CENTER
100
AcDbLine
 10
215.4093596120618
 20
127.730646677648
 30
0.0
 11
300.5788700034776
 21
127.730646677648
 31
0.0
  0
LINE
  5
1B77
330
2
100
AcDbEntity
  8
0
100
AcDbLine
 10
156.6210489063349
 20
426.4498380311286
 30
0.0
 11
156.6210489063349
 21
391.4498380311286
 31
0.0
  0
LINE
  5
1B78
330
2
100
AcDbEntity
  8
0
100
AcDbLine
 10
110.6211399063349
 20
426.4498380311286
 30
0.0
 11
110.6211399063349
 21
391.4498380311286
 31
0.0
  0
LINE
  5
1B79
330
2
100
AcDbEntity
  8
0
100
AcDbLine
 10
108.6211399063349
 20
385.9498380311285
 30
0.0
 11
108.6211399063349
 21
431.9498380311285
 31
0.0
  0
LINE
  5
1B7A
330
2
100
AcDbEntity
  8
0
100
AcDbLine
 10
158.6212469063349
 20
431.9498380311285
 30
0.0
 11
158.6210489063349
 21
385.9498380311285
 31
0.0
  0
LINE
  5
1B7B
330
2
100
AcDbEntity
  8
CENTER
100
AcDbLine
 10
133.6212469063349
 20
373.9062310499201
 30
0.0
 11
133.6212469063349
 21
443.993445012337
 31
0.0
  0
LINE
  5
1B7F
330
2
100
AcDbEntity
  8
CENTER
100
AcDbLine
 10
133.6212469063349
 20
144.8411236776481
 30
0.0
 11
133.6212469063349
 21
211.618134677648
 31
0.0
  0
SPLINE
  5
1B80
330
2
100
AcDbEntity
  8
0
100
AcDbSpline
210
0.0
220
0.0
230
1.0
 70
     8
 71
     3
 72
    11
 73
     7
 74
     0
 42
0.0000000001
 43
0.0000000001
 40
0.0
 40
0.0
 40
0.0
 40
0.0
 40
0.4601364636755307
 40
1.04988694485363
 40
1.713742833862792
 40
2.320347933405154
 40
2.320347933405154
 40
2.320347933405154
 40
2.320347933405179
 10
154.83374690588
 20
199.8136346776481
 30
0.0
 10
154.8113292487721
 20
199.9686581173279
 30
0.0
 10
154.7601791935388
 20
200.3223729352455
 30
0.0
 10
154.3242940320052
 20
200.7471006068472
 30
0.0
 10
153.7192433169979
 20
200.966287786813
 30
0.0
 10
153.2940586928219
 20
200.8972964872024
 30
0.0
 10
153.091507083171
 20
200.8830762150257
 30
0.0
  0
SPLINE
  5
1B81
330
2
100
AcDbEntity
  8
0
100
AcDbSpline
210
0.0
220
0.0
230
1.0
 70
     8
 71
     3
 72
    11
 73
     7
 74
     0
 42
0.0000000001
 43
0.0000000001
 40
0.0
 40
0.0
 40
0.0
 40
0.0
 40
0.4601364636755307
 40
1.04988694485363
 40
1.713742833862792
 40
2.320347933405154
 40
2.320347933405154
 40
2.320347933405154
 40
2.320347933405179
 10
155.40874690679
 20
199.8136346776481
 30
0.0
 10
155.4311645638979
 20
199.9686581173279
 30
0.0
 10
155.4823146191312
 20
200.3223729352455
 30
0.0
 10
155.9181997806648
 20
200.7471006068472
 30
0.0
 10
156.5232504956721
 20
200.966287786813
 30
0.0
 10
156.9484351198481
 20
200.8972964872024
 30
0.0
 10
157.1509867294991
 20
200.8830762150257
 30
0.0
  0
ARC
  5
1B82
330
2
100
AcDbEntity
  8
0
100
AcDbCircle
 10
157.2282576599278
 20
199.7367474018944
 30
0.0
 40
1.3
100
AcDbArc
 50
5.000000000000026
 51
74.1191499917157
  0
LINE
  5
1B83
330
2
100
AcDbEntity
  8
0
100
AcDbLine
 10
158.6212469063349
 20
200.230634677648
 30
0.0
 11
158.6212469063349
 21
158.230619677648
 31
0.0
  0
LINE
  5
1B84
330
2
100
AcDbEntity
  8
0
100
AcDbLine
 10
151.1212469063349
 20
198.730634677648
 30
0.0
 11
151.1212469063349
 21
200.7306346776481
 31
0.0
  0
ARC
  5
1B85
330
2
100
AcDbEntity
  8
0
100
AcDbCircle
 10
114.2282576599278
 20
199.7367474018944
 30
0.0
 40
1.3
100
AcDbArc
 50
5.000000000000026
 51
74.1191499917157
  0
ARC
  5
1B86
330
2
100
AcDbEntity
  8
0
100
AcDbCircle
 10
110.0142361527419
 20
199.7367474018944
 30
0.0
 40
1.3
100
AcDbArc
 50
105.8808500082775
 51
174.9999999999999
  0
SPLINE
  5
1B87
330
2
100
AcDbEntity
  8
0
100
AcDbSpline
210
0.0
220
0.0
230
1.0
 70
     8
 71
     3
 72
    11
 73
     7
 74
     0
 42
0.0000000001
 43
0.0000000001
 40
0.0
 40
0.0
 40
0.0
 40
0.0
 40
0.4601364636755307
 40
1.04988694485363
 40
1.713742833862792
 40
2.320347933405154
 40
2.320347933405154
 40
2.320347933405154
 40
2.320347933405179
 10
111.8337469058798
 20
199.8136346776481
 30
0.0
 10
111.811329248772
 20
199.9686581173279
 30
0.0
 10
111.7601791935386
 20
200.3223729352455
 30
0.0
 10
111.3242940320051
 20
200.7471006068472
 30
0.0
 10
110.7192433169976
 20
200.966287786813
 30
0.0
 10
110.2940586928218
 20
200.8972964872024
 30
0.0
 10
110.0915070831707
 20
200.8830762150257
 30
0.0
  0
SPLINE
  5
1B88
330
2
100
AcDbEntity
  8
0
100
AcDbSpline
210
0.0
220
0.0
230
1.0
 70
     8
 71
     3
 72
    11
 73
     7
 74
     0
 42
0.0000000001
 43
0.0000000001
 40
0.0
 40
0.0
 40
0.0
 40
0.0
 40
0.4601364636755307
 40
1.04988694485363
 40
1.713742833862792
 40
2.320347933405154
 40
2.320347933405154
 40
2.320347933405154
 40
2.320347933405179
 10
112.4087469067899
 20
199.8136346776481
 30
0.0
 10
112.4311645638978
 20
199.9686581173279
 30
0.0
 10
112.4823146191309
 20
200.3223729352455
 30
0.0
 10
112.9181997806646
 20
200.7471006068472
 30
0.0
 10
113.523250495672
 20
200.966287786813
 30
0.0
 10
113.9484351198478
 20
200.8972964872024
 30
0.0
 10
114.1509867294989
 20
200.8830762150257
 30
0.0
  0
LINE
  5
1B89
330
2
100
AcDbEntity
  8
0
100
AcDbLine
 10
116.1212469063349
 20
198.730634677648
 30
0.0
 11
116.1212469063349
 21
200.7306346776481
 31
0.0
  0
LINE
  5
1B8A
330
2
100
AcDbEntity
  8
0
100
AcDbLine
 10
108.6212399063349
 20
200.230634677648
 30
0.0
 11
108.6212399063349
 21
158.230619677648
 31
0.0
  0
ARC
  5
1B91
330
2
100
AcDbEntity
  8
0
100
AcDbCircle
 10
153.014236152742
 20
199.7367474018944
 30
0.0
 40
1.3
100
AcDbArc
 50
105.8808500082775
 51
174.9999999999999
  0
LINE
  5
1B92
330
2
100
AcDbEntity
  8
CENTER
100
AcDbLine
 10
98.57763992512639
 20
184.230619677648
 30
0.0
 11
168.6648538875434
 21
184.230619677648
 31
0.0
  0
LINE
  5
1B93
330
2
100
AcDbEntity
  8
0
100
AcDbLine
 10
116.1212469063349
 20
198.730634677648
 30
0.0
 11
108.6212469063349
 21
198.7306346776481
 31
0.0
  0
LINE
  5
1B95
330
2
100
AcDbEntity
  8
0
100
AcDbLine
 10
108.6212399063349
 20
169.230619677648
 30
0.0
 11
158.6212469063349
 21
169.230619677648
 31
0.0
  0
LINE
  5
1B96
330
2
100
AcDbEntity
  8
0
100
AcDbLine
 10
108.6212399063349
 20
158.230619677648
 30
0.0
 11
158.6212469063349
 21
158.230619677648
 31
0.0
  0
LINE
  5
1B97
330
2
100
AcDbEntity
  8
0
100
AcDbLine
 10
108.6212399063349
 20
168.230619677648
 30
0.0
 11
158.6212469063349
 21
168.230619677648
 31
0.0
  0
LINE
  5
1B98
330
2
100
AcDbEntity
  8
0
100
AcDbLine
 10
110.1212399063349
 20
156.230619677648
 30
0.0
 11
156.6212469063349
 21
156.230619677648
 31
0.0
  0
LINE
  5
1BA0
330
2
100
AcDbEntity
  8
0
100
AcDbLine
 10
108.6212399063349
 20
158.230619677648
 30
0.0
 11
110.6212399063349
 21
156.230619677648
 31
0.0
  0
LINE
  5
1BA1
330
2
100
AcDbEntity
  8
0
100
AcDbLine
 10
110.1212399063349
 20
156.230619677648
 30
0.0
 11
110.1212399063349
 21
154.730619677648
 31
0.0
  0
LINE
  5
1BA2
330
2
100
AcDbEntity
  8
0
100
AcDbLine
 10
107.7462399063349
 20
173.730619677648
 30
0.0
 11
109.7462399063349
 21
173.730619677648
 31
0.0
  0
LINE
  5
1BA3
330
2
100
AcDbEntity
  8
0
100
AcDbLine
 10
111.8337469058798
 20
199.8136346776481
 30
0.0
 11
112.4087469067899
 21
199.8136346776481
 31
0.0
  0
LINE
  5
1BA4
330
2
100
AcDbEntity
  8
0
100
AcDbLine
 10
107.7462399063349
 20
194.730619677648
 30
0.0
 11
109.7462399063349
 21
194.730619677648
 31
0.0
  0
LINE
  5
1BA5
330
2
100
AcDbEntity
  8
0
100
AcDbLine
 10
108.6212469063349
 20
198.7306346776481
 30
0.0
 11
108.7191830452228
 21
199.8500498674663
 31
0.0
  0
LINE
  5
1BA7
330
2
100
AcDbEntity
  8
0
100
AcDbLine
 10
156.6212469063349
 20
156.230619677648
 30
0.0
 11
158.6212469063349
 21
158.230619677648
 31
0.0
  0
LINE
  5
1BA8
330
2
100
AcDbEntity
  8
0
100
AcDbLine
 10
156.1212469063349
 20
156.230619677648
 30
0.0
 11
156.1212469063349
 21
154.730619677648
 31
0.0
  0
LINE
  5
1BA9
330
2
100
AcDbEntity
  8
0
100
AcDbLine
 10
115.6212469063349
 20
198.7306346776481
 30
0.0
 11
115.523310767447
 21
199.8500498674663
 31
0.0
  0
LINE
  5
1BAA
330
2
100
AcDbEntity
  8
0
100
AcDbLine
 10
155.40874690679
 20
199.8136346776481
 30
0.0
 11
154.83374690588
 21
199.8136346776481
 31
0.0
  0
LINE
  5
1BAB
330
2
100
AcDbEntity
  8
0
100
AcDbLine
 10
158.6212469063349
 20
198.7306346776481
 30
0.0
 11
158.5233107674471
 21
199.8500498674663
 31
0.0
  0
LINE
  5
1BAC
330
2
100
AcDbEntity
  8
0
100
AcDbLine
 10
151.621246906335
 20
198.7306346776481
 30
0.0
 11
151.7191830452228
 21
199.8500498674663
 31
0.0
  0
LINE
  5
1BAD
330
2
100
AcDbEntity
  8
0
100
AcDbLine
 10
151.1212469063349
 20
198.730634677648
 30
0.0
 11
158.6212469063349
 21
198.7306346776481
 31
0.0
  0
LINE
  5
1BAE
330
2
100
AcDbEntity
  8
0
100
AcDbLine
 10
110.6211399063349
 20
383.9498380311285
 30
0.0
 11
156.6210489063349
 21
383.9498380311285
 31
0.0
  0
ARC
  5
1BAF
330
2
100
AcDbEntity
  8
0
100
AcDbCircle
 10
112.1211399063349
 20
387.4497460311286
 30
0.0
 40
4.0
100
AcDbArc
 50
0.0
 51
90.0
  0
CIRCLE
  5
1BB0
330
2
100
AcDbEntity
  8
0
100
AcDbCircle
 10
112.1211399063349
 20
387.4497460311286
 30
0.0
 40
3.500000000000028
  0
ARC
  5
1BB1
330
2
100
AcDbEntity
  8
0
100
AcDbCircle
 10
114.1508399063349
 20
389.4794460311285
 30
0.0
 40
1.742199999999999
100
AcDbArc
 50
179.9986903345002
 51
270.0013096654997
  0
ARC
  5
1BB2
330
2
100
AcDbEntity
  8
0
100
AcDbCircle
 10
114.1508399063349
 20
385.4200460311286
 30
0.0
 40
1.742199999999999
100
AcDbArc
 50
89.99869033450025
 51
180.0013096654997
  0
ARC
  5
1BB5
330
2
100
AcDbEntity
  8
0
100
AcDbCircle
 10
112.1212469063349
 20
192.3306346776481
 30
0.0
 40
9.0
100
AcDbArc
 50
74.1191499917157
 51
105.8808500082775
  0
LINE
  5
1BBD
330
2
100
AcDbEntity
  8
0
100
AcDbLine
 10
110.7833380903084
 20
201.2306346776481
 30
0.0
 11
109.6212469063349
 21
201.2306346776481
 31
0.0
  0
LINE
  5
1BBE
330
2
100
AcDbEntity
  8
0
100
AcDbLine
 10
110.0915070831707
 20
200.8830762150257
 30
0.0
 11
110.0712469063348
 21
201.0940529604873
 31
0.0
  0
LINE
  5
1BBF
330
2
100
AcDbEntity
  8
0
100
AcDbLine
 10
109.6212469063349
 20
201.2306346776481
 30
0.0
 11
108.6212469063349
 21
200.230634677648
 31
0.0
  0
ARC
  5
1BC0
330
2
100
AcDbEntity
  8
0
100
AcDbCircle
 10
110.0914399063348
 20
389.4794460311285
 30
0.0
 40
1.742199999999999
100
AcDbArc
 50
269.9986903345067
 51
0.0013096654997424
  0
ARC
  5
1BC1
330
2
100
AcDbEntity
  8
0
100
AcDbCircle
 10
112.1211399063349
 20
387.4497460311286
 30
0.0
 40
2.049999999999998
100
AcDbArc
 50
180.0
 51
188.0619600839816
  0
ARC
  5
1BC2
330
2
100
AcDbEntity
  8
0
100
AcDbCircle
 10
112.1211399063349
 20
387.4497460311286
 30
0.0
 40
2.049999999999998
100
AcDbArc
 50
171.9380399160183
 51
180.0
  0
ARC
  5
1BC3
330
2
100
AcDbEntity
  8
0
100
AcDbCircle
 10
112.1211399063349
 20
387.4497460311286
 30
0.0
 40
2.049999999999998
100
AcDbArc
 50
81.93803991601813
 51
90.0
  0
ARC
  5
1BC4
330
2
100
AcDbEntity
  8
0
100
AcDbCircle
 10
112.1211399063349
 20
387.4497460311286
 30
0.0
 40
2.049999999999998
100
AcDbArc
 50
90.0
 51
98.06196008398188
  0
ARC
  5
1BC5
330
2
100
AcDbEntity
  8
0
100
AcDbCircle
 10
112.1211399063349
 20
387.4497460311286
 30
0.0
 40
2.049999999999998
100
AcDbArc
 50
270.0
 51
278.0619600839818
  0
ARC
  5
1BC6
330
2
100
AcDbEntity
  8
0
100
AcDbCircle
 10
112.1211399063349
 20
387.4497460311286
 30
0.0
 40
2.049999999999998
100
AcDbArc
 50
261.9380399160181
 51
270.0
  0
ARC
  5
1BC7
330
2
100
AcDbEntity
  8
0
100
AcDbCircle
 10
110.0914399063348
 20
385.4200460311286
 30
0.0
 40
1.742199999999999
100
AcDbArc
 50
359.9986903345002
 51
90.00130966549322
  0
LINE
  5
1BC8
330
2
100
AcDbEntity
  8
0
100
AcDbLine
 10
108.6211399063349
 20
385.9498380311285
 30
0.0
 11
110.6211399063349
 21
383.9498380311285
 31
0.0
  0
LINE
  5
1BC9
330
2
100
AcDbEntity
  8
0
100
AcDbLine
 10
112.1211399063349
 20
391.4498380311286
 30
0.0
 11
108.6211399063349
 21
391.4498380311286
 31
0.0
  0
LINE
  5
1BCA
330
2
100
AcDbEntity
  8
0
100
AcDbLine
 10
116.1212469063349
 20
200.230634677648
 30
0.0
 11
151.1212469063349
 21
200.230634677648
 31
0.0
  0
LINE
  5
1BCB
330
2
100
AcDbEntity
  8
0
100
AcDbLine
 10
113.4591557223615
 20
201.230634677648
 30
0.0
 11
153.7833380903085
 21
201.2306346776481
 31
0.0
  0
LINE
  5
1BCC
330
2
100
AcDbEntity
  8
0
100
AcDbLine
 10
114.1509867294989
 20
200.8830762150257
 30
0.0
 11
114.1712469063348
 21
201.0940529604873
 31
0.0
  0
LINE
  5
1BCD
330
2
100
AcDbEntity
  8
0
100
AcDbLine
 10
116.6212469063349
 20
201.2306346776481
 30
0.0
 11
116.1212469063349
 21
200.730634677648
 31
0.0
  0
LINE
  5
1BCE
330
2
100
AcDbEntity
  8
0
100
AcDbLine
 10
116.1212469063349
 20
200.730634677648
 30
0.0
 11
115.0662242959552
 21
200.730634677648
 31
0.0
  0
ARC
  5
1BCF
330
2
100
AcDbEntity
  8
0
100
AcDbCircle
 10
155.121246906335
 20
192.3306346776481
 30
0.0
 40
9.0
100
AcDbArc
 50
74.1191499917157
 51
105.8808500082775
  0
LINE
  5
1BD0
330
2
100
AcDbEntity
  8
0
100
AcDbLine
 10
153.091507083171
 20
200.8830762150257
 30
0.0
 11
153.0712469063349
 21
201.0940529604873
 31
0.0
  0
LINE
  5
1BD1
330
2
100
AcDbEntity
  8
0
100
AcDbLine
 10
157.6212469063349
 20
201.2306346776481
 30
0.0
 11
158.6212469063349
 21
200.230634677648
 31
0.0
  0
LINE
  5
1BD2
330
2
100
AcDbEntity
  8
0
100
AcDbLine
 10
157.1509867294991
 20
200.8830762150257
 30
0.0
 11
157.1712469063351
 21
201.0940529604873
 31
0.0
  0
LINE
  5
1BD3
330
2
100
AcDbEntity
  8
0
100
AcDbLine
 10
156.4591557223615
 20
201.2306346776481
 30
0.0
 11
157.6212469063349
 21
201.2306346776481
 31
0.0
  0
LINE
  5
1BD4
330
2
100
AcDbEntity
  8
0
100
AcDbLine
 10
150.6212469063349
 20
201.2306346776481
 30
0.0
 11
151.1212469063349
 21
200.730634677648
 31
0.0
  0
LINE
  5
1BD5
330
2
100
AcDbEntity
  8
0
100
AcDbLine
 10
151.1212469063349
 20
200.730634677648
 30
0.0
 11
152.1762695167145
 21
200.730634677648
 31
0.0
  0
ARC
  5
1BD6
330
2
100
AcDbEntity
  8
0
100
AcDbCircle
 10
155.1212469063349
 20
387.4497460311286
 30
0.0
 40
4.0
100
AcDbArc
 50
90.0
 51
180.0
  0
CIRCLE
  5
1BD7
330
2
100
AcDbEntity
  8
0
100
AcDbCircle
 10
155.1212469063349
 20
387.4497460311286
 30
0.0
 40
3.500000000000028
  0
LINE
  5
1BD8
330
2
100
AcDbEntity
  8
0
100
AcDbLine
 10
151.1210489063349
 20
385.9498380311285
 30
0.0
 11
116.1211399063349
 21
385.9498380311285
 31
0.0
  0
ARC
  5
1BD9
330
2
100
AcDbEntity
  8
0
100
AcDbCircle
 10
112.1211399063349
 20
387.4497460311286
 30
0.0
 40
2.049999999999998
100
AcDbArc
 50
351.9380399160183
 51
0.0
  0
ARC
  5
1BDA
330
2
100
AcDbEntity
  8
0
100
AcDbCircle
 10
112.1211399063349
 20
387.4497460311286
 30
0.0
 40
2.049999999999998
100
AcDbArc
 50
0.0
 51
8.061960083981649
  0
LINE
  5
1BDB
330
2
100
AcDbEntity
  8
0
100
AcDbLine
 10
116.1211399063349
 20
387.4497460311286
 30
0.0
 11
116.1211399063349
 21
383.9498380311285
 31
0.0
  0
LINE
  5
1BDC
330
2
100
AcDbEntity
  8
0
100
AcDbLine
 10
151.1210489063349
 20
387.4497460311286
 30
0.0
 11
151.1210489063349
 21
383.9498380311285
 31
0.0
  0
ARC
  5
1BDD
330
2
100
AcDbEntity
  8
0
100
AcDbCircle
 10
155.1212469063349
 20
387.4497460311286
 30
0.0
 40
2.049999999999998
100
AcDbArc
 50
351.9380399160183
 51
0.0
  0
ARC
  5
1BDE
330
2
100
AcDbEntity
  8
0
100
AcDbCircle
 10
155.1212469063349
 20
387.4497460311286
 30
0.0
 40
2.049999999999998
100
AcDbArc
 50
81.93803991601813
 51
90.0
  0
ARC
  5
1BDF
330
2
100
AcDbEntity
  8
0
100
AcDbCircle
 10
155.1212469063349
 20
387.4497460311286
 30
0.0
 40
2.049999999999998
100
AcDbArc
 50
90.0
 51
98.06196008398188
  0
ARC
  5
1BE0
330
2
100
AcDbEntity
  8
0
100
AcDbCircle
 10
155.1212469063349
 20
387.4497460311286
 30
0.0
 40
2.049999999999998
100
AcDbArc
 50
0.0
 51
8.061960083981649
  0
ARC
  5
1BE1
330
2
100
AcDbEntity
  8
0
100
AcDbCircle
 10
157.1509469063348
 20
389.4794460311285
 30
0.0
 40
1.742199999999999
100
AcDbArc
 50
179.9986903345002
 51
270.0013096654997
  0
ARC
  5
1BE2
330
2
100
AcDbEntity
  8
0
100
AcDbCircle
 10
155.1212469063349
 20
387.4497460311286
 30
0.0
 40
2.049999999999998
100
AcDbArc
 50
180.0
 51
188.0619600839816
  0
ARC
  5
1BE3
330
2
100
AcDbEntity
  8
0
100
AcDbCircle
 10
155.1212469063349
 20
387.4497460311286
 30
0.0
 40
2.049999999999998
100
AcDbArc
 50
171.9380399160183
 51
180.0
  0
ARC
  5
1BE4
330
2
100
AcDbEntity
  8
0
100
AcDbCircle
 10
153.0915469063347
 20
389.4794460311285
 30
0.0
 40
1.742199999999999
100
AcDbArc
 50
269.9986903345067
 51
0.0013096654997424
  0
ARC
  5
1BE5
330
2
100
AcDbEntity
  8
0
100
AcDbCircle
 10
155.1212469063349
 20
387.4497460311286
 30
0.0
 40
2.049999999999998
100
AcDbArc
 50
270.0
 51
278.0619600839818
  0
ARC
  5
1BE6
330
2
100
AcDbEntity
  8
0
100
AcDbCircle
 10
155.1212469063349
 20
387.4497460311286
 30
0.0
 40
2.049999999999998
100
AcDbArc
 50
261.9380399160181
 51
270.0
  0
ARC
  5
1BE7
330
2
100
AcDbEntity
  8
0
100
AcDbCircle
 10
153.0915469063347
 20
385.4200460311286
 30
0.0
 40
1.742199999999999
100
AcDbArc
 50
359.9986903345002
 51
90.00130966549322
  0
ARC
  5
1BE8
330
2
100
AcDbEntity
  8
0
100
AcDbCircle
 10
157.1509469063348
 20
385.4200460311286
 30
0.0
 40
1.742199999999999
100
AcDbArc
 50
89.99869033450025
 51
180.0013096654997
  0
LINE
  5
1BE9
330
2
100
AcDbEntity
  8
0
100
AcDbLine
 10
158.6210489063349
 20
385.9498380311285
 30
0.0
 11
156.6210489063349
 21
383.9498380311285
 31
0.0
  0
LINE
  5
1BEA
330
2
100
AcDbEntity
  8
0
100
AcDbLine
 10
156.6210489063349
 20
383.9498380311285
 30
0.0
 11
158.6210489063349
 21
385.9498380311285
 31
0.0
  0
LINE
  5
1BEB
330
2
100
AcDbEntity
  8
0
100
AcDbLine
 10
155.1210489063349
 20
391.4498380311286
 30
0.0
 11
158.6210489063349
 21
391.4498380311286
 31
0.0
  0
LINE
  5
1C4C
330
2
100
AcDbEntity
  8
0
100
AcDbLine
 10
110.6211399063349
 20
433.9498380311286
 30
0.0
 11
156.6210489063349
 21
433.9498380311286
 31
0.0
  0
ARC
  5
1C4D
330
2
100
AcDbEntity
  8
0
100
AcDbCircle
 10
114.1508399063349
 20
432.4795380311285
 30
0.0
 40
1.742199999999999
100
AcDbArc
 50
179.9986903345002
 51
270.0013096654997
  0
ARC
  5
1C4E
330
2
100
AcDbEntity
  8
0
100
AcDbCircle
 10
114.1508399063349
 20
428.4201380311285
 30
0.0
 40
1.742199999999999
100
AcDbArc
 50
89.99869033450025
 51
180.0013096654997
  0
ARC
  5
1C4F
330
2
100
AcDbEntity
  8
0
100
AcDbCircle
 10
112.1211399063349
 20
430.4498380311286
 30
0.0
 40
4.0
100
AcDbArc
 50
270.0
 51
0.0
  0
CIRCLE
  5
1C50
330
2
100
AcDbEntity
  8
0
100
AcDbCircle
 10
112.1211399063349
 20
430.4498380311286
 30
0.0
 40
3.500000000000028
  0
ARC
  5
1C51
330
2
100
AcDbEntity
  8
0
100
AcDbCircle
 10
110.0914399063348
 20
432.4795380311285
 30
0.0
 40
1.742199999999999
100
AcDbArc
 50
269.9986903345067
 51
0.0013096654997424
  0
ARC
  5
1C52
330
2
100
AcDbEntity
  8
0
100
AcDbCircle
 10
110.0914399063348
 20
428.4201380311285
 30
0.0
 40
1.742199999999999
100
AcDbArc
 50
359.9986903345002
 51
90.00130966549322
  0
ARC
  5
1C53
330
2
100
AcDbEntity
  8
0
100
AcDbCircle
 10
112.1211399063349
 20
430.4498380311286
 30
0.0
 40
2.049999999999998
100
AcDbArc
 50
171.9380399160183
 51
180.0
  0
ARC
  5
1C54
330
2
100
AcDbEntity
  8
0
100
AcDbCircle
 10
112.1211399063349
 20
430.4498380311286
 30
0.0
 40
2.049999999999998
100
AcDbArc
 50
180.0
 51
188.0619600839816
  0
ARC
  5
1C55
330
2
100
AcDbEntity
  8
0
100
AcDbCircle
 10
112.1211399063349
 20
430.4498380311286
 30
0.0
 40
2.049999999999998
100
AcDbArc
 50
270.0
 51
278.0619600839818
  0
ARC
  5
1C56
330
2
100
AcDbEntity
  8
0
100
AcDbCircle
 10
112.1211399063349
 20
430.4498380311286
 30
0.0
 40
2.049999999999998
100
AcDbArc
 50
261.9380399160181
 51
270.0
  0
LINE
  5
1C57
330
2
100
AcDbEntity
  8
0
100
AcDbLine
 10
108.6211399063349
 20
431.9498380311285
 30
0.0
 11
110.6211399063349
 21
433.9498380311286
 31
0.0
  0
LINE
  5
1C58
330
2
100
AcDbEntity
  8
0
100
AcDbLine
 10
108.6211399063349
 20
431.9498380311285
 30
0.0
 11
110.6211399063349
 21
433.9498380311286
 31
0.0
  0
ARC
  5
1C59
330
2
100
AcDbEntity
  8
0
100
AcDbCircle
 10
112.1211399063349
 20
430.4498380311286
 30
0.0
 40
2.049999999999998
100
AcDbArc
 50
81.93803991601813
 51
90.0
  0
ARC
  5
1C5A
330
2
100
AcDbEntity
  8
0
100
AcDbCircle
 10
112.1211399063349
 20
430.4498380311286
 30
0.0
 40
2.049999999999998
100
AcDbArc
 50
90.0
 51
98.06196008398188
  0
LINE
  5
1C5B
330
2
100
AcDbEntity
  8
0
100
AcDbLine
 10
112.1211399063349
 20
426.4498380311286
 30
0.0
 11
108.6211399063349
 21
426.4498380311286
 31
0.0
  0
LINE
  5
1C5C
330
2
100
AcDbEntity
  8
0
100
AcDbLine
 10
151.1210489063349
 20
431.9498380311285
 30
0.0
 11
116.1211399063349
 21
431.9498380311285
 31
0.0
  0
LINE
  5
1C5D
330
2
100
AcDbEntity
  8
0
100
AcDbLine
 10
116.1211399063349
 20
430.4498380311286
 30
0.0
 11
116.1211399063349
 21
433.9496540311285
 31
0.0
  0
ARC
  5
1C5E
330
2
100
AcDbEntity
  8
0
100
AcDbCircle
 10
112.1211399063349
 20
430.4498380311286
 30
0.0
 40
2.049999999999998
100
AcDbArc
 50
0.0
 51
8.061960083981649
  0
ARC
  5
1C5F
330
2
100
AcDbEntity
  8
0
100
AcDbCircle
 10
112.1211399063349
 20
430.4498380311286
 30
0.0
 40
2.049999999999998
100
AcDbArc
 50
351.9380399160183
 51
0.0
  0
LINE
  5
1C60
330
2
100
AcDbEntity
  8
0
100
AcDbLine
 10
151.1210489063349
 20
430.4498380311286
 30
0.0
 11
151.1210489063349
 21
433.9496540311285
 31
0.0
  0
ARC
  5
1C61
330
2
100
AcDbEntity
  8
0
100
AcDbCircle
 10
157.1509469063348
 20
432.4795380311285
 30
0.0
 40
1.742199999999999
100
AcDbArc
 50
179.9986903345002
 51
270.0013096654997
  0
ARC
  5
1C62
330
2
100
AcDbEntity
  8
0
100
AcDbCircle
 10
155.1212469063349
 20
430.4498380311286
 30
0.0
 40
2.049999999999998
100
AcDbArc
 50
270.0
 51
278.0619600839818
  0
ARC
  5
1C63
330
2
100
AcDbEntity
  8
0
100
AcDbCircle
 10
155.1212469063349
 20
430.4498380311286
 30
0.0
 40
2.049999999999998
100
AcDbArc
 50
261.9380399160181
 51
270.0
  0
ARC
  5
1C64
330
2
100
AcDbEntity
  8
0
100
AcDbCircle
 10
155.1212469063349
 20
430.4498380311286
 30
0.0
 40
2.049999999999998
100
AcDbArc
 50
0.0
 51
8.061960083981649
  0
ARC
  5
1C65
330
2
100
AcDbEntity
  8
0
100
AcDbCircle
 10
155.1212469063349
 20
430.4498380311286
 30
0.0
 40
2.049999999999998
100
AcDbArc
 50
351.9380399160183
 51
0.0
  0
ARC
  5
1C66
330
2
100
AcDbEntity
  8
0
100
AcDbCircle
 10
157.1509469063348
 20
428.4201380311285
 30
0.0
 40
1.742199999999999
100
AcDbArc
 50
89.99869033450025
 51
180.0013096654997
  0
ARC
  5
1C67
330
2
100
AcDbEntity
  8
0
100
AcDbCircle
 10
155.1212469063349
 20
430.4498380311286
 30
0.0
 40
2.049999999999998
100
AcDbArc
 50
81.93803991601813
 51
90.0
  0
ARC
  5
1C68
330
2
100
AcDbEntity
  8
0
100
AcDbCircle
 10
155.1212469063349
 20
430.4498380311286
 30
0.0
 40
2.049999999999998
100
AcDbArc
 50
90.0
 51
98.06196008398188
  0
LINE
  5
1C69
330
2
100
AcDbEntity
  8
0
100
AcDbLine
 10
158.6210489063349
 20
431.9498380311285
 30
0.0
 11
156.6210489063349
 21
433.9498380311286
 31
0.0
  0
LINE
  5
1C6A
330
2
100
AcDbEntity
  8
0
100
AcDbLine
 10
158.6210489063349
 20
431.9498380311285
 30
0.0
 11
156.6210489063349
 21
433.9498380311286
 31
0.0
  0
LINE
  5
1C6B
330
2
100
AcDbEntity
  8
0
100
AcDbLine
 10
158.6212469063349
 20
431.9498380311285
 30
0.0
 11
156.6210489063349
 21
433.9498380311286
 31
0.0
  0
ARC
  5
1C6C
330
2
100
AcDbEntity
  8
0
100
AcDbCircle
 10
155.1212469063349
 20
430.4498380311286
 30
0.0
 40
2.049999999999998
100
AcDbArc
 50
171.9380399160183
 51
180.0
  0
ARC
  5
1C6D
330
2
100
AcDbEntity
  8
0
100
AcDbCircle
 10
155.1212469063349
 20
430.4498380311286
 30
0.0
 40
2.049999999999998
100
AcDbArc
 50
180.0
 51
188.0619600839816
  0
ARC
  5
1C6E
330
2
100
AcDbEntity
  8
0
100
AcDbCircle
 10
153.0915469063347
 20
428.4201380311285
 30
0.0
 40
1.742199999999999
100
AcDbArc
 50
359.9986903345002
 51
90.00130966549322
  0
ARC
  5
1C6F
330
2
100
AcDbEntity
  8
0
100
AcDbCircle
 10
153.0915469063347
 20
432.4795380311285
 30
0.0
 40
1.742199999999999
100
AcDbArc
 50
269.9986903345067
 51
0.0013096654997424
  0
LINE
  5
1C70
330
2
100
AcDbEntity
  8
0
100
AcDbLine
 10
155.1210489063349
 20
426.4498380311286
 30
0.0
 11
158.6210489063349
 21
426.4498380311286
 31
0.0
  0
ARC
  5
1C71
330
2
100
AcDbEntity
  8
0
100
AcDbCircle
 10
155.1212469063349
 20
430.4498380311286
 30
0.0
 40
4.0
100
AcDbArc
 50
180.0
 51
270.0
  0
CIRCLE
  5
1C72
330
2
100
AcDbEntity
  8
0
100
AcDbCircle
 10
155.1212469063349
 20
430.4498380311286
 30
0.0
 40
3.500000000000028
  0
VIEWPORT
  5
1404
330
1403
100
AcDbEntity
 67
     1
  8
0
100
AcDbViewport
 10
144.6494032678484
 20
98.18346866433632
 30
0.0
 40
337.078217044107
 41
215.1146463957828
 68
     1
 69
     1
1001
ACAD
1000
MVIEW
1002
{
1070
    16
1010
0.0
1020
0.0
1030
0.0
1010
0.0
1020
0.0
1030
1.0
1040
0.0
1040
215.1146463957828
1040
144.6494032678484
1040
98.18346866433632
1040
50.0
1040
0.0
1040
0.0
1070
     0
1070
   100
1070
     1
1070
     1
1070
     0
1070
     0
1070
     0
1070
     0
1040
0.0
1040
0.0
1040
0.0
1040
10.0
1040
10.0
1040
10.0
1040
10.0
1070
     0
1002
{
1002
}
1002
}
  0
TEXT
  5
1405
330
1403
100
AcDbEntity
 67
     1
  8
TEXT
100
AcDbText
 10
266.4665517915716
 20
9.492177985111482
 30
0.0
 40
2.0
  1
2006.03.08
 41
0.7
100
AcDbText
  0
TEXT
  5
1406
330
1403
100
AcDbEntity
 67
     1
  8
TEXT
100
AcDbText
 10
221.2876186247744
 20
25.81289445791026
 30
0.0
 40
2.0
  1
HFMN22T-S40WK
100
AcDbText
  0
INSERT
  5
1407
330
1403
100
AcDbEntity
 67
     1
  8
0
100
AcDbBlockReference
 66
     1
  2
外寸枠A4テンプレート
 10
0.0
 20
0.0
 30
0.0
  0
ATTRIB
  5
1408
330
1407
100
AcDbEntity
 67
     1
  8
TEXT
100
AcDbText
 10
214.0785047619046
 20
34.33735183158626
 30
0.0
 40
2.500000000000001
  1
HFMN-22T-300~450-S40WK
 72
     4
 11
241.8165999999999
 21
35.58735183158626
 31
0.0
100
AcDbAttribute
  2
T　I　T　L　E
 70
     0
  0
ATTRIB
  5
1409
330
1407
100
AcDbEntity
 67
     1
  8
TEXT
100
AcDbText
 10
231.4275923057046
 20
7.13444951887557
 30
0.0
 40
2.0
  1
1：3
 72
     4
 11
234.056163734276
 21
8.13444951887557
 31
0.0
100
AcDbAttribute
  2
FREE
 70
     0
  0
ATTRIB
  5
140A
330
1407
100
AcDbEntity
 67
     1
  8
TEXT
100
AcDbText
 10
205.1985180173093
 20
6.884449518875568
 30
0.0
 40
2.500000000000004
  1
海野
 72
     4
 11
207.865184683976
 21
8.13444951887557
 31
0.0
100
AcDbAttribute
  2
海野
 70
     0
  0
ATTRIB
  5
140B
330
1407
100
AcDbEntity
 67
     1
  8
TEXT
100
AcDbText
 10
222.7519560922427
 20
6.884449518875568
 30
0.0
 40
2.500000000000004
  1
吉田
 72
     4
 11
225.3352894255761
 21
8.13444951887557
 31
0.0
100
AcDbAttribute
  2
鳥居
 70
     0
  0
ATTRIB
  5
140C
330
1407
100
AcDbEntity
 67
     1
  8
TEXT
100
AcDbText
 10
213.9476826899094
 20
6.884449518875567
 30
0.0
 40
2.500000000000004
  1
永坂
 72
     4
 11
216.6143493565761
 21
8.13444951887557
 31
0.0
100
AcDbAttribute
  2
永坂
 70
     0
  0
SEQEND
  5
140D
330
1407
100
AcDbEntity
 67
     1
  8
0
  0
INSERT
  5
140E
330
1403
100
AcDbEntity
 67
     1
  8
TEXT
100
AcDbBlockReference
  2
1
 10
202.0
 20
40.0
 30
0.0
  0
VIEWPORT
  5
140F
330
1403
100
AcDbEntity
 67
     1
  8
DEFPOINTS
100
AcDbViewport
 10
141.5
 20
120.8124118562683
 30
0.0
 40
277.0
 41
98.05875441603422
 68
    -1
 69
     2
1001
ACAD
1000
MVIEW
1002
{
1070
    16
1010
0.0
1020
0.0
1030
0.0
1010
0.0
1020
0.0
1030
1.0
1040
0.0
1040
294.1762633037756
1040
383.5666424436905
1040
146.6983916298999
1040
50.0
1040
0.0
1040
0.0
1070
     0
1070
   100
1070
     1
1070
     3
1070
     0
1070
     0
1070
     0
1070
     0
1040
0.0
1040
0.0
1040
0.0
1040
10.0
1040
10.0
1040
18.0
1040
18.0
1070
     0
1002
{
1003
TITLE
1002
}
1002
}
  0
INSERT
  5
1558
330
1403
100
AcDbEntity
 67
     1
  8
TEXT
100
AcDbBlockReference
  2
GSPEC_H-22T-300-450
 10
3.0
 20
4.0
 30
0.0
  0
INSERT
  5
17B6
330
1403
100
AcDbEntity
 67
     1
  8
TEXT
100
AcDbBlockReference
  2
MSPEC_S40WF-75
 10
3.0
 20
4.0
 30
0.0
  0
INSERT
  5
18CB
330
1403
100
AcDbEntity
 67
     1
  8
TEXT
100
AcDbBlockReference
  2
BSPEC_90-90-0038
 10
3.0
 20
4.0
 30
0.0
  0
INSERT
  5
19C4
330
1403
100
AcDbEntity
 67
     1
  8
TEXT
100
AcDbBlockReference
  2
17
 10
202.0
 20
43.5
 30
0.0
  0
ENDSEC
  0
SECTION
  2
OBJECTS
  0
DICTIONARY
  5
7
330
0
100
AcDbDictionary
  3
ACAD_GROUP
350
75
  3
ACAD_LAYOUT
350
61
  3
ACAD_MLINESTYLE
350
76
  3
ACAD_PLOTSETTINGS
350
77
  3
ACAD_PLOTSTYLENAME
350
6
  3
ACADDIM
350
480
  3
ACDBHEADERROUNDTRIPXREC
350
1D66
  3
ACDBVARIABLEDICTIONARY
350
102
  3
DWGPROPS
350
3D2
  0
DICTIONARY
  5
1D87
330
2
100
AcDbDictionary
280
     1
  3
ACAD_LAYOUTSELFREF
360
1D88
  0
DICTIONARY
  5
1D8A
330
1403
100
AcDbDictionary
280
     1
  3
ACAD_LAYOUTSELFREF
360
1D8B
  0
DICTIONARY
  5
75
102
{ACAD_REACTORS
330
7
102
}
330
7
100
AcDbDictionary
  0
DICTIONARY
  5
61
102
{ACAD_REACTORS
330
7
102
}
330
7
100
AcDbDictionary
  0
DICTIONARY
  5
76
102
{ACAD_REACTORS
330
7
102
}
330
7
100
AcDbDictionary
  3
STANDARD
350
78
  0
DICTIONARY
  5
77
102
{ACAD_REACTORS
330
7
102
}
330
7
100
AcDbDictionary
  0
ACDBDICTIONARYWDFLT
  5
6
102
{ACAD_REACTORS
330
7
102
}
330
7
100
AcDbDictionary
281
     1
  3
Normal
350
5
100
AcDbDictionaryWithDefault
340
5
  0
XRECORD
  5
480
102
{ACAD_REACTORS
330
7
102
}
330
7
100
AcDbXrecord
 90
   990106
  3

 60
     0
 61
     0
 62
     1
 63
     3
 64
     1
 65
     0
 66
     0
 67
     3
 68
     1
 69
     0
 70
     0
 71
     0
 72
     0
 40
0.0
170
     2
340
0
  0
DICTIONARY
  5
1D66
102
{ACAD_REACTORS
330
7
102
}
330
7
100
AcDbDictionary
  3
CEPSNTYPE
350
1D70
  3
DIMSTYLEDATA
350
1D74
  3
FINGERPRINTGUID
350
1D71
  3
HYPERLINKBASE
350
1D69
  3
INSUNITS
350
1D6F
  3
LAYOUTDICT
350
1D6B
  3
LWETCUNION
350
1D6E
  3
PLOTSETDICT
350
1D6C
  3
PLOTSTYLNAMDICT
350
1D6D
  3
PSVPSCALE
350
1D73
  3
PUCSBASE
350
1D77
  3
PUCSORGBACK
350
1D7D
  3
PUCSORGBOTTOM
350
1D79
  3
PUCSORGFRONT
350
1D7C
  3
PUCSORGLEFT
350
1D7A
  3
PUCSORGRIGHT
350
1D7B
  3
PUCSORGTOP
350
1D78
  3
PUCSORTHOREF
350
1D75
  3
PUCSORTHOVIEW
350
1D76
  3
STYLESHEET
350
1D6A
  3
TSTACKALIGN
350
1D67
  3
TSTACKSIZE
350
1D68
  3
UCSBASE
350
1D80
  3
UCSORGBACK
350
1D86
  3
UCSORGBOTTOM
350
1D82
  3
UCSORGFRONT
350
1D85
  3
UCSORGLEFT
350
1D83
  3
UCSORGRIGHT
350
1D84
  3
UCSORGTOP
350
1D81
  3
UCSORTHOREF
350
1D7E
  3
UCSORTHOVIEW
350
1D7F
  3
VERSIONGUID
350
1D72
  0
DICTIONARY
  5
102
102
{ACAD_REACTORS
330
7
102
}
330
7
100
AcDbDictionary
  3
DIMASSOC
350
103
  0
XRECORD
  5
3D2
102
{ACAD_REACTORS
330
7
102
}
330
7
100
AcDbXrecord
  1
DWGPROPS COOKIE
  2

  3

  4

  6

  7

  8

  9

300
=
301
=
302
=
303
=
304
=
305
=
306
=
307
=
308
=
309
=
 40
0.5353330671296296
 41
2452052.431989363
 42
2453406.550756377
  1

 90
        0
  0
XRECORD
  5
1D88
102
{ACAD_REACTORS
330
1D87
102
}
330
1D87
100
AcDbXrecord
340
2
  0
XRECORD
  5
1D8B
102
{ACAD_REACTORS
330
1D8A
102
}
330
1D8A
100
AcDbXrecord
340
1403
  0
MLINESTYLE
  5
78
102
{ACAD_REACTORS
330
76
102
}
330
76
100
AcDbMlineStyle
  2
STANDARD
 70
     0
  3

 62
     0
 51
90.0
 52
90.0
 71
     2
 49
0.5
 62
   256
  6
BYLAYER
 49
-0.5
 62
   256
  6
BYLAYER
  0
ACDBPLACEHOLDER
  5
5
102
{ACAD_REACTORS
330
6
102
}
330
6
100
AcDbPlaceHolder
280
     0
  0
XRECORD
  5
1D70
102
{ACAD_REACTORS
330
1D66
102
}
330
1D66
100
AcDbXrecord
 90
        0
  0
XRECORD
  5
1D74
102
{ACAD_REACTORS
330
1D66
102
}
330
1D66
100
AcDbXrecord
1000
DSTYLE
1002
{
1070
   179
 70
     2
1070
   277
 70
     6
1002
}
  0
XRECORD
  5
1D71
102
{ACAD_REACTORS
330
1D66
102
}
330
1D66
100
AcDbXrecord
  1
{6385560B-F4B1-4644-A7C2-A3E32AC3D232}
  0
XRECORD
  5
1D69
102
{ACAD_REACTORS
330
1D66
102
}
330
1D66
100
AcDbXrecord
  1

  0
XRECORD
  5
1D6F
102
{ACAD_REACTORS
330
1D66
102
}
330
1D66
100
AcDbXrecord
 90
        0
  0
XRECORD
  5
1D6B
102
{ACAD_REACTORS
330
1D66
102
}
330
1D66
100
AcDbXrecord
340
61
  0
XRECORD
  5
1D6E
102
{ACAD_REACTORS
330
1D66
102
}
330
1D66
100
AcDbXrecord
 90
    10781
  0
XRECORD
  5
1D6C
102
{ACAD_REACTORS
330
1D66
102
}
330
1D66
100
AcDbXrecord
340
77
  0
XRECORD
  5
1D6D
102
{ACAD_REACTORS
330
1D66
102
}
330
1D66
100
AcDbXrecord
340
6
  0
XRECORD
  5
1D73
102
{ACAD_REACTORS
330
1D66
102
}
330
1D66
100
AcDbXrecord
 40
0.0
  0
XRECORD
  5
1D77
102
{ACAD_REACTORS
330
1D66
102
}
330
1D66
100
AcDbXrecord
340
0
  0
XRECORD
  5
1D7D
102
{ACAD_REACTORS
330
1D66
102
}
330
1D66
100
AcDbXrecord
 10
0.0
 20
0.0
 30
0.0
  0
XRECORD
  5
1D79
102
{ACAD_REACTORS
330
1D66
102
}
330
1D66
100
AcDbXrecord
 10
0.0
 20
0.0
 30
0.0
  0
XRECORD
  5
1D7C
102
{ACAD_REACTORS
330
1D66
102
}
330
1D66
100
AcDbXrecord
 10
0.0
 20
0.0
 30
0.0
  0
XRECORD
  5
1D7A
102
{ACAD_REACTORS
330
1D66
102
}
330
1D66
100
AcDbXrecord
 10
0.0
 20
0.0
 30
0.0
  0
XRECORD
  5
1D7B
102
{ACAD_REACTORS
330
1D66
102
}
330
1D66
100
AcDbXrecord
 10
0.0
 20
0.0
 30
0.0
  0
XRECORD
  5
1D78
102
{ACAD_REACTORS
330
1D66
102
}
330
1D66
100
AcDbXrecord
 10
0.0
 20
0.0
 30
0.0
  0
XRECORD
  5
1D75
102
{ACAD_REACTORS
330
1D66
102
}
330
1D66
100
AcDbXrecord
340
0
  0
XRECORD
  5
1D76
102
{ACAD_REACTORS
330
1D66
102
}
330
1D66
100
AcDbXrecord
 70
     0
  0
XRECORD
  5
1D6A
102
{ACAD_REACTORS
330
1D66
102
}
330
1D66
100
AcDbXrecord
  1
Sekkei.ctb
  0
XRECORD
  5
1D67
102
{ACAD_REACTORS
330
1D66
102
}
330
1D66
100
AcDbXrecord
 90
        1
  0
XRECORD
  5
1D68
102
{ACAD_REACTORS
330
1D66
102
}
330
1D66
100
AcDbXrecord
 90
       70
  0
XRECORD
  5
1D80
102
{ACAD_REACTORS
330
1D66
102
}
330
1D66
100
AcDbXrecord
340
0
  0
XRECORD
  5
1D86
102
{ACAD_REACTORS
330
1D66
102
}
330
1D66
100
AcDbXrecord
 10
0.0
 20
0.0
 30
0.0
  0
XRECORD
  5
1D82
102
{ACAD_REACTORS
330
1D66
102
}
330
1D66
100
AcDbXrecord
 10
0.0
 20
0.0
 30
0.0
  0
XRECORD
  5
1D85
102
{ACAD_REACTORS
330
1D66
102
}
330
1D66
100
AcDbXrecord
 10
0.0
 20
0.0
 30
0.0
  0
XRECORD
  5
1D83
102
{ACAD_REACTORS
330
1D66
102
}
330
1D66
100
AcDbXrecord
 10
0.0
 20
0.0
 30
0.0
  0
XRECORD
  5
1D84
102
{ACAD_REACTORS
330
1D66
102
}
330
1D66
100
AcDbXrecord
 10
0.0
 20
0.0
 30
0.0
  0
XRECORD
  5
1D81
102
{ACAD_REACTORS
330
1D66
102
}
330
1D66
100
AcDbXrecord
 10
0.0
 20
0.0
 30
0.0
  0
XRECORD
  5
1D7E
102
{ACAD_REACTORS
330
1D66
102
}
330
1D66
100
AcDbXrecord
340
0
  0
XRECORD
  5
1D7F
102
{ACAD_REACTORS
330
1D66
102
}
330
1D66
100
AcDbXrecord
 70
     0
  0
XRECORD
  5
1D72
102
{ACAD_REACTORS
330
1D66
102
}
330
1D66
100
AcDbXrecord
  1
{1C4EFF14-49A7-4708-A98E-DF34C2969D83}
  0
DICTIONARYVAR
  5
103
102
{ACAD_REACTORS
330
102
102
}
330
102
100
DictionaryVariables
280
     0
  1
1
  0
ENDSEC
  0
EOF
