  0
SECTION
  2
HEADER
  9
$CLAYER
  8
1
  9
$LTSCALE
 40
3.0
  0
ENDSEC
  0
SECTION
  2
TABLES
  0
TABLE
  2
LTYPE
 70
     4
  0
LTYPE
  2
CONTINUOUS
  3
solid line
 70
    64
 72
    65
 73
     0
 40
0.0
  0
LTYPE
  2
DASHED
  3
__ __ __ __ __ __ __ __ __ __ __ __ __ __ __
 70
    64
 72
    65
 73
     2
 40
0.75
 49
0.5
 49
-0.25
  0
LTYPE
  2
CENTER
  3
____ _ ____ _ ____ _ ____ _ ____ _ ____ _ ____
 70
    64
 72
    65
 73
     4
 40
2.0
 49
1.25
 49
-0.25
 49
0.25
 49
-0.25
  0
LTYPE
  2
PHANTOM
  3
_____ _ _ _____ _ _ _____ _ _ _____ _ _ ____
 70
    64
 72
    65
 73
     6
 40
2.5
 49
1.25
 49
-0.25
 49
0.25
 49
-0.25
 49
0.25
 49
-0.25
  0
ENDTAB
  0
TABLE
  2
LAYER
 70
     1
  0
LAYER
  2
0
 70
    64
 62
     7
  6
CONTINUOUS
  0
ENDTAB
  0
TABLE
  2
STYLE
 70
     1
  0
STYLE
  2
STANDARD
 70
     0
 40
0.000000
 41
1.000000
 50
0.000000
 71
     0
 42
3.000000
  3
txt
  4
BIGFONT
  0
ENDTAB
  0
ENDSEC
  0
SECTION
  2
BLOCKS
  0
ENDSEC
  0
SECTION
  2
ENTITIES
  0
LINE
  8
0
  6
CENTER
 10
351.785126
 20
299.293762
 11
-10.322780
 21
299.293762
  0
LINE
  8
0
  6
CONTINUOUS
 10
227.799530
 20
242.043762
 11
225.299530
 21
242.043762
  0
LINE
  8
0
  6
CONTINUOUS
 10
229.816925
 20
356.543762
 11
225.299530
 21
356.543762
  0
LINE
  8
0
  6
CONTINUOUS
 10
232.549530
 20
242.043762
 11
225.299530
 21
242.043762
  0
LINE
  8
0
  6
CONTINUOUS
 10
234.003754
 20
267.293762
 11
225.299530
 21
267.293762
  0
LINE
  8
0
  6
CONTINUOUS
 10
232.566132
 20
251.793762
 11
225.299530
 21
251.793762
  0
LINE
  8
0
  6
CONTINUOUS
 10
230.659927
 20
346.793762
 11
225.299530
 21
346.793762
  0
LINE
  8
0
  6
CONTINUOUS
 10
225.299530
 20
331.293762
 11
342.088318
 21
331.293762
  0
LINE
  8
0
  6
CONTINUOUS
 10
230.816727
 20
355.561249
 11
231.154617
 21
336.206482
  0
ARC
  8
0
  6
CONTINUOUS
 10
229.816833
 20
355.543762
 40
1.000000
 50
1.000700
 51
90.000000
  0
ARC
  8
0
  6
CONTINUOUS
 10
236.153931
 20
336.293762
 40
5.000000
 50
-178.999802
 51
-90.000000
  0
LINE
  8
0
  6
CONTINUOUS
 10
225.299530
 20
356.793762
 11
225.299530
 21
241.793762
  0
LINE
  8
0
  6
CONTINUOUS
 10
347.049530
 20
241.293762
 11
233.049530
 21
241.293762
  0
LINE
  8
0
  6
CONTINUOUS
 10
270.049530
 20
331.293762
 11
270.049530
 21
254.096054
  0
LINE
  8
0
  6
CONTINUOUS
 10
310.049530
 20
331.293762
 11
310.049530
 21
254.096054
  0
LINE
  8
0
  6
CONTINUOUS
 10
343.587830
 20
329.833069
 11
345.571533
 21
254.096054
  0
ARC
  8
0
  6
CONTINUOUS
 10
342.088226
 20
329.793762
 40
1.500000
 50
1.500200
 51
90.000000
  0
LINE
  8
0
  6
CONTINUOUS
 10
234.049530
 20
253.293762
 11
345.761017
 21
253.293762
  0
LINE
  8
0
  6
CONTINUOUS
 10
233.049530
 20
252.293762
 11
233.049530
 21
241.293762
  0
LINE
  8
0
  6
CONTINUOUS
 10
347.049530
 20
241.293762
 11
346.760742
 21
252.319962
  0
ARC
  8
0
  6
CONTINUOUS
 10
345.761017
 20
252.293762
 40
1.000000
 50
1.500100
 51
90.000000
  0
ARC
  8
0
  6
CONTINUOUS
 10
346.570923
 20
254.122253
 40
1.000000
 50
-178.499603
 51
-113.891197
  0
ARC
  8
0
  6
CONTINUOUS
 10
232.549530
 20
241.543762
 40
0.500000
 50
0.000000
 51
90.000000
  0
LINE
  8
0
  6
CENTER
 10
189.022507
 20
57.618759
 11
257.243317
 21
57.618759
  0
LINE
  8
0
  6
CENTER
 10
290.049530
 20
153.200027
 11
290.049530
 21
-14.537500
  0
LINE
  8
0
  6
CENTER
 10
237.617493
 20
88.118759
 11
355.118408
 21
88.118759
  0
LINE
  8
0
  6
CONTINUOUS
 10
240.049454
 20
92.479462
 11
240.049454
 21
47.758072
  0
LINE
  8
0
  6
CONTINUOUS
 10
340.049622
 20
92.479424
 11
340.049622
 21
47.758072
  0
ARC
  8
0
  6
CONTINUOUS
 10
290.049530
 20
70.118774
 40
60.000000
 50
48.189621
 51
131.810394
  0
ARC
  8
0
  6
CONTINUOUS
 10
290.049530
 20
70.118774
 40
60.000000
 50
228.189697
 51
311.810303
  0
ARC
  8
0
  6
CONTINUOUS
 10
310.049622
 20
92.479424
 40
30.000000
 50
0.000000
 51
48.189629
  0
CIRCLE
  8
0
  6
CONTINUOUS
 10
290.049530
 20
88.118759
 40
27.500000
  0
ARC
  8
0
  6
CONTINUOUS
 10
290.049530
 20
88.118759
 40
31.750000
 50
7.552697
 51
172.447403
  0
ARC
  8
0
  6
CONTINUOUS
 10
273.299530
 20
46.618763
 40
20.600000
 50
172.447403
 51
270.000000
  0
ARC
  8
0
  6
CONTINUOUS
 10
306.799530
 20
46.618763
 40
20.600000
 50
-90.000000
 51
7.552700
  0
LINE
  8
0
  6
CONTINUOUS
 10
321.524200
 20
92.291924
 11
327.220825
 21
49.326389
  0
LINE
  8
0
  6
CONTINUOUS
 10
252.878128
 20
49.326351
 11
258.574951
 21
92.291862
  0
LINE
  8
0
  6
CONTINUOUS
 10
273.299530
 20
26.018761
 11
306.799530
 21
26.018761
  0
ARC
  8
0
  6
CONTINUOUS
 10
273.299530
 20
46.618763
 40
19.000000
 50
172.447601
 51
270.000000
  0
ARC
  8
0
  6
CONTINUOUS
 10
306.799530
 20
46.618763
 40
19.000000
 50
-90.000000
 51
7.552700
  0
ARC
  8
0
  6
CONTINUOUS
 10
290.049530
 20
88.118759
 40
30.150000
 50
-187.552597
 51
7.552697
  0
LINE
  8
0
  6
CONTINUOUS
 10
254.464325
 20
49.116055
 11
260.161133
 21
92.081581
  0
LINE
  8
0
  6
CONTINUOUS
 10
319.938019
 20
92.081596
 11
325.634796
 21
49.116089
  0
LINE
  8
0
  6
CONTINUOUS
 10
273.299530
 20
27.618759
 11
306.799530
 21
27.618759
  0
LINE
  8
0
  6
CONTINUOUS
 10
279.753143
 20
35.118759
 11
275.592743
 21
35.118759
  0
LINE
  8
0
  6
CONTINUOUS
 10
282.049530
 20
42.087513
 11
282.049530
 21
35.118759
  0
LINE
  8
0
  6
CONTINUOUS
 10
286.049530
 20
44.618763
 11
286.049530
 21
47.118763
  0
LINE
  8
0
  6
CONTINUOUS
 10
294.049530
 20
44.618763
 11
294.049530
 21
47.118763
  0
LINE
  8
0
  6
CONTINUOUS
 10
289.268341
 20
45.650013
 11
289.268341
 21
36.431259
  0
LINE
  8
0
  6
CONTINUOUS
 10
290.768341
 20
45.650013
 11
290.768341
 21
36.431259
  0
LINE
  8
0
  6
CONTINUOUS
 10
298.643341
 20
45.650013
 11
298.643341
 21
36.368759
  0
LINE
  8
0
  6
CONTINUOUS
 10
300.018341
 20
40.728138
 11
300.018341
 21
36.368759
  0
LINE
  8
0
  6
CONTINUOUS
 10
280.151550
 20
45.525013
 11
276.296539
 21
45.525013
  0
LINE
  8
0
  6
CONTINUOUS
 10
276.296539
 20
45.525013
 11
275.393341
 21
44.405018
  0
LINE
  8
0
  6
CONTINUOUS
 10
275.501953
 20
47.118763
 11
274.049530
 21
45.259007
  0
LINE
  8
0
  6
CONTINUOUS
 10
275.393341
 20
37.491699
 11
276.310944
 21
36.525002
  0
LINE
  8
0
  6
CONTINUOUS
 10
274.049530
 20
36.675941
 11
275.592743
 21
35.118759
  0
LINE
  8
0
  6
CONTINUOUS
 10
274.049530
 20
45.259007
 11
274.049530
 21
36.675941
  0
LINE
  8
0
  6
CONTINUOUS
 10
275.393341
 20
44.405018
 11
275.393341
 21
37.491699
  0
LINE
  8
0
  6
CONTINUOUS
 10
280.893341
 20
44.807911
 11
280.136353
 21
45.525013
  0
LINE
  8
0
  6
CONTINUOUS
 10
280.881317
 20
47.118763
 11
282.049530
 21
45.822269
  0
LINE
  8
0
  6
CONTINUOUS
 10
280.893341
 20
44.618763
 11
282.049530
 21
44.618763
  0
LINE
  8
0
  6
CONTINUOUS
 10
275.501953
 20
47.118763
 11
280.881317
 21
47.118763
  0
LINE
  8
0
  6
CONTINUOUS
 10
278.799530
 20
42.087513
 11
282.049530
 21
42.087513
  0
LINE
  8
0
  6
CONTINUOUS
 10
280.893341
 20
40.775017
 11
278.799530
 21
40.775017
  0
LINE
  8
0
  6
CONTINUOUS
 10
278.393341
 20
36.525002
 11
276.310944
 21
36.525002
  0
LINE
  8
0
  6
CONTINUOUS
 10
280.893341
 20
39.525017
 11
280.893341
 21
40.525017
  0
ARC
  8
0
  6
CONTINUOUS
 10
278.393341
 20
39.025009
 40
2.500000
 50
-89.999786
 51
0.000109
  0
LINE
  8
0
  6
CONTINUOUS
 10
280.893341
 20
36.075321
 11
280.893341
 21
35.118759
  0
LINE
  8
0
  6
CONTINUOUS
 10
282.049530
 20
45.822269
 11
282.049530
 21
44.618763
  0
LINE
  8
0
  6
CONTINUOUS
 10
280.893341
 20
40.775017
 11
280.893341
 21
39.025017
  0
LINE
  8
0
  6
CONTINUOUS
 10
278.799530
 20
42.087513
 11
278.799530
 21
40.775017
  0
LINE
  8
0
  6
CONTINUOUS
 10
280.893341
 20
35.118759
 11
282.049530
 21
35.118759
  0
LINE
  8
0
  6
CONTINUOUS
 10
280.893341
 20
36.075321
 11
279.753143
 21
35.118759
  0
LINE
  8
0
  6
CONTINUOUS
 10
290.768341
 20
36.431259
 11
291.268341
 21
36.431259
  0
LINE
  8
0
  6
CONTINUOUS
 10
288.674530
 20
36.431259
 11
288.674530
 21
35.118759
  0
LINE
  8
0
  6
CONTINUOUS
 10
291.268341
 20
36.431259
 11
291.268341
 21
35.118759
  0
LINE
  8
0
  6
CONTINUOUS
 10
293.215118
 20
44.618763
 11
294.049530
 21
44.618763
  0
LINE
  8
0
  6
CONTINUOUS
 10
286.049530
 20
44.618763
 11
286.937531
 21
44.618763
  0
LINE
  8
0
  6
CONTINUOUS
 10
286.049530
 20
47.118763
 11
294.049530
 21
47.118763
  0
LINE
  8
0
  6
CONTINUOUS
 10
288.674530
 20
35.118759
 11
291.268341
 21
35.118759
  0
LINE
  8
0
  6
CONTINUOUS
 10
288.674530
 20
36.431259
 11
289.268341
 21
36.431259
  0
ARC
  8
0
  6
CONTINUOUS
 10
302.846344
 20
43.915638
 40
3.203126
 50
-73.981873
 51
90.003510
  0
ARC
  8
0
  6
CONTINUOUS
 10
302.846344
 20
43.915638
 40
1.954124
 50
-82.585274
 51
62.411850
  0
LINE
  8
0
  6
CONTINUOUS
 10
298.049530
 20
47.118763
 11
302.846344
 21
47.118763
  0
LINE
  8
0
  6
CONTINUOUS
 10
303.098541
 20
41.977852
 11
300.018341
 21
41.977852
  0
LINE
  8
0
  6
CONTINUOUS
 10
298.049530
 20
47.118763
 11
298.049530
 21
45.650013
  0
LINE
  8
0
  6
CONTINUOUS
 10
300.018341
 20
45.650013
 11
300.018341
 21
41.977852
  0
LINE
  8
0
  6
CONTINUOUS
 10
303.730316
 20
40.836872
 11
305.712738
 21
36.368759
  0
LINE
  8
0
  6
CONTINUOUS
 10
302.578766
 20
40.728138
 11
304.454926
 21
36.368759
  0
LINE
  8
0
  6
CONTINUOUS
 10
298.049530
 20
36.368759
 11
298.643341
 21
36.368759
  0
LINE
  8
0
  6
CONTINUOUS
 10
300.018341
 20
36.368759
 11
300.565125
 21
36.368759
  0
LINE
  8
0
  6
CONTINUOUS
 10
300.565125
 20
35.118759
 11
298.049530
 21
35.118759
  0
LINE
  8
0
  6
CONTINUOUS
 10
304.205719
 20
36.368759
 11
304.454926
 21
36.368759
  0
LINE
  8
0
  6
CONTINUOUS
 10
304.205719
 20
35.118759
 11
306.049530
 21
35.118759
  0
LINE
  8
0
  6
CONTINUOUS
 10
304.205719
 20
36.368759
 11
304.205719
 21
35.118759
  0
LINE
  8
0
  6
CONTINUOUS
 10
300.565125
 20
36.368759
 11
300.565125
 21
35.118759
  0
LINE
  8
0
  6
CONTINUOUS
 10
298.049530
 20
36.368759
 11
298.049530
 21
35.118759
  0
LINE
  8
0
  6
CONTINUOUS
 10
287.367340
 20
45.650013
 11
286.937531
 21
44.618763
  0
LINE
  8
0
  6
CONTINUOUS
 10
292.852753
 20
45.650013
 11
293.215118
 21
44.618763
  0
LINE
  8
0
  6
CONTINUOUS
 10
290.768341
 20
45.650013
 11
292.852753
 21
45.650013
  0
LINE
  8
0
  6
CONTINUOUS
 10
289.268341
 20
45.650013
 11
287.367340
 21
45.650013
  0
LINE
  8
0
  6
CONTINUOUS
 10
300.018341
 20
40.728138
 11
302.578766
 21
40.728138
  0
LINE
  8
0
  6
CONTINUOUS
 10
298.049530
 20
45.650013
 11
298.643341
 21
45.650013
  0
LINE
  8
0
  6
CONTINUOUS
 10
300.018341
 20
45.650013
 11
303.751343
 21
45.647587
  0
LINE
  8
0
  6
CONTINUOUS
 10
280.893341
 20
44.807911
 11
280.893341
 21
44.618763
  0
ARC
  8
0
  6
CONTINUOUS
 10
270.049530
 20
92.479462
 40
30.000000
 50
131.810394
 51
180.000000
  0
ARC
  8
0
  6
CONTINUOUS
 10
270.049530
 20
47.758072
 40
30.000000
 50
180.000000
 51
228.189697
  0
LINE
  8
0
  6
CONTINUOUS
 10
225.299545
 20
114.868736
 11
233.049454
 21
114.868736
  0
LINE
  8
0
  6
CONTINUOUS
 10
230.863907
 20
0.368740
 11
225.299545
 21
0.368740
  0
LINE
  8
0
  6
CONTINUOUS
 10
231.846329
 20
105.118736
 11
225.299545
 21
105.118736
  0
LINE
  8
0
  6
CONTINUOUS
 10
225.299545
 20
10.118740
 11
233.049454
 21
10.118740
  0
LINE
  8
0
  6
CONTINUOUS
 10
231.846329
 20
89.578781
 11
225.299545
 21
89.578781
  0
LINE
  8
0
  6
CONTINUOUS
 10
231.846329
 20
25.658779
 11
225.299545
 21
25.658779
  0
LINE
  8
0
  6
CENTER
 10
236.402573
 20
130.118759
 11
253.699524
 21
130.118759
  0
LINE
  8
0
  6
CENTER
 10
326.487213
 20
130.118759
 11
351.068420
 21
130.118759
  0
LINE
  8
0
  6
CENTER
 10
235.256485
 20
10.118740
 11
253.868134
 21
10.118740
  0
LINE
  8
0
  6
CENTER
 10
325.924622
 20
10.118740
 11
350.730804
 21
10.118740
  0
LINE
  8
0
  6
CENTER
 10
335.049622
 20
139.278152
 11
335.049622
 21
121.137497
  0
LINE
  8
0
  6
CENTER
 10
245.049454
 20
139.025040
 11
245.049454
 21
121.559357
  0
LINE
  8
0
  6
CENTER
 10
245.049454
 20
19.296860
 11
245.049454
 21
-7.112480
  0
LINE
  8
0
  6
CENTER
 10
335.049622
 20
19.465639
 11
335.049622
 21
-6.437500
  0
CIRCLE
  8
0
  6
CONTINUOUS
 10
335.049622
 20
130.118759
 40
5.500000
  0
CIRCLE
  8
0
  6
CONTINUOUS
 10
245.049454
 20
130.118759
 40
5.500000
  0
CIRCLE
  8
0
  6
CONTINUOUS
 10
245.049454
 20
10.118740
 40
5.500000
  0
CIRCLE
  8
0
  6
CONTINUOUS
 10
335.049622
 20
10.118740
 40
5.500000
  0
ARC
  8
0
  6
CONTINUOUS
 10
335.049622
 20
130.118759
 40
12.000000
 50
0.000000
 51
90.000000
  0
ARC
  8
0
  6
CONTINUOUS
 10
245.049454
 20
130.118759
 40
12.000000
 50
90.000000
 51
180.000000
  0
ARC
  8
0
  6
CONTINUOUS
 10
245.049454
 20
10.118740
 40
12.000000
 50
180.000000
 51
270.000000
  0
ARC
  8
0
  6
CONTINUOUS
 10
335.049622
 20
10.118740
 40
12.000000
 50
-90.000000
 51
0.000000
  0
LINE
  8
0
  6
CONTINUOUS
 10
335.049622
 20
142.118759
 11
245.049454
 21
142.118759
  0
LINE
  8
0
  6
CONTINUOUS
 10
245.049530
 20
-1.881260
 11
335.049622
 21
-1.881260
  0
LINE
  8
0
  6
CONTINUOUS
 10
347.049622
 20
130.118759
 11
347.049622
 21
10.118740
  0
LINE
  8
0
  6
CONTINUOUS
 10
233.049454
 20
130.118713
 11
233.049454
 21
10.118720
  0
LINE
  8
0
  6
CONTINUOUS
 10
318.049622
 20
3.118740
 11
262.049530
 21
3.118740
  0
LINE
  8
0
  6
CONTINUOUS
 10
262.049530
 20
137.118759
 11
318.049622
 21
137.118759
  0
LINE
  8
0
  6
CONTINUOUS
 10
342.049622
 20
113.118736
 11
342.049622
 21
27.118759
  0
LINE
  8
0
  6
CONTINUOUS
 10
238.049454
 20
113.118736
 11
238.049454
 21
27.118759
  0
ARC
  8
0
  6
CONTINUOUS
 10
335.049622
 20
130.118759
 40
11.000000
 50
180.000000
 51
270.000000
  0
ARC
  8
0
  6
CONTINUOUS
 10
245.049454
 20
130.118759
 40
11.000000
 50
-90.000000
 51
0.000000
  0
ARC
  8
0
  6
CONTINUOUS
 10
245.049454
 20
10.118740
 40
11.000000
 50
0.000000
 51
90.000000
  0
ARC
  8
0
  6
CONTINUOUS
 10
335.049622
 20
10.118740
 40
11.000000
 50
90.000000
 51
180.000000
  0
LINE
  8
0
  6
CONTINUOUS
 10
244.049454
 20
21.118740
 11
245.049454
 21
21.118740
  0
LINE
  8
0
  6
CONTINUOUS
 10
256.049530
 20
9.118740
 11
256.049530
 21
10.118740
  0
ARC
  8
0
  6
CONTINUOUS
 10
244.049454
 20
27.118759
 40
6.000000
 50
180.000000
 51
270.000000
  0
ARC
  8
0
  6
CONTINUOUS
 10
262.049530
 20
9.118740
 40
6.000000
 50
180.000000
 51
270.000000
  0
LINE
  8
0
  6
CONTINUOUS
 10
336.049622
 20
21.118740
 11
335.049622
 21
21.118740
  0
LINE
  8
0
  6
CONTINUOUS
 10
324.049622
 20
9.118740
 11
324.049622
 21
10.118720
  0
ARC
  8
0
  6
CONTINUOUS
 10
336.049622
 20
27.118759
 40
6.000000
 50
-90.000000
 51
0.000000
  0
ARC
  8
0
  6
CONTINUOUS
 10
318.049622
 20
9.118740
 40
6.000000
 50
-90.000000
 51
0.000000
  0
LINE
  8
0
  6
CONTINUOUS
 10
336.049622
 20
119.118736
 11
335.049622
 21
119.118736
  0
LINE
  8
0
  6
CONTINUOUS
 10
324.049622
 20
131.118759
 11
324.049622
 21
130.118713
  0
ARC
  8
0
  6
CONTINUOUS
 10
318.049622
 20
131.118759
 40
6.000000
 50
0.000000
 51
90.000000
  0
ARC
  8
0
  6
CONTINUOUS
 10
336.049622
 20
113.118736
 40
6.000000
 50
0.000000
 51
90.000000
  0
LINE
  8
0
  6
CONTINUOUS
 10
244.049454
 20
119.118736
 11
245.049454
 21
119.118736
  0
LINE
  8
0
  6
CONTINUOUS
 10
256.049530
 20
131.118759
 11
256.049530
 21
130.118759
  0
ARC
  8
0
  6
CONTINUOUS
 10
262.049530
 20
131.118820
 40
6.000000
 50
90.000000
 51
180.000000
  0
ARC
  8
0
  6
CONTINUOUS
 10
244.049484
 20
113.118797
 40
6.000000
 50
90.000000
 51
180.000000
  0
LINE
  8
0
  6
CONTINUOUS
 10
231.861664
 20
1.302240
 11
232.412109
 21
9.558660
  0
ARC
  8
0
  6
CONTINUOUS
 10
233.010818
 20
9.518760
 40
0.600000
 50
90.000000
 51
176.186096
  0
ARC
  8
0
  6
CONTINUOUS
 10
230.863907
 20
1.368740
 40
1.000000
 50
270.000000
 51
356.185791
  0
ARC
  8
0
  6
CONTINUOUS
 10
310.049622
 20
47.758087
 40
30.000000
 50
-48.189449
 51
0.000000
  0
LINE
  8
0
  6
CONTINUOUS
 10
297.549530
 20
85.118759
 11
297.549530
 21
91.118736
  0
LINE
  8
0
  6
CONTINUOUS
 10
303.549530
 20
85.118721
 11
303.549530
 21
91.118721
  0
LINE
  8
0
  6
CONTINUOUS
 10
303.549530
 20
85.118721
 11
297.549530
 21
85.118759
  0
LINE
  8
0
  6
CONTINUOUS
 10
303.549530
 20
91.118721
 11
297.549530
 21
91.118736
  0
ARC
  8
0
  6
CONTINUOUS
 10
290.049530
 20
88.118759
 40
11.000000
 50
-344.173401
 51
-15.826600
  0
LINE
  8
0
  6
CONTINUOUS
 10
225.299545
 20
115.118759
 11
225.299545
 21
0.118760
  0
LINE
  8
0
  6
CENTER
 10
513.043335
 20
-19.427460
 11
513.043335
 21
151.316727
  0
LINE
  8
0
  6
CENTER
 10
441.076752
 20
57.618759
 11
579.303162
 21
57.618759
  0
LINE
  8
0
  6
CENTER
 10
410.043549
 20
88.118759
 11
611.886169
 21
88.118759
  0
LINE
  8
0
  6
CONTINUOUS
 10
455.043549
 20
77.118759
 11
455.043549
 21
-1.881260
  0
LINE
  8
0
  6
CONTINUOUS
 10
467.043549
 20
118.368736
 11
467.043549
 21
140.118759
  0
LINE
  8
0
  6
CONTINUOUS
 10
465.125366
 20
142.118759
 11
455.043549
 21
142.118759
  0
LINE
  8
0
  6
CONTINUOUS
 10
465.125366
 20
-1.881220
 11
455.043549
 21
-1.881220
  0
LINE
  8
0
  6
CONTINUOUS
 10
545.043335
 20
8.601440
 11
545.043335
 21
131.636078
  0
LINE
  8
0
  6
CONTINUOUS
 10
544.061157
 20
132.635941
 11
469.008759
 21
133.945633
  0
LINE
  8
0
  6
CONTINUOUS
 10
544.061157
 20
7.601620
 11
469.008759
 21
6.291300
  0
LINE
  8
0
  6
CONTINUOUS
 10
471.600159
 20
110.118736
 11
543.976135
 21
110.118736
  0
LINE
  8
0
  6
CONTINUOUS
 10
468.952576
 20
30.118759
 11
543.653137
 21
30.118759
  0
LINE
  8
0
  6
CONTINUOUS
 10
467.540161
 20
-0.028260
 11
468.649353
 21
4.111580
  0
LINE
  8
0
  6
CONTINUOUS
 10
467.540161
 20
140.265839
 11
468.649567
 21
136.125320
  0
ARC
  8
0
  6
CONTINUOUS
 10
471.547363
 20
136.901840
 40
3.000000
 50
195.000702
 51
269.000488
  0
ARC
  8
0
  6
CONTINUOUS
 10
465.043549
 20
140.118759
 40
2.000000
 50
0.000000
 51
90.000000
  0
ARC
  8
0
  6
CONTINUOUS
 10
469.043549
 20
135.945358
 40
2.000000
 50
180.000000
 51
269.000610
  0
ARC
  8
0
  6
CONTINUOUS
 10
471.547150
 20
3.335140
 40
3.000000
 50
91.000526
 51
165.000305
  0
ARC
  8
0
  6
CONTINUOUS
 10
469.043549
 20
4.291620
 40
2.000000
 50
91.000633
 51
180.000000
  0
ARC
  8
0
  6
CONTINUOUS
 10
465.043549
 20
0.118780
 40
2.000000
 50
-90.000000
 51
0.000000
  0
ARC
  8
0
  6
CONTINUOUS
 10
544.043335
 20
131.636078
 40
1.000000
 50
0.000000
 51
89.000359
  0
ARC
  8
0
  6
CONTINUOUS
 10
544.043335
 20
8.601440
 40
1.000000
 50
-88.999573
 51
0.000000
  0
LINE
  8
0
  6
CENTER
 10
449.549774
 20
130.118759
 11
472.186371
 21
130.118759
  0
LINE
  8
0
  6
CENTER
 10
449.549774
 20
10.118740
 11
472.186371
 21
10.118740
  0
LINE
  8
0
  6
DASHED
 10
455.043549
 20
135.618759
 11
467.043549
 21
135.618759
  0
LINE
  8
0
  6
DASHED
 10
455.043549
 20
124.618759
 11
467.043549
 21
124.618759
  0
LINE
  8
0
  6
DASHED
 10
455.043549
 20
15.618740
 11
467.043549
 21
15.618740
  0
LINE
  8
0
  6
DASHED
 10
455.043549
 20
4.618740
 11
467.043549
 21
4.618740
  0
LINE
  8
0
  6
CONTINUOUS
 10
561.043335
 20
62.925911
 11
561.043335
 21
113.311600
  0
LINE
  8
0
  6
CONTINUOUS
 10
551.043335
 20
29.923599
 11
551.043335
 21
90.188744
  0
LINE
  8
0
  6
CONTINUOUS
 10
558.813782
 20
116.211037
 11
547.273560
 21
119.276443
  0
LINE
  8
0
  6
CONTINUOUS
 10
558.813782
 20
60.026463
 11
553.273132
 21
58.554806
  0
LINE
  8
0
  6
CONTINUOUS
 10
548.816589
 20
27.024920
 11
547.270569
 21
26.612619
  0
ARC
  8
0
  6
CONTINUOUS
 10
558.043335
 20
113.311600
 40
3.000000
 50
0.000000
 51
75.124413
  0
ARC
  8
0
  6
CONTINUOUS
 10
558.043335
 20
62.925911
 40
3.000000
 50
-75.124207
 51
0.000000
  0
ARC
  8
0
  6
CONTINUOUS
 10
548.043335
 20
29.923599
 40
3.000000
 50
-75.068420
 51
0.000000
  0
ARC
  8
0
  6
CONTINUOUS
 10
548.043335
 20
122.175919
 40
3.000000
 50
180.000000
 51
255.124603
  0
ARC
  8
0
  6
CONTINUOUS
 10
554.043335
 20
55.655365
 40
3.000000
 50
104.876099
 51
180.000000
  0
ARC
  8
0
  6
CONTINUOUS
 10
548.043335
 20
23.713921
 40
3.000000
 50
104.931801
 51
180.000000
  0
LINE
  8
0
  6
CONTINUOUS
 10
560.543335
 20
15.118740
 11
560.543335
 21
24.170099
  0
LINE
  8
0
  6
CONTINUOUS
 10
555.543335
 20
10.118740
 11
546.492371
 21
10.118740
  0
ARC
  8
0
  6
CONTINUOUS
 10
513.043335
 20
57.618759
 40
57.250000
 50
-32.501888
 51
19.914110
  0
ARC
  8
0
  6
CONTINUOUS
 10
513.043335
 20
57.618759
 40
57.250000
 50
243.004898
 51
298.995514
  0
ARC
  8
0
  6
CONTINUOUS
 10
555.543335
 20
15.118740
 40
5.000000
 50
-90.000000
 51
0.000000
  0
ARC
  8
0
  6
CONTINUOUS
 10
565.543335
 20
24.170099
 40
5.000000
 50
147.498093
 51
180.000000
  0
ARC
  8
0
  6
CONTINUOUS
 10
546.492371
 20
5.118740
 40
5.000000
 50
90.000000
 51
106.842003
  0
LINE
  8
0
  6
CONTINUOUS
 10
465.043549
 20
62.925907
 11
465.043549
 21
113.311600
  0
LINE
  8
0
  6
CONTINUOUS
 10
467.273560
 20
60.026451
 11
470.074768
 21
59.282368
  0
LINE
  8
0
  6
CONTINUOUS
 10
467.273560
 20
116.211037
 11
469.097168
 21
116.695480
  0
ARC
  8
0
  6
CONTINUOUS
 10
468.043762
 20
113.311600
 40
3.000000
 50
104.876099
 51
180.000000
  0
ARC
  8
0
  6
CONTINUOUS
 10
468.043549
 20
62.925926
 40
3.000000
 50
180.000000
 51
255.124603
  0
LINE
  8
0
  6
CONTINUOUS
 10
472.543549
 20
107.868736
 11
474.043549
 21
101.618736
  0
LINE
  8
0
  6
CONTINUOUS
 10
474.043549
 20
101.618736
 11
473.043549
 21
96.118736
  0
LINE
  8
0
  6
CONTINUOUS
 10
473.043549
 20
96.118736
 11
475.293549
 21
90.368736
  0
LINE
  8
0
  6
CONTINUOUS
 10
475.293549
 20
90.368736
 11
473.543549
 21
84.618759
  0
LINE
  8
0
  6
CONTINUOUS
 10
473.543549
 20
84.618759
 11
471.543549
 21
79.618759
  0
LINE
  8
0
  6
CONTINUOUS
 10
471.543549
 20
79.618759
 11
472.043549
 21
70.868759
  0
LINE
  8
0
  6
CONTINUOUS
 10
472.043549
 20
70.868759
 11
470.793549
 21
66.368759
  0
LINE
  8
0
  6
CONTINUOUS
 10
470.793549
 20
66.368759
 11
470.793549
 21
61.618759
  0
LINE
  8
0
  6
CONTINUOUS
 10
470.793549
 20
61.618759
 11
468.793549
 21
55.118759
  0
LINE
  8
0
  6
CONTINUOUS
 10
468.793549
 20
55.118759
 11
469.043549
 21
51.118759
  0
LINE
  8
0
  6
CONTINUOUS
 10
469.043549
 20
51.118759
 11
468.043549
 21
46.743759
  0
LINE
  8
0
  6
CONTINUOUS
 10
468.043549
 20
46.743759
 11
464.543549
 21
44.118759
  0
LINE
  8
0
  6
CONTINUOUS
 10
464.543549
 20
44.118759
 11
461.918549
 21
40.868763
  0
LINE
  8
0
  6
CONTINUOUS
 10
461.918549
 20
40.868763
 11
459.043549
 21
39.118763
  0
LINE
  8
0
  6
CONTINUOUS
 10
459.043549
 20
39.118763
 11
456.668549
 21
36.993759
  0
LINE
  8
0
  6
CONTINUOUS
 10
456.668549
 20
36.993759
 11
455.043549
 21
36.622341
  0
LINE
  8
0
  6
CONTINUOUS
 10
464.918549
 20
119.993736
 11
461.418549
 21
120.868736
  0
LINE
  8
0
  6
CONTINUOUS
 10
461.418549
 20
120.868736
 11
458.043549
 21
121.493736
  0
LINE
  8
0
  6
CONTINUOUS
 10
458.043549
 20
121.493736
 11
455.043549
 21
122.493759
  0
LINE
  8
0
  6
CONTINUOUS
 10
455.043549
 20
142.118759
 11
455.043549
 21
99.118736
  0
LINE
  8
0
  6
CONTINUOUS
 10
467.043549
 20
0.118780
 11
467.043549
 21
45.993759
  0
LINE
  8
0
  6
CONTINUOUS
 10
464.918549
 20
119.993736
 11
467.043549
 21
118.368736
  0
LINE
  8
0
  6
CONTINUOUS
 10
467.043549
 20
118.368736
 11
470.418549
 21
115.618736
  0
LINE
  8
0
  6
CONTINUOUS
 10
470.418549
 20
115.618736
 11
470.918549
 21
111.743736
  0
LINE
  8
0
  6
CONTINUOUS
 10
470.918549
 20
111.743736
 11
472.543549
 21
107.868736
  0
LINE
  8
0
  6
CONTINUOUS
 10
462.043549
 20
77.118759
 11
462.043549
 21
41.023521
  0
LINE
  8
0
  6
CONTINUOUS
 10
462.043549
 20
120.712517
 11
462.043549
 21
99.118736
  0
LINE
  8
0
  6
CONTINUOUS
 10
603.043335
 20
77.118759
 11
603.043335
 21
99.118736
  0
LINE
  8
0
  6
CONTINUOUS
 10
563.043335
 20
99.118736
 11
603.043335
 21
99.118736
  0
LINE
  8
0
  6
CONTINUOUS
 10
563.043335
 20
77.118759
 11
603.043335
 21
77.118759
  0
LINE
  8
0
  6
CONTINUOUS
 10
563.043335
 20
100.618736
 11
563.043335
 21
75.618759
  0
LINE
  8
0
  6
CONTINUOUS
 10
561.043335
 20
100.618736
 11
563.043335
 21
100.618736
  0
LINE
  8
0
  6
CONTINUOUS
 10
561.043335
 20
75.618759
 11
563.043335
 21
75.618759
  0
ARC
  8
0
  6
CONTINUOUS
 10
571.043335
 20
88.118759
 40
3.000000
 50
90.000000
 51
270.000000
  0
LINE
  8
0
  6
CONTINUOUS
 10
571.043335
 20
91.118736
 11
603.043335
 21
91.118736
  0
LINE
  8
0
  6
CONTINUOUS
 10
571.043335
 20
85.118759
 11
603.043335
 21
85.118759
  0
LINE
  8
0
  6
CONTINUOUS
 10
423.043762
 20
77.118759
 11
423.043762
 21
99.118736
  0
LINE
  8
0
  6
CONTINUOUS
 10
463.043762
 20
99.118736
 11
423.043762
 21
99.118736
  0
LINE
  8
0
  6
CONTINUOUS
 10
463.043762
 20
77.118759
 11
423.043762
 21
77.118759
  0
LINE
  8
0
  6
CONTINUOUS
 10
463.043762
 20
100.618736
 11
463.043762
 21
75.618759
  0
LINE
  8
0
  6
CONTINUOUS
 10
465.043762
 20
100.618736
 11
463.043762
 21
100.618736
  0
LINE
  8
0
  6
CONTINUOUS
 10
465.043762
 20
75.618759
 11
463.043762
 21
75.618759
  0
ARC
  8
0
  6
CONTINUOUS
 10
455.043762
 20
88.118759
 40
3.000000
 50
-90.000000
 51
90.000000
  0
LINE
  8
0
  6
CONTINUOUS
 10
455.043762
 20
91.118736
 11
423.043762
 21
91.118736
  0
LINE
  8
0
  6
CONTINUOUS
 10
455.043762
 20
85.118759
 11
423.043762
 21
85.118759
  0
ARC
  8
0
  6
CONTINUOUS
 10
465.125366
 20
139.618759
 40
2.500000
 50
15.000760
 51
90.000000
  0
ARC
  8
0
  6
CONTINUOUS
 10
465.125366
 20
0.618780
 40
2.500000
 50
270.000000
 51
345.000214
  0
ARC
  8
0
  6
CONTINUOUS
 10
513.043335
 20
57.618759
 40
57.499821
 50
303.815704
 51
303.996307
  0
ARC
  8
0
  6
CONTINUOUS
 10
513.043335
 20
57.618759
 40
57.500000
 50
242.540298
 51
299.460602
  0
ARC
  8
0
  6
CONTINUOUS
 10
513.043335
 20
57.618759
 40
57.500000
 50
-33.996769
 51
19.823891
  0
ARC
  8
0
  6
CONTINUOUS
 10
513.043335
 20
57.618759
 40
57.500000
 50
303.815613
 51
303.997314
  0
LINE
  8
0
  6
CONTINUOUS
 10
236.511230
 20
329.833038
 11
236.308517
 21
322.093750
  0
ARC
  8
0
  6
CONTINUOUS
 10
238.010712
 20
329.793762
 40
1.500000
 50
90.000000
 51
178.499649
  0
ARC
  8
0
  6
CONTINUOUS
 10
234.049530
 20
252.293762
 40
1.000000
 50
90.000000
 51
180.000000
  0
ARC
  8
0
  6
CONTINUOUS
 10
233.530579
 20
254.225250
 40
1.000000
 50
285.039185
 51
358.499664
  0
LINE
  8
0
  6
CENTER
 10
290.049530
 20
395.495453
 11
290.049530
 21
199.069809
  0
LINE
  8
0
  6
CONTINUOUS
 10
264.856689
 20
347.293762
 11
315.242371
 21
347.293762
  0
LINE
  8
0
  6
CONTINUOUS
 10
320.205780
 20
337.293762
 11
323.492615
 21
337.293762
  0
ARC
  8
0
  6
CONTINUOUS
 10
315.242371
 20
344.293762
 40
3.000000
 50
-345.124329
 51
-270.000000
  0
LINE
  8
0
  6
CONTINUOUS
 10
326.392090
 20
335.063934
 11
326.801239
 21
333.523590
  0
ARC
  8
0
  6
CONTINUOUS
 10
323.492615
 20
334.293762
 40
3.000000
 50
-345.124329
 51
-270.000000
  0
ARC
  8
0
  6
CONTINUOUS
 10
329.700684
 20
334.293762
 40
3.000000
 50
-165.124313
 51
-90.000000
  0
LINE
  8
0
  6
CONTINUOUS
 10
320.205780
 20
337.293762
 11
318.141846
 21
345.063934
  0
LINE
  8
0
  6
CONTINUOUS
 10
253.706985
 20
335.063934
 11
253.297836
 21
333.523590
  0
ARC
  8
0
  6
CONTINUOUS
 10
256.606445
 20
334.293762
 40
3.000000
 50
90.000000
 51
165.124313
  0
ARC
  8
0
  6
CONTINUOUS
 10
250.398376
 20
334.293762
 40
3.000000
 50
-90.000000
 51
-14.875682
  0
LINE
  8
0
  6
CONTINUOUS
 10
259.893280
 20
337.293762
 11
256.606445
 21
337.293762
  0
ARC
  8
0
  6
CONTINUOUS
 10
264.856689
 20
344.293762
 40
3.000000
 50
90.000000
 51
165.124313
  0
LINE
  8
0
  6
CONTINUOUS
 10
259.893280
 20
337.293762
 11
261.957245
 21
345.063934
  0
LINE
  8
0
  6
CONTINUOUS
 10
279.049530
 20
209.293762
 11
303.549530
 21
209.293762
  0
LINE
  8
0
  6
CONTINUOUS
 10
279.049530
 20
241.293762
 11
279.049530
 21
209.293762
  0
LINE
  8
0
  6
CONTINUOUS
 10
303.549530
 20
241.293762
 11
303.549530
 21
209.293762
  0
LINE
  8
0
  6
CONTINUOUS
 10
300.632538
 20
209.293762
 11
300.632538
 21
241.293762
  0
LINE
  8
0
  6
CONTINUOUS
 10
279.049530
 20
389.293762
 11
303.549530
 21
389.293762
  0
LINE
  8
0
  6
CONTINUOUS
 10
301.049530
 20
349.293762
 11
301.049530
 21
354.293762
  0
LINE
  8
0
  6
CONTINUOUS
 10
279.049530
 20
349.293762
 11
279.049530
 21
389.293762
  0
LINE
  8
0
  6
CONTINUOUS
 10
302.549530
 20
347.293762
 11
302.549530
 21
349.293762
  0
LINE
  8
0
  6
CONTINUOUS
 10
277.549530
 20
347.293762
 11
277.549530
 21
349.293762
  0
LINE
  8
0
  6
CONTINUOUS
 10
277.549530
 20
349.293762
 11
302.549530
 21
349.293762
  0
LINE
  8
0
  6
CONTINUOUS
 10
303.549530
 20
354.293762
 11
303.549530
 21
389.293762
  0
LINE
  8
0
  6
CONTINUOUS
 10
300.632538
 20
389.293762
 11
300.632538
 21
354.293762
  0
LINE
  8
0
  6
CONTINUOUS
 10
300.632538
 20
354.293762
 11
303.549530
 21
354.293762
  0
ARC
  8
0
  6
CONTINUOUS
 10
174.865112
 20
300.887451
 40
65.000000
 50
-22.042076
 51
19.041388
  0
LINE
  8
0
  6
CONTINUOUS
 10
235.114166
 20
276.493774
 11
234.530228
 21
254.199081
  0
LINE
  8
0
  6
CONTINUOUS
 10
59.299530
 20
84.618736
 11
173.299530
 21
84.618736
  0
LINE
  8
0
  6
CONTINUOUS
 10
59.299530
 20
8.618780
 11
173.299530
 21
8.618780
  0
LINE
  8
0
  6
CONTINUOUS
 10
59.299530
 20
76.867737
 11
165.299530
 21
76.867737
  0
LINE
  8
0
  6
CONTINUOUS
 10
59.299530
 20
16.369780
 11
165.299530
 21
16.369780
  0
LINE
  8
0
  6
CONTINUOUS
 10
165.299530
 20
82.618736
 11
165.299530
 21
10.618760
  0
ARC
  8
0
  6
CONTINUOUS
 10
167.299530
 20
82.618759
 40
2.000000
 50
90.000000
 51
180.000000
  0
ARC
  8
0
  6
CONTINUOUS
 10
167.299530
 20
10.618780
 40
2.000000
 50
180.000000
 51
270.000000
  0
LINE
  8
0
  6
CONTINUOUS
 10
214.886780
 20
86.071022
 11
173.299530
 21
84.618759
  0
LINE
  8
0
  6
CONTINUOUS
 10
225.299530
 20
6.802880
 11
173.299530
 21
8.618760
  0
LINE
  8
0
  6
CONTINUOUS
 10
217.299530
 20
114.118759
 11
217.299530
 21
87.118759
  0
LINE
  8
0
  6
CONTINUOUS
 10
218.299530
 20
115.118759
 11
225.299545
 21
115.118759
  0
LINE
  8
0
  6
CONTINUOUS
 10
219.799530
 20
0.118760
 11
225.299530
 21
0.118760
  0
LINE
  8
0
  6
CONTINUOUS
 10
217.299530
 20
87.618759
 11
217.299530
 21
16.706104
  0
LINE
  8
0
  6
CONTINUOUS
 10
173.299530
 20
84.618759
 11
173.299530
 21
8.618760
  0
LINE
  8
0
  6
CONTINUOUS
 10
215.886398
 20
97.936562
 11
189.942978
 21
85.412155
  0
ARC
  8
0
  6
CONTINUOUS
 10
218.299530
 20
114.118759
 40
1.000000
 50
90.000000
 51
180.000000
  0
ARC
  8
0
  6
CONTINUOUS
 10
214.799530
 20
100.187943
 40
2.500000
 50
-64.230675
 51
0.000000
  0
ARC
  8
0
  6
CONTINUOUS
 10
214.799530
 20
88.569496
 40
2.500000
 50
-88.000000
 51
0.000000
  0
ARC
  8
0
  6
CONTINUOUS
 10
188.856110
 20
87.663528
 40
2.500000
 50
272.000000
 51
295.769318
  0
LINE
  8
0
  6
CONTINUOUS
 10
218.424606
 20
14.464760
 11
225.299530
 21
14.464760
  0
LINE
  8
0
  6
CONTINUOUS
 10
217.299530
 20
2.618760
 11
217.299530
 21
4.668024
  0
ARC
  8
0
  6
CONTINUOUS
 10
219.799530
 20
2.618760
 40
2.500000
 50
180.000000
 51
270.000000
  0
ARC
  8
0
  6
CONTINUOUS
 10
214.799530
 20
4.668024
 40
2.500000
 50
0.000000
 51
88.000000
  0
LINE
  8
0
  6
CENTER
 10
-10.837500
 20
46.618759
 11
258.049530
 21
46.618759
  0
LINE
  8
0
  6
CONTINUOUS
 10
219.799530
 20
241.793762
 11
225.299530
 21
241.793762
  0
LINE
  8
0
  6
CONTINUOUS
 10
219.799530
 20
356.793762
 11
225.299530
 21
356.793762
  0
LINE
  8
0
  6
CONTINUOUS
 10
217.299530
 20
244.293762
 11
217.299530
 21
354.293762
  0
LINE
  8
0
  6
CONTINUOUS
 10
173.299530
 20
337.293762
 11
173.299530
 21
261.293762
  0
LINE
  8
0
  6
CONTINUOUS
 10
214.886780
 20
338.746033
 11
173.299530
 21
337.293762
  0
LINE
  8
0
  6
CONTINUOUS
 10
214.886780
 20
259.841492
 11
173.299530
 21
261.293762
  0
ARC
  8
0
  6
CONTINUOUS
 10
219.799530
 20
354.293762
 40
2.500000
 50
90.000000
 51
180.000000
  0
ARC
  8
0
  6
CONTINUOUS
 10
219.799530
 20
244.293762
 40
2.500000
 50
180.000000
 51
270.000000
  0
LINE
  8
0
  6
CONTINUOUS
 10
173.299530
 20
337.293762
 11
173.299530
 21
261.293762
  0
LINE
  8
0
  6
CONTINUOUS
 10
59.299652
 20
337.293732
 11
173.299652
 21
337.293732
  0
LINE
  8
0
  6
CONTINUOUS
 10
59.299652
 20
261.293793
 11
173.299652
 21
261.293793
  0
LINE
  8
0
  6
CONTINUOUS
 10
165.299652
 20
335.293732
 11
165.299652
 21
322.293762
  0
ARC
  8
0
  6
CONTINUOUS
 10
167.299652
 20
335.293762
 40
2.000000
 50
90.000000
 51
180.000000
  0
ARC
  8
0
  6
CONTINUOUS
 10
167.299652
 20
263.293793
 40
2.000000
 50
180.000000
 51
270.000000
  0
LINE
  8
0
  6
CONTINUOUS
 10
59.299652
 20
322.293762
 11
165.299652
 21
322.293762
  0
LINE
  8
0
  6
CONTINUOUS
 10
59.299652
 20
276.293762
 11
165.299652
 21
276.293762
  0
LINE
  8
0
  6
CONTINUOUS
 10
165.299652
 20
276.293762
 11
165.299652
 21
263.293762
  0
ARC
  8
0
  6
CONTINUOUS
 10
204.469162
 20
299.293762
 40
15.000000
 50
130.747620
 51
229.252380
  0
LINE
  8
0
  6
CONTINUOUS
 10
216.431351
 20
329.399750
 11
194.678238
 21
310.657654
  0
LINE
  8
0
  6
CONTINUOUS
 10
216.431351
 20
269.187775
 11
194.678238
 21
287.929871
  0
ARC
  8
0
  6
CONTINUOUS
 10
214.799530
 20
331.293732
 40
2.500000
 50
-49.252373
 51
0.000000
  0
ARC
  8
0
  6
CONTINUOUS
 10
214.799530
 20
341.244507
 40
2.500000
 50
-88.000000
 51
0.000000
  0
ARC
  8
0
  6
CONTINUOUS
 10
214.799530
 20
267.293793
 40
2.500000
 50
0.000000
 51
49.252373
  0
ARC
  8
0
  6
CONTINUOUS
 10
214.799530
 20
257.343018
 40
2.500000
 50
0.000000
 51
88.000000
  0
LINE
  8
0
  6
CONTINUOUS
 10
59.299652
 20
337.293732
 11
59.299652
 21
306.159760
  0
LINE
  8
0
  6
CONTINUOUS
 10
59.299652
 20
337.293732
 11
49.799652
 21
337.293732
  0
LINE
  8
0
  6
CONTINUOUS
 10
59.299652
 20
261.293732
 11
49.799652
 21
261.293732
  0
LINE
  8
0
  6
CONTINUOUS
 10
59.299652
 20
276.293732
 11
49.799652
 21
276.293732
  0
LINE
  8
0
  6
CONTINUOUS
 10
59.299652
 20
322.293732
 11
49.799652
 21
322.293732
  0
LINE
  8
0
  6
CONTINUOUS
 10
52.799652
 20
293.293732
 11
52.799652
 21
305.293732
  0
LINE
  8
0
  6
CONTINUOUS
 10
59.799652
 20
293.293732
 11
59.799652
 21
305.293732
  0
LINE
  8
0
  6
CONTINUOUS
 10
53.799652
 20
306.293732
 11
58.799652
 21
306.293732
  0
LINE
  8
0
  6
CONTINUOUS
 10
58.799652
 20
292.293732
 11
53.799652
 21
292.293732
  0
ARC
  8
0
  6
CONTINUOUS
 10
58.799652
 20
305.293732
 40
1.000000
 50
0.000000
 51
90.000000
  0
ARC
  8
0
  6
CONTINUOUS
 10
53.799652
 20
305.293732
 40
1.000000
 50
90.000000
 51
180.000000
  0
ARC
  8
0
  6
CONTINUOUS
 10
53.799652
 20
293.293732
 40
1.000000
 50
180.000000
 51
270.000000
  0
ARC
  8
0
  6
CONTINUOUS
 10
58.799652
 20
293.293732
 40
1.000000
 50
-90.000000
 51
0.000000
  0
LINE
  8
0
  6
CONTINUOUS
 10
57.299652
 20
295.793732
 11
57.299652
 21
302.793732
  0
LINE
  8
0
  6
CONTINUOUS
 10
55.299652
 20
295.793732
 11
55.299652
 21
302.793732
  0
ARC
  8
0
  6
CONTINUOUS
 10
56.299652
 20
302.793732
 40
1.000000
 50
90.000000
 51
180.000000
  0
ARC
  8
0
  6
CONTINUOUS
 10
56.299652
 20
302.793732
 40
1.000000
 50
0.000000
 51
90.000000
  0
ARC
  8
0
  6
CONTINUOUS
 10
56.299652
 20
295.793732
 40
1.000000
 50
180.000000
 51
270.000000
  0
ARC
  8
0
  6
CONTINUOUS
 10
56.299652
 20
295.793732
 40
1.000000
 50
-90.000000
 51
0.000000
  0
LINE
  8
0
  6
CONTINUOUS
 10
59.299652
 20
292.427704
 11
59.299652
 21
261.293732
  0
LINE
  8
0
  6
CONTINUOUS
 10
49.799652
 20
259.293732
 11
49.799652
 21
339.293732
  0
LINE
  8
0
  6
CONTINUOUS
 10
5.799653
 20
339.293732
 11
49.799652
 21
339.293732
  0
LINE
  8
0
  6
CONTINUOUS
 10
5.799653
 20
259.293732
 11
49.799652
 21
259.293732
  0
LINE
  8
0
  6
CONTINUOUS
 10
0.799653
 20
264.293732
 11
0.799653
 21
334.293732
  0
ARC
  8
0
  6
CONTINUOUS
 10
5.799653
 20
334.293732
 40
5.000000
 50
90.000000
 51
180.000000
  0
ARC
  8
0
  6
CONTINUOUS
 10
5.799653
 20
264.293732
 40
5.000000
 50
180.000000
 51
270.000000
  0
LINE
  8
0
  6
CONTINUOUS
 10
3.299653
 20
323.293732
 11
49.799652
 21
323.293732
  0
LINE
  8
0
  6
CONTINUOUS
 10
3.299653
 20
273.293732
 11
49.799652
 21
273.293732
  0
LINE
  8
0
  6
CONTINUOUS
 10
49.799530
 20
84.618736
 11
59.299530
 21
84.618736
  0
LINE
  8
0
  6
CONTINUOUS
 10
49.799530
 20
8.618740
 11
59.299530
 21
8.618740
  0
LINE
  8
0
  6
CONTINUOUS
 10
49.799530
 20
6.618740
 11
49.799530
 21
86.618736
  0
LINE
  8
0
  6
CONTINUOUS
 10
59.799530
 20
86.118736
 11
59.799530
 21
84.618736
  0
LINE
  8
0
  6
CONTINUOUS
 10
52.799530
 20
86.118736
 11
52.799530
 21
84.618736
  0
LINE
  8
0
  6
CONTINUOUS
 10
52.799530
 20
86.118736
 11
59.799530
 21
86.118736
  0
LINE
  8
0
  6
CONTINUOUS
 10
57.199520
 20
99.118736
 11
57.199520
 21
86.118736
  0
LINE
  8
0
  6
CONTINUOUS
 10
55.399540
 20
99.743736
 11
55.399540
 21
86.118736
  0
LINE
  8
0
  6
CONTINUOUS
 10
53.599529
 20
97.681236
 11
53.599529
 21
86.118736
  0
LINE
  8
0
  6
CONTINUOUS
 10
58.999531
 20
98.493736
 11
58.999531
 21
86.118736
  0
LINE
  8
0
  6
CONTINUOUS
 10
55.399540
 20
99.743736
 11
57.199520
 21
99.118736
  0
LINE
  8
0
  6
CONTINUOUS
 10
53.599529
 20
97.681236
 11
55.399540
 21
98.306236
  0
LINE
  8
0
  6
CONTINUOUS
 10
58.999531
 20
98.493736
 11
57.200531
 21
98.046043
  0
LINE
  8
0
  6
CONTINUOUS
 10
49.799530
 20
76.867737
 11
59.299530
 21
76.867737
  0
LINE
  8
0
  6
CONTINUOUS
 10
49.799530
 20
16.369740
 11
59.299530
 21
16.369740
  0
LINE
  8
0
  6
CONTINUOUS
 10
5.799531
 20
86.618736
 11
49.799530
 21
86.618736
  0
LINE
  8
0
  6
CONTINUOUS
 10
5.799531
 20
6.618740
 11
49.799530
 21
6.618740
  0
LINE
  8
0
  6
CONTINUOUS
 10
0.799531
 20
11.618740
 11
0.799531
 21
81.618736
  0
ARC
  8
0
  6
CONTINUOUS
 10
5.799531
 20
81.618736
 40
5.000000
 50
90.000000
 51
180.000000
  0
ARC
  8
0
  6
CONTINUOUS
 10
5.799531
 20
11.618740
 40
5.000000
 50
180.000000
 51
270.000000
  0
LINE
  8
0
  6
CONTINUOUS
 10
3.299531
 20
72.618736
 11
49.799530
 21
72.618736
  0
LINE
  8
0
  6
CONTINUOUS
 10
3.299531
 20
22.618740
 11
49.799530
 21
22.618740
  0
LINE
  8
0
  6
CONTINUOUS
 10
59.299530
 20
8.618760
 11
59.299530
 21
84.618736
  0
LINE
  8
0
  6
DASHED
 10
329.549622
 20
253.293762
 11
329.549622
 21
241.293762
  0
LINE
  8
0
  6
CENTER
 10
335.049622
 20
257.818756
 11
335.049622
 21
237.190628
  0
LINE
  8
0
  6
DASHED
 10
340.549622
 20
253.293762
 11
340.549622
 21
241.293762
  0
LINE
  8
0
  6
DASHED
 10
250.549454
 20
253.293762
 11
250.549454
 21
241.293762
  0
LINE
  8
0
  6
CENTER
 10
245.049454
 20
257.818756
 11
245.049454
 21
237.190628
  0
LINE
  8
0
  6
DASHED
 10
239.549454
 20
253.293762
 11
239.549454
 21
241.293762
  0
ARC
  8
0
  6
CONTINUOUS
 10
49.799530
 20
70.987839
 40
4.500000
 50
0.000000
 51
90.000000
  0
ARC
  8
0
  6
CONTINUOUS
 10
49.799530
 20
70.987839
 40
3.000000
 50
0.000000
 51
90.000000
  0
ARC
  8
0
  6
CONTINUOUS
 10
49.799530
 20
70.987839
 40
1.500000
 50
0.000000
 51
90.000000
  0
LINE
  8
0
  6
CONTINUOUS
 10
51.299530
 20
70.987839
 11
51.299530
 21
65.972237
  0
LINE
  8
0
  6
CONTINUOUS
 10
52.799530
 20
70.987839
 11
52.799530
 21
66.487839
  0
LINE
  8
0
  6
CONTINUOUS
 10
54.299530
 20
70.987839
 11
54.299530
 21
66.487839
  0
LINE
  8
0
  6
CONTINUOUS
 10
51.299530
 20
65.987839
 11
52.799530
 21
66.487839
  0
LINE
  8
0
  6
CONTINUOUS
 10
52.799530
 20
66.987839
 11
54.299530
 21
66.487839
  0
ARC
  8
0
  6
CONTINUOUS
 10
49.799652
 20
267.023895
 40
4.500000
 50
0.000000
 51
90.000000
  0
ARC
  8
0
  6
CONTINUOUS
 10
49.799652
 20
267.023895
 40
3.000000
 50
0.000000
 51
90.000000
  0
ARC
  8
0
  6
CONTINUOUS
 10
49.799652
 20
267.023895
 40
1.500000
 50
0.000000
 51
90.000000
  0
LINE
  8
0
  6
CONTINUOUS
 10
51.299652
 20
267.023895
 11
51.299652
 21
262.008301
  0
LINE
  8
0
  6
CONTINUOUS
 10
52.799652
 20
267.023895
 11
52.799652
 21
262.523895
  0
LINE
  8
0
  6
CONTINUOUS
 10
54.299652
 20
267.023895
 11
54.299652
 21
262.523895
  0
LINE
  8
0
  6
CONTINUOUS
 10
51.299652
 20
262.023895
 11
52.799652
 21
262.523895
  0
LINE
  8
0
  6
CONTINUOUS
 10
52.799652
 20
263.023895
 11
54.299652
 21
262.523895
  0
LINE
  8
0
  6
CONTINUOUS
 10
173.299530
 20
37.218761
 11
217.299530
 21
37.218761
  0
LINE
  8
0
  6
CONTINUOUS
 10
173.299530
 20
27.018761
 11
217.299530
 21
27.018761
  0
TEXT
  8
0
 10
-10.000000
 20
-19.000000
 40
4.000000
 41
1.000000
  1
HFMN-22T-300~450-T40W
 50
0.000000
  0
ENDSEC
  0
EOF
