  0
SECTION
  2
HEADER
  9
$CLAYER
  8
1
  9
$LTSCALE
 40
3.0
  0
ENDSEC
  0
SECTION
  2
TABLES
  0
TABLE
  2
LTYPE
 70
     4
  0
LTYPE
  2
CONTINUOUS
  3
solid line
 70
    64
 72
    65
 73
     0
 40
0.0
  0
LTYPE
  2
DASHED
  3
__ __ __ __ __ __ __ __ __ __ __ __ __ __ __
 70
    64
 72
    65
 73
     2
 40
0.75
 49
0.5
 49
-0.25
  0
LTYPE
  2
CENTER
  3
____ _ ____ _ ____ _ ____ _ ____ _ ____ _ ____
 70
    64
 72
    65
 73
     4
 40
2.0
 49
1.25
 49
-0.25
 49
0.25
 49
-0.25
  0
LTYPE
  2
PHANTOM
  3
_____ _ _ _____ _ _ _____ _ _ _____ _ _ ____
 70
    64
 72
    65
 73
     6
 40
2.5
 49
1.25
 49
-0.25
 49
0.25
 49
-0.25
 49
0.25
 49
-0.25
  0
ENDTAB
  0
TABLE
  2
LAYER
 70
     1
  0
LAYER
  2
0
 70
    64
 62
     7
  6
CONTINUOUS
  0
ENDTAB
  0
TABLE
  2
STYLE
 70
     1
  0
STYLE
  2
STANDARD
 70
     0
 40
0.000000
 41
1.000000
 50
0.000000
 71
     0
 42
3.000000
  3
txt
  4
BIGFONT
  0
ENDTAB
  0
ENDSEC
  0
SECTION
  2
BLOCKS
  0
ENDSEC
  0
SECTION
  2
ENTITIES
  0
LINE
  8
0
  6
CENTER
 10
354.005127
 20
300.018768
 11
-8.102780
 21
300.018768
  0
LINE
  8
0
  6
CONTINUOUS
 10
230.019531
 20
242.768753
 11
227.519531
 21
242.768753
  0
LINE
  8
0
  6
CONTINUOUS
 10
232.036926
 20
357.268768
 11
227.519531
 21
357.268768
  0
LINE
  8
0
  6
CONTINUOUS
 10
234.769531
 20
242.768753
 11
227.519531
 21
242.768753
  0
LINE
  8
0
  6
CONTINUOUS
 10
236.223755
 20
268.018768
 11
227.519531
 21
268.018768
  0
LINE
  8
0
  6
CONTINUOUS
 10
234.786133
 20
252.518753
 11
227.519531
 21
252.518753
  0
LINE
  8
0
  6
CONTINUOUS
 10
232.879929
 20
347.518768
 11
227.519531
 21
347.518768
  0
LINE
  8
0
  6
CONTINUOUS
 10
227.519531
 20
332.018768
 11
344.308319
 21
332.018768
  0
LINE
  8
0
  6
CONTINUOUS
 10
233.036728
 20
356.286255
 11
233.374603
 21
336.931488
  0
ARC
  8
0
  6
CONTINUOUS
 10
232.036835
 20
356.268768
 40
1.000000
 50
1.000700
 51
90.000000
  0
ARC
  8
0
  6
CONTINUOUS
 10
238.373932
 20
337.018768
 40
5.000000
 50
-178.999802
 51
-90.000000
  0
LINE
  8
0
  6
CONTINUOUS
 10
227.519531
 20
357.518768
 11
227.519531
 21
242.518753
  0
LINE
  8
0
  6
CONTINUOUS
 10
349.269531
 20
242.018753
 11
235.269531
 21
242.018753
  0
LINE
  8
0
  6
CONTINUOUS
 10
272.269531
 20
332.018768
 11
272.269531
 21
254.821060
  0
LINE
  8
0
  6
CONTINUOUS
 10
312.269531
 20
332.018768
 11
312.269531
 21
254.821060
  0
LINE
  8
0
  6
CONTINUOUS
 10
345.807831
 20
330.558075
 11
347.791534
 21
254.821060
  0
ARC
  8
0
  6
CONTINUOUS
 10
344.308228
 20
330.518768
 40
1.500000
 50
1.500200
 51
90.000000
  0
LINE
  8
0
  6
CONTINUOUS
 10
236.269531
 20
254.018753
 11
347.981018
 21
254.018753
  0
LINE
  8
0
  6
CONTINUOUS
 10
235.269531
 20
253.018753
 11
235.269531
 21
242.018753
  0
LINE
  8
0
  6
CONTINUOUS
 10
349.269531
 20
242.018753
 11
348.980743
 21
253.044952
  0
ARC
  8
0
  6
CONTINUOUS
 10
347.981018
 20
253.018753
 40
1.000000
 50
1.500100
 51
90.000000
  0
ARC
  8
0
  6
CONTINUOUS
 10
348.790924
 20
254.847260
 40
1.000000
 50
-178.499603
 51
-113.891197
  0
ARC
  8
0
  6
CONTINUOUS
 10
234.769531
 20
242.268753
 40
0.500000
 50
0.000000
 51
90.000000
  0
LINE
  8
0
  6
CENTER
 10
161.479691
 20
58.343761
 11
259.463318
 21
58.343761
  0
LINE
  8
0
  6
CENTER
 10
292.269531
 20
153.925018
 11
292.269531
 21
-13.812500
  0
LINE
  8
0
  6
CENTER
 10
239.837494
 20
88.843758
 11
357.338409
 21
88.843758
  0
LINE
  8
0
  6
CONTINUOUS
 10
242.269455
 20
93.204460
 11
242.269455
 21
48.483070
  0
LINE
  8
0
  6
CONTINUOUS
 10
342.269623
 20
93.204422
 11
342.269623
 21
48.483070
  0
ARC
  8
0
  6
CONTINUOUS
 10
292.269531
 20
70.843773
 40
60.000000
 50
48.189621
 51
131.810394
  0
ARC
  8
0
  6
CONTINUOUS
 10
292.269531
 20
70.843773
 40
60.000000
 50
228.189697
 51
311.810303
  0
ARC
  8
0
  6
CONTINUOUS
 10
312.269623
 20
93.204422
 40
30.000000
 50
0.000000
 51
48.189629
  0
CIRCLE
  8
0
  6
CONTINUOUS
 10
292.269531
 20
88.843758
 40
27.500000
  0
ARC
  8
0
  6
CONTINUOUS
 10
292.269531
 20
88.843758
 40
31.750000
 50
7.552697
 51
172.447403
  0
ARC
  8
0
  6
CONTINUOUS
 10
275.519531
 20
47.343765
 40
20.600000
 50
172.447403
 51
270.000000
  0
ARC
  8
0
  6
CONTINUOUS
 10
309.019531
 20
47.343765
 40
20.600000
 50
-90.000000
 51
7.552700
  0
LINE
  8
0
  6
CONTINUOUS
 10
323.744202
 20
93.016922
 11
329.440796
 21
50.051392
  0
LINE
  8
0
  6
CONTINUOUS
 10
255.098129
 20
50.051353
 11
260.794952
 21
93.016861
  0
LINE
  8
0
  6
CONTINUOUS
 10
275.519531
 20
26.743759
 11
309.019531
 21
26.743759
  0
ARC
  8
0
  6
CONTINUOUS
 10
275.519531
 20
47.343765
 40
19.000000
 50
172.447601
 51
270.000000
  0
ARC
  8
0
  6
CONTINUOUS
 10
309.019531
 20
47.343765
 40
19.000000
 50
-90.000000
 51
7.552700
  0
ARC
  8
0
  6
CONTINUOUS
 10
292.269531
 20
88.843758
 40
30.150000
 50
-187.552597
 51
7.552697
  0
LINE
  8
0
  6
CONTINUOUS
 10
256.684326
 20
49.841057
 11
262.381134
 21
92.806580
  0
LINE
  8
0
  6
CONTINUOUS
 10
322.158020
 20
92.806602
 11
327.854797
 21
49.841091
  0
LINE
  8
0
  6
CONTINUOUS
 10
275.519531
 20
28.343760
 11
309.019531
 21
28.343760
  0
LINE
  8
0
  6
CONTINUOUS
 10
281.973145
 20
35.843761
 11
277.812744
 21
35.843761
  0
LINE
  8
0
  6
CONTINUOUS
 10
284.269531
 20
42.812515
 11
284.269531
 21
35.843761
  0
LINE
  8
0
  6
CONTINUOUS
 10
288.269531
 20
45.343765
 11
288.269531
 21
47.843765
  0
LINE
  8
0
  6
CONTINUOUS
 10
296.269531
 20
45.343765
 11
296.269531
 21
47.843765
  0
LINE
  8
0
  6
CONTINUOUS
 10
291.488342
 20
46.375015
 11
291.488342
 21
37.156261
  0
LINE
  8
0
  6
CONTINUOUS
 10
292.988342
 20
46.375015
 11
292.988342
 21
37.156261
  0
LINE
  8
0
  6
CONTINUOUS
 10
300.863342
 20
46.375015
 11
300.863342
 21
37.093761
  0
LINE
  8
0
  6
CONTINUOUS
 10
302.238342
 20
41.453136
 11
302.238342
 21
37.093761
  0
LINE
  8
0
  6
CONTINUOUS
 10
282.371552
 20
46.250015
 11
278.516541
 21
46.250015
  0
LINE
  8
0
  6
CONTINUOUS
 10
278.516541
 20
46.250015
 11
277.613342
 21
45.130016
  0
LINE
  8
0
  6
CONTINUOUS
 10
277.721954
 20
47.843765
 11
276.269531
 21
45.984009
  0
LINE
  8
0
  6
CONTINUOUS
 10
277.613342
 20
38.216702
 11
278.530945
 21
37.250000
  0
LINE
  8
0
  6
CONTINUOUS
 10
276.269531
 20
37.400940
 11
277.812744
 21
35.843761
  0
LINE
  8
0
  6
CONTINUOUS
 10
276.269531
 20
45.984009
 11
276.269531
 21
37.400940
  0
LINE
  8
0
  6
CONTINUOUS
 10
277.613342
 20
45.130016
 11
277.613342
 21
38.216702
  0
LINE
  8
0
  6
CONTINUOUS
 10
283.113342
 20
45.532913
 11
282.356354
 21
46.250015
  0
LINE
  8
0
  6
CONTINUOUS
 10
283.101318
 20
47.843765
 11
284.269531
 21
46.547272
  0
LINE
  8
0
  6
CONTINUOUS
 10
283.113342
 20
45.343765
 11
284.269531
 21
45.343765
  0
LINE
  8
0
  6
CONTINUOUS
 10
277.721954
 20
47.843765
 11
283.101318
 21
47.843765
  0
LINE
  8
0
  6
CONTINUOUS
 10
281.019531
 20
42.812515
 11
284.269531
 21
42.812515
  0
LINE
  8
0
  6
CONTINUOUS
 10
283.113342
 20
41.500015
 11
281.019531
 21
41.500015
  0
LINE
  8
0
  6
CONTINUOUS
 10
280.613342
 20
37.250000
 11
278.530945
 21
37.250000
  0
LINE
  8
0
  6
CONTINUOUS
 10
283.113342
 20
40.250015
 11
283.113342
 21
41.250015
  0
ARC
  8
0
  6
CONTINUOUS
 10
280.613342
 20
39.750008
 40
2.500000
 50
-89.999786
 51
0.000109
  0
LINE
  8
0
  6
CONTINUOUS
 10
283.113342
 20
36.800320
 11
283.113342
 21
35.843761
  0
LINE
  8
0
  6
CONTINUOUS
 10
284.269531
 20
46.547272
 11
284.269531
 21
45.343765
  0
LINE
  8
0
  6
CONTINUOUS
 10
283.113342
 20
41.500015
 11
283.113342
 21
39.750015
  0
LINE
  8
0
  6
CONTINUOUS
 10
281.019531
 20
42.812515
 11
281.019531
 21
41.500015
  0
LINE
  8
0
  6
CONTINUOUS
 10
283.113342
 20
35.843761
 11
284.269531
 21
35.843761
  0
LINE
  8
0
  6
CONTINUOUS
 10
283.113342
 20
36.800320
 11
281.973145
 21
35.843761
  0
LINE
  8
0
  6
CONTINUOUS
 10
292.988342
 20
37.156261
 11
293.488342
 21
37.156261
  0
LINE
  8
0
  6
CONTINUOUS
 10
290.894531
 20
37.156261
 11
290.894531
 21
35.843761
  0
LINE
  8
0
  6
CONTINUOUS
 10
293.488342
 20
37.156261
 11
293.488342
 21
35.843761
  0
LINE
  8
0
  6
CONTINUOUS
 10
295.435120
 20
45.343765
 11
296.269531
 21
45.343765
  0
LINE
  8
0
  6
CONTINUOUS
 10
288.269531
 20
45.343765
 11
289.157532
 21
45.343765
  0
LINE
  8
0
  6
CONTINUOUS
 10
288.269531
 20
47.843765
 11
296.269531
 21
47.843765
  0
LINE
  8
0
  6
CONTINUOUS
 10
290.894531
 20
35.843761
 11
293.488342
 21
35.843761
  0
LINE
  8
0
  6
CONTINUOUS
 10
290.894531
 20
37.156261
 11
291.488342
 21
37.156261
  0
ARC
  8
0
  6
CONTINUOUS
 10
305.066345
 20
44.640636
 40
3.203126
 50
-73.981873
 51
90.003510
  0
ARC
  8
0
  6
CONTINUOUS
 10
305.066345
 20
44.640636
 40
1.954124
 50
-82.585274
 51
62.411850
  0
LINE
  8
0
  6
CONTINUOUS
 10
300.269531
 20
47.843765
 11
305.066345
 21
47.843765
  0
LINE
  8
0
  6
CONTINUOUS
 10
305.318542
 20
42.702850
 11
302.238342
 21
42.702850
  0
LINE
  8
0
  6
CONTINUOUS
 10
300.269531
 20
47.843765
 11
300.269531
 21
46.375015
  0
LINE
  8
0
  6
CONTINUOUS
 10
302.238342
 20
46.375015
 11
302.238342
 21
42.702850
  0
LINE
  8
0
  6
CONTINUOUS
 10
305.950317
 20
41.561874
 11
307.932739
 21
37.093761
  0
LINE
  8
0
  6
CONTINUOUS
 10
304.798737
 20
41.453136
 11
306.674927
 21
37.093761
  0
LINE
  8
0
  6
CONTINUOUS
 10
300.269531
 20
37.093761
 11
300.863342
 21
37.093761
  0
LINE
  8
0
  6
CONTINUOUS
 10
302.238342
 20
37.093761
 11
302.785126
 21
37.093761
  0
LINE
  8
0
  6
CONTINUOUS
 10
302.785126
 20
35.843761
 11
300.269531
 21
35.843761
  0
LINE
  8
0
  6
CONTINUOUS
 10
306.425720
 20
37.093761
 11
306.674927
 21
37.093761
  0
LINE
  8
0
  6
CONTINUOUS
 10
306.425720
 20
35.843761
 11
308.269531
 21
35.843761
  0
LINE
  8
0
  6
CONTINUOUS
 10
306.425720
 20
37.093761
 11
306.425720
 21
35.843761
  0
LINE
  8
0
  6
CONTINUOUS
 10
302.785126
 20
37.093761
 11
302.785126
 21
35.843761
  0
LINE
  8
0
  6
CONTINUOUS
 10
300.269531
 20
37.093761
 11
300.269531
 21
35.843761
  0
LINE
  8
0
  6
CONTINUOUS
 10
289.587341
 20
46.375015
 11
289.157532
 21
45.343765
  0
LINE
  8
0
  6
CONTINUOUS
 10
295.072754
 20
46.375015
 11
295.435120
 21
45.343765
  0
LINE
  8
0
  6
CONTINUOUS
 10
292.988342
 20
46.375015
 11
295.072754
 21
46.375015
  0
LINE
  8
0
  6
CONTINUOUS
 10
291.488342
 20
46.375015
 11
289.587341
 21
46.375015
  0
LINE
  8
0
  6
CONTINUOUS
 10
302.238342
 20
41.453136
 11
304.798737
 21
41.453136
  0
LINE
  8
0
  6
CONTINUOUS
 10
300.269531
 20
46.375015
 11
300.863342
 21
46.375015
  0
LINE
  8
0
  6
CONTINUOUS
 10
302.238342
 20
46.375015
 11
305.971344
 21
46.372589
  0
LINE
  8
0
  6
CONTINUOUS
 10
283.113342
 20
45.532913
 11
283.113342
 21
45.343765
  0
ARC
  8
0
  6
CONTINUOUS
 10
272.269531
 20
93.204460
 40
30.000000
 50
131.810394
 51
180.000000
  0
ARC
  8
0
  6
CONTINUOUS
 10
272.269531
 20
48.483070
 40
30.000000
 50
180.000000
 51
228.189697
  0
LINE
  8
0
  6
CONTINUOUS
 10
227.519547
 20
115.593742
 11
235.269455
 21
115.593742
  0
LINE
  8
0
  6
CONTINUOUS
 10
233.083908
 20
1.093740
 11
227.519547
 21
1.093740
  0
LINE
  8
0
  6
CONTINUOUS
 10
234.066330
 20
105.843742
 11
227.519547
 21
105.843742
  0
LINE
  8
0
  6
CONTINUOUS
 10
227.519547
 20
10.843740
 11
235.269455
 21
10.843740
  0
LINE
  8
0
  6
CONTINUOUS
 10
234.066330
 20
90.303780
 11
227.519547
 21
90.303780
  0
LINE
  8
0
  6
CONTINUOUS
 10
234.066330
 20
26.383780
 11
227.519547
 21
26.383780
  0
LINE
  8
0
  6
CENTER
 10
238.622574
 20
130.843765
 11
255.919525
 21
130.843765
  0
LINE
  8
0
  6
CENTER
 10
328.707214
 20
130.843765
 11
353.288422
 21
130.843765
  0
LINE
  8
0
  6
CENTER
 10
237.476486
 20
10.843740
 11
256.088135
 21
10.843740
  0
LINE
  8
0
  6
CENTER
 10
328.144623
 20
10.843740
 11
352.950806
 21
10.843740
  0
LINE
  8
0
  6
CENTER
 10
337.269623
 20
140.003159
 11
337.269623
 21
121.862503
  0
LINE
  8
0
  6
CENTER
 10
247.269455
 20
139.750046
 11
247.269455
 21
122.284363
  0
LINE
  8
0
  6
CENTER
 10
247.269455
 20
20.021860
 11
247.269455
 21
-6.387480
  0
LINE
  8
0
  6
CENTER
 10
337.269623
 20
20.190639
 11
337.269623
 21
-5.712500
  0
CIRCLE
  8
0
  6
CONTINUOUS
 10
337.269623
 20
130.843765
 40
5.500000
  0
CIRCLE
  8
0
  6
CONTINUOUS
 10
247.269455
 20
130.843765
 40
5.500000
  0
CIRCLE
  8
0
  6
CONTINUOUS
 10
247.269455
 20
10.843740
 40
5.500000
  0
CIRCLE
  8
0
  6
CONTINUOUS
 10
337.269623
 20
10.843740
 40
5.500000
  0
ARC
  8
0
  6
CONTINUOUS
 10
337.269623
 20
130.843765
 40
12.000000
 50
0.000000
 51
90.000000
  0
ARC
  8
0
  6
CONTINUOUS
 10
247.269455
 20
130.843765
 40
12.000000
 50
90.000000
 51
180.000000
  0
ARC
  8
0
  6
CONTINUOUS
 10
247.269455
 20
10.843740
 40
12.000000
 50
180.000000
 51
270.000000
  0
ARC
  8
0
  6
CONTINUOUS
 10
337.269623
 20
10.843740
 40
12.000000
 50
-90.000000
 51
0.000000
  0
LINE
  8
0
  6
CONTINUOUS
 10
337.269623
 20
142.843765
 11
247.269455
 21
142.843765
  0
LINE
  8
0
  6
CONTINUOUS
 10
247.269531
 20
-1.156260
 11
337.269623
 21
-1.156260
  0
LINE
  8
0
  6
CONTINUOUS
 10
349.269623
 20
130.843765
 11
349.269623
 21
10.843740
  0
LINE
  8
0
  6
CONTINUOUS
 10
235.269455
 20
130.843719
 11
235.269455
 21
10.843720
  0
LINE
  8
0
  6
CONTINUOUS
 10
320.269623
 20
3.843740
 11
264.269531
 21
3.843740
  0
LINE
  8
0
  6
CONTINUOUS
 10
264.269531
 20
137.843765
 11
320.269623
 21
137.843765
  0
LINE
  8
0
  6
CONTINUOUS
 10
344.269623
 20
113.843742
 11
344.269623
 21
27.843760
  0
LINE
  8
0
  6
CONTINUOUS
 10
240.269455
 20
113.843742
 11
240.269455
 21
27.843760
  0
ARC
  8
0
  6
CONTINUOUS
 10
337.269623
 20
130.843765
 40
11.000000
 50
180.000000
 51
270.000000
  0
ARC
  8
0
  6
CONTINUOUS
 10
247.269455
 20
130.843765
 40
11.000000
 50
-90.000000
 51
0.000000
  0
ARC
  8
0
  6
CONTINUOUS
 10
247.269455
 20
10.843740
 40
11.000000
 50
0.000000
 51
90.000000
  0
ARC
  8
0
  6
CONTINUOUS
 10
337.269623
 20
10.843740
 40
11.000000
 50
90.000000
 51
180.000000
  0
LINE
  8
0
  6
CONTINUOUS
 10
246.269455
 20
21.843740
 11
247.269455
 21
21.843740
  0
LINE
  8
0
  6
CONTINUOUS
 10
258.269531
 20
9.843740
 11
258.269531
 21
10.843740
  0
ARC
  8
0
  6
CONTINUOUS
 10
246.269455
 20
27.843760
 40
6.000000
 50
180.000000
 51
270.000000
  0
ARC
  8
0
  6
CONTINUOUS
 10
264.269531
 20
9.843740
 40
6.000000
 50
180.000000
 51
270.000000
  0
LINE
  8
0
  6
CONTINUOUS
 10
338.269623
 20
21.843740
 11
337.269623
 21
21.843740
  0
LINE
  8
0
  6
CONTINUOUS
 10
326.269623
 20
9.843740
 11
326.269623
 21
10.843720
  0
ARC
  8
0
  6
CONTINUOUS
 10
338.269623
 20
27.843760
 40
6.000000
 50
-90.000000
 51
0.000000
  0
ARC
  8
0
  6
CONTINUOUS
 10
320.269623
 20
9.843740
 40
6.000000
 50
-90.000000
 51
0.000000
  0
LINE
  8
0
  6
CONTINUOUS
 10
338.269623
 20
119.843742
 11
337.269623
 21
119.843742
  0
LINE
  8
0
  6
CONTINUOUS
 10
326.269623
 20
131.843765
 11
326.269623
 21
130.843719
  0
ARC
  8
0
  6
CONTINUOUS
 10
320.269623
 20
131.843765
 40
6.000000
 50
0.000000
 51
90.000000
  0
ARC
  8
0
  6
CONTINUOUS
 10
338.269623
 20
113.843742
 40
6.000000
 50
0.000000
 51
90.000000
  0
LINE
  8
0
  6
CONTINUOUS
 10
246.269455
 20
119.843742
 11
247.269455
 21
119.843742
  0
LINE
  8
0
  6
CONTINUOUS
 10
258.269531
 20
131.843765
 11
258.269531
 21
130.843765
  0
ARC
  8
0
  6
CONTINUOUS
 10
264.269531
 20
131.843826
 40
6.000000
 50
90.000000
 51
180.000000
  0
ARC
  8
0
  6
CONTINUOUS
 10
246.269485
 20
113.843803
 40
6.000000
 50
90.000000
 51
180.000000
  0
LINE
  8
0
  6
CONTINUOUS
 10
234.081665
 20
2.027240
 11
234.632111
 21
10.283660
  0
ARC
  8
0
  6
CONTINUOUS
 10
235.230804
 20
10.243760
 40
0.600000
 50
90.000000
 51
176.186096
  0
ARC
  8
0
  6
CONTINUOUS
 10
233.083908
 20
2.093740
 40
1.000000
 50
270.000000
 51
356.185791
  0
ARC
  8
0
  6
CONTINUOUS
 10
312.269623
 20
48.483086
 40
30.000000
 50
-48.189449
 51
0.000000
  0
LINE
  8
0
  6
CONTINUOUS
 10
299.769531
 20
85.843758
 11
299.769531
 21
91.843742
  0
LINE
  8
0
  6
CONTINUOUS
 10
305.769531
 20
85.843719
 11
305.769531
 21
91.843719
  0
LINE
  8
0
  6
CONTINUOUS
 10
305.769531
 20
85.843719
 11
299.769531
 21
85.843758
  0
LINE
  8
0
  6
CONTINUOUS
 10
305.769531
 20
91.843719
 11
299.769531
 21
91.843742
  0
ARC
  8
0
  6
CONTINUOUS
 10
292.269531
 20
88.843758
 40
11.000000
 50
-344.173401
 51
-15.826600
  0
LINE
  8
0
  6
CONTINUOUS
 10
227.519547
 20
115.843758
 11
227.519547
 21
0.843760
  0
LINE
  8
0
  6
CENTER
 10
515.263367
 20
-18.702459
 11
515.263367
 21
152.041718
  0
LINE
  8
0
  6
CENTER
 10
443.296753
 20
58.343761
 11
581.523132
 21
58.343761
  0
LINE
  8
0
  6
CENTER
 10
412.263550
 20
88.843758
 11
614.106140
 21
88.843758
  0
LINE
  8
0
  6
CONTINUOUS
 10
457.263550
 20
77.843758
 11
457.263550
 21
-1.156260
  0
LINE
  8
0
  6
CONTINUOUS
 10
469.263550
 20
119.093742
 11
469.263550
 21
140.843765
  0
LINE
  8
0
  6
CONTINUOUS
 10
467.345367
 20
142.843765
 11
457.263550
 21
142.843765
  0
LINE
  8
0
  6
CONTINUOUS
 10
467.345367
 20
-1.156220
 11
457.263550
 21
-1.156220
  0
LINE
  8
0
  6
CONTINUOUS
 10
547.263367
 20
9.326440
 11
547.263367
 21
132.361084
  0
LINE
  8
0
  6
CONTINUOUS
 10
546.281189
 20
133.360947
 11
471.228760
 21
134.670639
  0
LINE
  8
0
  6
CONTINUOUS
 10
546.281189
 20
8.326620
 11
471.228760
 21
7.016300
  0
LINE
  8
0
  6
CONTINUOUS
 10
473.820160
 20
110.843742
 11
546.196167
 21
110.843742
  0
LINE
  8
0
  6
CONTINUOUS
 10
471.172546
 20
30.843760
 11
545.873169
 21
30.843760
  0
LINE
  8
0
  6
CONTINUOUS
 10
469.760162
 20
0.696740
 11
470.869354
 21
4.836580
  0
LINE
  8
0
  6
CONTINUOUS
 10
469.760162
 20
140.990845
 11
470.869568
 21
136.850327
  0
ARC
  8
0
  6
CONTINUOUS
 10
473.767365
 20
137.626846
 40
3.000000
 50
195.000702
 51
269.000488
  0
ARC
  8
0
  6
CONTINUOUS
 10
467.263550
 20
140.843765
 40
2.000000
 50
0.000000
 51
90.000000
  0
ARC
  8
0
  6
CONTINUOUS
 10
471.263550
 20
136.670364
 40
2.000000
 50
180.000000
 51
269.000610
  0
ARC
  8
0
  6
CONTINUOUS
 10
473.767151
 20
4.060140
 40
3.000000
 50
91.000526
 51
165.000305
  0
ARC
  8
0
  6
CONTINUOUS
 10
471.263550
 20
5.016620
 40
2.000000
 50
91.000633
 51
180.000000
  0
ARC
  8
0
  6
CONTINUOUS
 10
467.263550
 20
0.843780
 40
2.000000
 50
-90.000000
 51
0.000000
  0
ARC
  8
0
  6
CONTINUOUS
 10
546.263367
 20
132.361084
 40
1.000000
 50
0.000000
 51
89.000359
  0
ARC
  8
0
  6
CONTINUOUS
 10
546.263367
 20
9.326440
 40
1.000000
 50
-88.999573
 51
0.000000
  0
LINE
  8
0
  6
CENTER
 10
451.769775
 20
130.843765
 11
474.406372
 21
130.843765
  0
LINE
  8
0
  6
CENTER
 10
451.769775
 20
10.843740
 11
474.406372
 21
10.843740
  0
LINE
  8
0
  6
DASHED
 10
457.263550
 20
136.343765
 11
469.263550
 21
136.343765
  0
LINE
  8
0
  6
DASHED
 10
457.263550
 20
125.343758
 11
469.263550
 21
125.343758
  0
LINE
  8
0
  6
DASHED
 10
457.263550
 20
16.343740
 11
469.263550
 21
16.343740
  0
LINE
  8
0
  6
DASHED
 10
457.263550
 20
5.343740
 11
469.263550
 21
5.343740
  0
LINE
  8
0
  6
CONTINUOUS
 10
563.263367
 20
63.650913
 11
563.263367
 21
114.036598
  0
LINE
  8
0
  6
CONTINUOUS
 10
553.263367
 20
30.648600
 11
553.263367
 21
90.913742
  0
LINE
  8
0
  6
CONTINUOUS
 10
561.033752
 20
116.936043
 11
549.493591
 21
120.001442
  0
LINE
  8
0
  6
CONTINUOUS
 10
561.033752
 20
60.751461
 11
555.493164
 21
59.279804
  0
LINE
  8
0
  6
CONTINUOUS
 10
551.036560
 20
27.749920
 11
549.490540
 21
27.337620
  0
ARC
  8
0
  6
CONTINUOUS
 10
560.263367
 20
114.036598
 40
3.000000
 50
0.000000
 51
75.124413
  0
ARC
  8
0
  6
CONTINUOUS
 10
560.263367
 20
63.650913
 40
3.000000
 50
-75.124207
 51
0.000000
  0
ARC
  8
0
  6
CONTINUOUS
 10
550.263367
 20
30.648600
 40
3.000000
 50
-75.068420
 51
0.000000
  0
ARC
  8
0
  6
CONTINUOUS
 10
550.263367
 20
122.900917
 40
3.000000
 50
180.000000
 51
255.124603
  0
ARC
  8
0
  6
CONTINUOUS
 10
556.263367
 20
56.380367
 40
3.000000
 50
104.876099
 51
180.000000
  0
ARC
  8
0
  6
CONTINUOUS
 10
550.263367
 20
24.438919
 40
3.000000
 50
104.931801
 51
180.000000
  0
LINE
  8
0
  6
CONTINUOUS
 10
562.763367
 20
15.843740
 11
562.763367
 21
24.895100
  0
LINE
  8
0
  6
CONTINUOUS
 10
557.763367
 20
10.843740
 11
548.712341
 21
10.843740
  0
ARC
  8
0
  6
CONTINUOUS
 10
515.263367
 20
58.343761
 40
57.250000
 50
-32.501888
 51
19.914110
  0
ARC
  8
0
  6
CONTINUOUS
 10
515.263367
 20
58.343761
 40
57.250000
 50
243.004898
 51
298.995514
  0
ARC
  8
0
  6
CONTINUOUS
 10
557.763367
 20
15.843740
 40
5.000000
 50
-90.000000
 51
0.000000
  0
ARC
  8
0
  6
CONTINUOUS
 10
567.763367
 20
24.895100
 40
5.000000
 50
147.498093
 51
180.000000
  0
ARC
  8
0
  6
CONTINUOUS
 10
548.712341
 20
5.843740
 40
5.000000
 50
90.000000
 51
106.842003
  0
LINE
  8
0
  6
CONTINUOUS
 10
467.263550
 20
63.650909
 11
467.263550
 21
114.036598
  0
LINE
  8
0
  6
CONTINUOUS
 10
469.493561
 20
60.751453
 11
472.294769
 21
60.007366
  0
LINE
  8
0
  6
CONTINUOUS
 10
469.493561
 20
116.936043
 11
471.317169
 21
117.420479
  0
ARC
  8
0
  6
CONTINUOUS
 10
470.263763
 20
114.036598
 40
3.000000
 50
104.876099
 51
180.000000
  0
ARC
  8
0
  6
CONTINUOUS
 10
470.263550
 20
63.650928
 40
3.000000
 50
180.000000
 51
255.124603
  0
LINE
  8
0
  6
CONTINUOUS
 10
474.763550
 20
108.593742
 11
476.263550
 21
102.343742
  0
LINE
  8
0
  6
CONTINUOUS
 10
476.263550
 20
102.343742
 11
475.263550
 21
96.843742
  0
LINE
  8
0
  6
CONTINUOUS
 10
475.263550
 20
96.843742
 11
477.513550
 21
91.093742
  0
LINE
  8
0
  6
CONTINUOUS
 10
477.513550
 20
91.093742
 11
475.763550
 21
85.343758
  0
LINE
  8
0
  6
CONTINUOUS
 10
475.763550
 20
85.343758
 11
473.763550
 21
80.343758
  0
LINE
  8
0
  6
CONTINUOUS
 10
473.763550
 20
80.343758
 11
474.263550
 21
71.593758
  0
LINE
  8
0
  6
CONTINUOUS
 10
474.263550
 20
71.593758
 11
473.013550
 21
67.093758
  0
LINE
  8
0
  6
CONTINUOUS
 10
473.013550
 20
67.093758
 11
473.013550
 21
62.343761
  0
LINE
  8
0
  6
CONTINUOUS
 10
473.013550
 20
62.343761
 11
471.013550
 21
55.843761
  0
LINE
  8
0
  6
CONTINUOUS
 10
471.013550
 20
55.843761
 11
471.263550
 21
51.843761
  0
LINE
  8
0
  6
CONTINUOUS
 10
471.263550
 20
51.843761
 11
470.263550
 21
47.468761
  0
LINE
  8
0
  6
CONTINUOUS
 10
470.263550
 20
47.468761
 11
466.763550
 21
44.843761
  0
LINE
  8
0
  6
CONTINUOUS
 10
466.763550
 20
44.843761
 11
464.138550
 21
41.593761
  0
LINE
  8
0
  6
CONTINUOUS
 10
464.138550
 20
41.593761
 11
461.263550
 21
39.843761
  0
LINE
  8
0
  6
CONTINUOUS
 10
461.263550
 20
39.843761
 11
458.888550
 21
37.718761
  0
LINE
  8
0
  6
CONTINUOUS
 10
458.888550
 20
37.718761
 11
457.263550
 21
37.347340
  0
LINE
  8
0
  6
CONTINUOUS
 10
467.138550
 20
120.718742
 11
463.638550
 21
121.593742
  0
LINE
  8
0
  6
CONTINUOUS
 10
463.638550
 20
121.593742
 11
460.263550
 21
122.218742
  0
LINE
  8
0
  6
CONTINUOUS
 10
460.263550
 20
122.218742
 11
457.263550
 21
123.218758
  0
LINE
  8
0
  6
CONTINUOUS
 10
457.263550
 20
142.843765
 11
457.263550
 21
99.843742
  0
LINE
  8
0
  6
CONTINUOUS
 10
469.263550
 20
0.843780
 11
469.263550
 21
46.718761
  0
LINE
  8
0
  6
CONTINUOUS
 10
467.138550
 20
120.718742
 11
469.263550
 21
119.093742
  0
LINE
  8
0
  6
CONTINUOUS
 10
469.263550
 20
119.093742
 11
472.638550
 21
116.343742
  0
LINE
  8
0
  6
CONTINUOUS
 10
472.638550
 20
116.343742
 11
473.138550
 21
112.468742
  0
LINE
  8
0
  6
CONTINUOUS
 10
473.138550
 20
112.468742
 11
474.763550
 21
108.593742
  0
LINE
  8
0
  6
CONTINUOUS
 10
464.263550
 20
77.843758
 11
464.263550
 21
41.748524
  0
LINE
  8
0
  6
CONTINUOUS
 10
464.263550
 20
121.437523
 11
464.263550
 21
99.843742
  0
LINE
  8
0
  6
CONTINUOUS
 10
605.263367
 20
77.843765
 11
605.263367
 21
99.843742
  0
LINE
  8
0
  6
CONTINUOUS
 10
565.263367
 20
99.843742
 11
605.263367
 21
99.843742
  0
LINE
  8
0
  6
CONTINUOUS
 10
565.263367
 20
77.843765
 11
605.263367
 21
77.843765
  0
LINE
  8
0
  6
CONTINUOUS
 10
565.263367
 20
101.343742
 11
565.263367
 21
76.343765
  0
LINE
  8
0
  6
CONTINUOUS
 10
563.263367
 20
101.343742
 11
565.263367
 21
101.343742
  0
LINE
  8
0
  6
CONTINUOUS
 10
563.263367
 20
76.343765
 11
565.263367
 21
76.343765
  0
ARC
  8
0
  6
CONTINUOUS
 10
573.263367
 20
88.843758
 40
3.000000
 50
90.000000
 51
270.000000
  0
LINE
  8
0
  6
CONTINUOUS
 10
573.263367
 20
91.843742
 11
605.263367
 21
91.843742
  0
LINE
  8
0
  6
CONTINUOUS
 10
573.263367
 20
85.843758
 11
605.263367
 21
85.843758
  0
LINE
  8
0
  6
CONTINUOUS
 10
425.263763
 20
77.843765
 11
425.263763
 21
99.843742
  0
LINE
  8
0
  6
CONTINUOUS
 10
465.263763
 20
99.843742
 11
425.263763
 21
99.843742
  0
LINE
  8
0
  6
CONTINUOUS
 10
465.263763
 20
77.843765
 11
425.263763
 21
77.843765
  0
LINE
  8
0
  6
CONTINUOUS
 10
465.263763
 20
101.343742
 11
465.263763
 21
76.343765
  0
LINE
  8
0
  6
CONTINUOUS
 10
467.263763
 20
101.343742
 11
465.263763
 21
101.343742
  0
LINE
  8
0
  6
CONTINUOUS
 10
467.263763
 20
76.343765
 11
465.263763
 21
76.343765
  0
ARC
  8
0
  6
CONTINUOUS
 10
457.263763
 20
88.843758
 40
3.000000
 50
-90.000000
 51
90.000000
  0
LINE
  8
0
  6
CONTINUOUS
 10
457.263763
 20
91.843742
 11
425.263763
 21
91.843742
  0
LINE
  8
0
  6
CONTINUOUS
 10
457.263763
 20
85.843758
 11
425.263763
 21
85.843758
  0
ARC
  8
0
  6
CONTINUOUS
 10
467.345367
 20
140.343765
 40
2.500000
 50
15.000760
 51
90.000000
  0
ARC
  8
0
  6
CONTINUOUS
 10
467.345367
 20
1.343780
 40
2.500000
 50
270.000000
 51
345.000214
  0
ARC
  8
0
  6
CONTINUOUS
 10
515.263367
 20
58.343761
 40
57.499821
 50
303.815704
 51
303.996307
  0
ARC
  8
0
  6
CONTINUOUS
 10
515.263367
 20
58.343761
 40
57.500000
 50
242.540298
 51
299.460602
  0
ARC
  8
0
  6
CONTINUOUS
 10
515.263367
 20
58.343761
 40
57.500000
 50
-33.996769
 51
19.823891
  0
ARC
  8
0
  6
CONTINUOUS
 10
515.263367
 20
58.343761
 40
57.500000
 50
303.815613
 51
303.997314
  0
LINE
  8
0
  6
CONTINUOUS
 10
238.731232
 20
330.558044
 11
238.528519
 21
322.818756
  0
ARC
  8
0
  6
CONTINUOUS
 10
240.230713
 20
330.518768
 40
1.500000
 50
90.000000
 51
178.499649
  0
ARC
  8
0
  6
CONTINUOUS
 10
236.269531
 20
253.018753
 40
1.000000
 50
90.000000
 51
180.000000
  0
ARC
  8
0
  6
CONTINUOUS
 10
235.750565
 20
254.950256
 40
1.000000
 50
285.039185
 51
358.499664
  0
LINE
  8
0
  6
CENTER
 10
292.269531
 20
396.220459
 11
292.269531
 21
199.794800
  0
LINE
  8
0
  6
CONTINUOUS
 10
267.076691
 20
348.018768
 11
317.462372
 21
348.018768
  0
LINE
  8
0
  6
CONTINUOUS
 10
322.425781
 20
338.018768
 11
325.712616
 21
338.018768
  0
ARC
  8
0
  6
CONTINUOUS
 10
317.462372
 20
345.018768
 40
3.000000
 50
-345.124329
 51
-270.000000
  0
LINE
  8
0
  6
CONTINUOUS
 10
328.612091
 20
335.788940
 11
329.021240
 21
334.248596
  0
ARC
  8
0
  6
CONTINUOUS
 10
325.712616
 20
335.018768
 40
3.000000
 50
-345.124329
 51
-270.000000
  0
ARC
  8
0
  6
CONTINUOUS
 10
331.920685
 20
335.018768
 40
3.000000
 50
-165.124313
 51
-90.000000
  0
LINE
  8
0
  6
CONTINUOUS
 10
322.425781
 20
338.018768
 11
320.361816
 21
345.788940
  0
LINE
  8
0
  6
CONTINUOUS
 10
255.926987
 20
335.788940
 11
255.517838
 21
334.248596
  0
ARC
  8
0
  6
CONTINUOUS
 10
258.826447
 20
335.018768
 40
3.000000
 50
90.000000
 51
165.124313
  0
ARC
  8
0
  6
CONTINUOUS
 10
252.618378
 20
335.018768
 40
3.000000
 50
-90.000000
 51
-14.875682
  0
LINE
  8
0
  6
CONTINUOUS
 10
262.113281
 20
338.018768
 11
258.826447
 21
338.018768
  0
ARC
  8
0
  6
CONTINUOUS
 10
267.076691
 20
345.018768
 40
3.000000
 50
90.000000
 51
165.124313
  0
LINE
  8
0
  6
CONTINUOUS
 10
262.113281
 20
338.018768
 11
264.177246
 21
345.788940
  0
LINE
  8
0
  6
CONTINUOUS
 10
281.269531
 20
210.018753
 11
305.769531
 21
210.018753
  0
LINE
  8
0
  6
CONTINUOUS
 10
281.269531
 20
242.018753
 11
281.269531
 21
210.018753
  0
LINE
  8
0
  6
CONTINUOUS
 10
305.769531
 20
242.018753
 11
305.769531
 21
210.018753
  0
LINE
  8
0
  6
CONTINUOUS
 10
302.852539
 20
210.018753
 11
302.852539
 21
242.018753
  0
LINE
  8
0
  6
CONTINUOUS
 10
281.269531
 20
390.018768
 11
305.769531
 21
390.018768
  0
LINE
  8
0
  6
CONTINUOUS
 10
303.269531
 20
350.018768
 11
303.269531
 21
355.018768
  0
LINE
  8
0
  6
CONTINUOUS
 10
281.269531
 20
350.018768
 11
281.269531
 21
390.018768
  0
LINE
  8
0
  6
CONTINUOUS
 10
304.769531
 20
348.018768
 11
304.769531
 21
350.018768
  0
LINE
  8
0
  6
CONTINUOUS
 10
279.769531
 20
348.018768
 11
279.769531
 21
350.018768
  0
LINE
  8
0
  6
CONTINUOUS
 10
279.769531
 20
350.018768
 11
304.769531
 21
350.018768
  0
LINE
  8
0
  6
CONTINUOUS
 10
305.769531
 20
355.018768
 11
305.769531
 21
390.018768
  0
LINE
  8
0
  6
CONTINUOUS
 10
302.852539
 20
390.018768
 11
302.852539
 21
355.018768
  0
LINE
  8
0
  6
CONTINUOUS
 10
302.852539
 20
355.018768
 11
305.769531
 21
355.018768
  0
ARC
  8
0
  6
CONTINUOUS
 10
177.085114
 20
301.612427
 40
65.000000
 50
-22.042076
 51
19.041388
  0
LINE
  8
0
  6
CONTINUOUS
 10
237.334167
 20
277.218750
 11
236.750229
 21
254.924072
  0
LINE
  8
0
  6
CONTINUOUS
 10
61.519531
 20
85.343742
 11
175.519531
 21
85.343742
  0
LINE
  8
0
  6
CONTINUOUS
 10
61.519531
 20
9.343780
 11
175.519531
 21
9.343780
  0
LINE
  8
0
  6
CONTINUOUS
 10
61.519531
 20
77.592743
 11
167.519531
 21
77.592743
  0
LINE
  8
0
  6
CONTINUOUS
 10
61.519531
 20
17.094780
 11
167.519531
 21
17.094780
  0
LINE
  8
0
  6
CONTINUOUS
 10
167.519531
 20
83.343742
 11
167.519531
 21
11.343760
  0
ARC
  8
0
  6
CONTINUOUS
 10
169.519531
 20
83.343758
 40
2.000000
 50
90.000000
 51
180.000000
  0
ARC
  8
0
  6
CONTINUOUS
 10
169.519531
 20
11.343780
 40
2.000000
 50
180.000000
 51
270.000000
  0
LINE
  8
0
  6
CONTINUOUS
 10
217.106781
 20
86.796021
 11
175.519531
 21
85.343758
  0
LINE
  8
0
  6
CONTINUOUS
 10
227.519531
 20
7.527880
 11
175.519531
 21
9.343760
  0
LINE
  8
0
  6
CONTINUOUS
 10
219.519531
 20
114.843758
 11
219.519531
 21
87.843758
  0
LINE
  8
0
  6
CONTINUOUS
 10
220.519531
 20
115.843758
 11
227.519547
 21
115.843758
  0
LINE
  8
0
  6
CONTINUOUS
 10
222.019531
 20
0.843760
 11
227.519531
 21
0.843760
  0
LINE
  8
0
  6
CONTINUOUS
 10
219.519531
 20
88.343758
 11
219.519531
 21
17.431105
  0
LINE
  8
0
  6
CONTINUOUS
 10
175.519531
 20
85.343758
 11
175.519531
 21
9.343760
  0
LINE
  8
0
  6
CONTINUOUS
 10
218.106400
 20
98.661560
 11
192.162979
 21
86.137154
  0
ARC
  8
0
  6
CONTINUOUS
 10
220.519531
 20
114.843758
 40
1.000000
 50
90.000000
 51
180.000000
  0
ARC
  8
0
  6
CONTINUOUS
 10
217.019531
 20
100.912941
 40
2.500000
 50
-64.230675
 51
0.000000
  0
ARC
  8
0
  6
CONTINUOUS
 10
217.019531
 20
89.294495
 40
2.500000
 50
-88.000000
 51
0.000000
  0
ARC
  8
0
  6
CONTINUOUS
 10
191.076096
 20
88.388535
 40
2.500000
 50
272.000000
 51
295.769318
  0
LINE
  8
0
  6
CONTINUOUS
 10
220.644608
 20
15.189760
 11
227.519531
 21
15.189760
  0
LINE
  8
0
  6
CONTINUOUS
 10
219.519531
 20
3.343760
 11
219.519531
 21
5.393024
  0
ARC
  8
0
  6
CONTINUOUS
 10
222.019531
 20
3.343760
 40
2.500000
 50
180.000000
 51
270.000000
  0
ARC
  8
0
  6
CONTINUOUS
 10
217.019531
 20
5.393024
 40
2.500000
 50
0.000000
 51
88.000000
  0
LINE
  8
0
  6
CENTER
 10
-8.617500
 20
47.343761
 11
260.269531
 21
47.343761
  0
LINE
  8
0
  6
CONTINUOUS
 10
222.019531
 20
242.518753
 11
227.519531
 21
242.518753
  0
LINE
  8
0
  6
CONTINUOUS
 10
222.019531
 20
357.518768
 11
227.519531
 21
357.518768
  0
LINE
  8
0
  6
CONTINUOUS
 10
219.519531
 20
245.018753
 11
219.519531
 21
355.018768
  0
LINE
  8
0
  6
CONTINUOUS
 10
175.519531
 20
338.018768
 11
175.519531
 21
262.018768
  0
LINE
  8
0
  6
CONTINUOUS
 10
217.106781
 20
339.471008
 11
175.519531
 21
338.018768
  0
LINE
  8
0
  6
CONTINUOUS
 10
217.106781
 20
260.566498
 11
175.519531
 21
262.018768
  0
ARC
  8
0
  6
CONTINUOUS
 10
222.019531
 20
355.018768
 40
2.500000
 50
90.000000
 51
180.000000
  0
ARC
  8
0
  6
CONTINUOUS
 10
222.019531
 20
245.018753
 40
2.500000
 50
180.000000
 51
270.000000
  0
LINE
  8
0
  6
CONTINUOUS
 10
175.519531
 20
338.018768
 11
175.519531
 21
262.018768
  0
LINE
  8
0
  6
CONTINUOUS
 10
61.519653
 20
338.018738
 11
175.519653
 21
338.018738
  0
LINE
  8
0
  6
CONTINUOUS
 10
61.519653
 20
262.018768
 11
175.519653
 21
262.018768
  0
LINE
  8
0
  6
CONTINUOUS
 10
167.519653
 20
336.018738
 11
167.519653
 21
323.018768
  0
ARC
  8
0
  6
CONTINUOUS
 10
169.519653
 20
336.018768
 40
2.000000
 50
90.000000
 51
180.000000
  0
ARC
  8
0
  6
CONTINUOUS
 10
169.519653
 20
264.018768
 40
2.000000
 50
180.000000
 51
270.000000
  0
LINE
  8
0
  6
CONTINUOUS
 10
114.519524
 20
323.018768
 11
167.519653
 21
323.018768
  0
LINE
  8
0
  6
CONTINUOUS
 10
114.519524
 20
277.018768
 11
167.519653
 21
277.018768
  0
LINE
  8
0
  6
CONTINUOUS
 10
167.519653
 20
277.018768
 11
167.519653
 21
264.018768
  0
ARC
  8
0
  6
CONTINUOUS
 10
206.689163
 20
300.018768
 40
15.000000
 50
130.747620
 51
229.252380
  0
LINE
  8
0
  6
CONTINUOUS
 10
218.651352
 20
330.124756
 11
196.898239
 21
311.382629
  0
LINE
  8
0
  6
CONTINUOUS
 10
218.651352
 20
269.912781
 11
196.898239
 21
288.654877
  0
ARC
  8
0
  6
CONTINUOUS
 10
217.019531
 20
332.018738
 40
2.500000
 50
-49.252373
 51
0.000000
  0
ARC
  8
0
  6
CONTINUOUS
 10
217.019531
 20
341.969482
 40
2.500000
 50
-88.000000
 51
0.000000
  0
ARC
  8
0
  6
CONTINUOUS
 10
217.019531
 20
268.018799
 40
2.500000
 50
0.000000
 51
49.252373
  0
ARC
  8
0
  6
CONTINUOUS
 10
217.019531
 20
258.068024
 40
2.500000
 50
0.000000
 51
88.000000
  0
LINE
  8
0
  6
CONTINUOUS
 10
61.519653
 20
338.018738
 11
61.519653
 21
331.018768
  0
LINE
  8
0
  6
CONTINUOUS
 10
61.519653
 20
338.018738
 11
52.019653
 21
338.018738
  0
LINE
  8
0
  6
CONTINUOUS
 10
61.519653
 20
262.018738
 11
52.019653
 21
262.018738
  0
LINE
  8
0
  6
CONTINUOUS
 10
52.519520
 20
277.018738
 11
52.019653
 21
277.018738
  0
LINE
  8
0
  6
CONTINUOUS
 10
52.519520
 20
323.018738
 11
52.019653
 21
323.018738
  0
LINE
  8
0
  6
CONTINUOUS
 10
61.519653
 20
269.018768
 11
61.519653
 21
262.018738
  0
LINE
  8
0
  6
CONTINUOUS
 10
52.019653
 20
260.018738
 11
52.019653
 21
340.018738
  0
LINE
  8
0
  6
CONTINUOUS
 10
8.019653
 20
340.018738
 11
52.019653
 21
340.018738
  0
LINE
  8
0
  6
CONTINUOUS
 10
8.019653
 20
260.018738
 11
52.019653
 21
260.018738
  0
LINE
  8
0
  6
CONTINUOUS
 10
3.019653
 20
265.018738
 11
3.019653
 21
335.018738
  0
ARC
  8
0
  6
CONTINUOUS
 10
8.019653
 20
335.018738
 40
5.000000
 50
90.000000
 51
180.000000
  0
ARC
  8
0
  6
CONTINUOUS
 10
8.019653
 20
265.018738
 40
5.000000
 50
180.000000
 51
270.000000
  0
LINE
  8
0
  6
CONTINUOUS
 10
5.519653
 20
324.018738
 11
52.019653
 21
324.018738
  0
LINE
  8
0
  6
CONTINUOUS
 10
5.519653
 20
274.018738
 11
52.019653
 21
274.018738
  0
LINE
  8
0
  6
CONTINUOUS
 10
52.019531
 20
85.343742
 11
61.519531
 21
85.343742
  0
LINE
  8
0
  6
CONTINUOUS
 10
52.019531
 20
9.343740
 11
61.519531
 21
9.343740
  0
LINE
  8
0
  6
CONTINUOUS
 10
52.019531
 20
7.343740
 11
52.019531
 21
87.343742
  0
LINE
  8
0
  6
CONTINUOUS
 10
52.019531
 20
77.592743
 11
61.519531
 21
77.592743
  0
LINE
  8
0
  6
CONTINUOUS
 10
52.019531
 20
17.094740
 11
61.519531
 21
17.094740
  0
LINE
  8
0
  6
CONTINUOUS
 10
8.019531
 20
87.343742
 11
52.019531
 21
87.343742
  0
LINE
  8
0
  6
CONTINUOUS
 10
8.019531
 20
7.343740
 11
52.019531
 21
7.343740
  0
LINE
  8
0
  6
CONTINUOUS
 10
3.019531
 20
12.343740
 11
3.019531
 21
82.343742
  0
ARC
  8
0
  6
CONTINUOUS
 10
8.019531
 20
82.343742
 40
5.000000
 50
90.000000
 51
180.000000
  0
ARC
  8
0
  6
CONTINUOUS
 10
8.019531
 20
12.343740
 40
5.000000
 50
180.000000
 51
270.000000
  0
LINE
  8
0
  6
CONTINUOUS
 10
5.519531
 20
73.343742
 11
52.019531
 21
73.343742
  0
LINE
  8
0
  6
CONTINUOUS
 10
5.519531
 20
23.343740
 11
52.019531
 21
23.343740
  0
LINE
  8
0
  6
CONTINUOUS
 10
61.519531
 20
9.343760
 11
61.519531
 21
85.343742
  0
LINE
  8
0
  6
DASHED
 10
331.769623
 20
254.018753
 11
331.769623
 21
242.018753
  0
LINE
  8
0
  6
CENTER
 10
337.269623
 20
258.543762
 11
337.269623
 21
237.915619
  0
LINE
  8
0
  6
DASHED
 10
342.769623
 20
254.018753
 11
342.769623
 21
242.018753
  0
LINE
  8
0
  6
DASHED
 10
252.769455
 20
254.018753
 11
252.769455
 21
242.018753
  0
LINE
  8
0
  6
CENTER
 10
247.269455
 20
258.543762
 11
247.269455
 21
237.915619
  0
LINE
  8
0
  6
DASHED
 10
241.769455
 20
254.018753
 11
241.769455
 21
242.018753
  0
LINE
  8
0
  6
CONTINUOUS
 10
175.519531
 20
37.943760
 11
219.519531
 21
37.943760
  0
LINE
  8
0
  6
CONTINUOUS
 10
175.519531
 20
27.743759
 11
219.519531
 21
27.743759
  0
LINE
  8
0
  6
CONTINUOUS
 10
54.019531
 20
86.843758
 11
112.519531
 21
86.843758
  0
LINE
  8
0
  6
CONTINUOUS
 10
54.019531
 20
86.843758
 11
54.019531
 21
85.343758
  0
LINE
  8
0
  6
CONTINUOUS
 10
100.019531
 20
86.843758
 11
100.019531
 21
85.343758
  0
LINE
  8
0
  6
CONTINUOUS
 10
52.519531
 20
135.843765
 11
52.519531
 21
88.843758
  0
LINE
  8
0
  6
CONTINUOUS
 10
114.519531
 20
135.843781
 11
114.519531
 21
88.843758
  0
LINE
  8
0
  6
CONTINUOUS
 10
114.519531
 20
88.843758
 11
112.519531
 21
86.843758
  0
LINE
  8
0
  6
CONTINUOUS
 10
52.519531
 20
88.843758
 11
54.519531
 21
86.843758
  0
LINE
  8
0
  6
CONTINUOUS
 10
52.519531
 20
88.843758
 11
114.519531
 21
88.843758
  0
LINE
  8
0
  6
CONTINUOUS
 10
52.519531
 20
98.843781
 11
114.519531
 21
98.843781
  0
LINE
  8
0
  6
CONTINUOUS
 10
52.519531
 20
99.843781
 11
114.519531
 21
99.843781
  0
LINE
  8
0
  6
CONTINUOUS
 10
53.519531
 20
136.843765
 11
113.519531
 21
136.843781
  0
LINE
  8
0
  6
CONTINUOUS
 10
113.519531
 20
136.843781
 11
114.519531
 21
135.843781
  0
LINE
  8
0
  6
CONTINUOUS
 10
52.519531
 20
135.843765
 11
53.519531
 21
136.843765
  0
LINE
  8
0
  6
CONTINUOUS
 10
52.519531
 20
135.843765
 11
114.519531
 21
135.843781
  0
LINE
  8
0
  6
CENTER
 10
49.894531
 20
119.843781
 11
55.644531
 21
119.843781
  0
LINE
  8
0
  6
CONTINUOUS
 10
51.394531
 20
130.343781
 11
54.519531
 21
130.343781
  0
LINE
  8
0
  6
CONTINUOUS
 10
51.394531
 20
109.343781
 11
54.519531
 21
109.343781
  0
LINE
  8
0
  6
CENTER
 10
83.519531
 20
140.272766
 11
83.519531
 21
82.249741
  0
LINE
  8
0
  6
CONTINUOUS
 10
52.519520
 20
271.018768
 11
52.519520
 21
329.018768
  0
LINE
  8
0
  6
CONTINUOUS
 10
114.519524
 20
329.018768
 11
114.519524
 21
271.018768
  0
LINE
  8
0
  6
CONTINUOUS
 10
54.519520
 20
269.018768
 11
112.519524
 21
269.018768
  0
LINE
  8
0
  6
CONTINUOUS
 10
54.519520
 20
331.018768
 11
112.519524
 21
331.018768
  0
LINE
  8
0
  6
CONTINUOUS
 10
112.519524
 20
269.018768
 11
114.519524
 21
271.018768
  0
LINE
  8
0
  6
CONTINUOUS
 10
114.519524
 20
329.018768
 11
112.519524
 21
331.018768
  0
LINE
  8
0
  6
CONTINUOUS
 10
52.519520
 20
329.018768
 11
54.519520
 21
331.018768
  0
LINE
  8
0
  6
CONTINUOUS
 10
52.519520
 20
271.018768
 11
54.519520
 21
269.018768
  0
LINE
  8
0
  6
CONTINUOUS
 10
106.519524
 20
274.018768
 11
106.519524
 21
269.018768
  0
LINE
  8
0
  6
CONTINUOUS
 10
109.519524
 20
277.018768
 11
114.519524
 21
277.018768
  0
CIRCLE
  8
0
  6
CONTINUOUS
 10
110.519524
 20
273.018768
 40
2.250000
  0
ARC
  8
0
  6
CONTINUOUS
 10
109.519524
 20
274.018768
 40
3.000000
 50
90.000000
 51
180.000000
  0
LINE
  8
0
  6
CONTINUOUS
 10
113.519524
 20
278.018768
 11
113.519524
 21
322.018768
  0
LINE
  8
0
  6
CONTINUOUS
 10
109.519524
 20
278.018768
 11
113.519524
 21
278.018768
  0
ARC
  8
0
  6
CONTINUOUS
 10
109.519524
 20
274.018768
 40
4.000000
 50
90.000000
 51
180.000000
  0
LINE
  8
0
  6
CONTINUOUS
 10
105.519524
 20
270.018768
 11
105.519524
 21
274.018768
  0
LINE
  8
0
  6
CONTINUOUS
 10
113.519524
 20
278.018768
 11
114.519524
 21
277.018768
  0
LINE
  8
0
  6
CONTINUOUS
 10
61.519520
 20
270.018768
 11
105.519524
 21
270.018768
  0
LINE
  8
0
  6
CONTINUOUS
 10
105.519524
 20
270.018768
 11
106.519524
 21
269.018768
  0
LINE
  8
0
  6
CONTINUOUS
 10
57.519520
 20
277.018768
 11
52.519520
 21
277.018768
  0
LINE
  8
0
  6
CONTINUOUS
 10
60.519520
 20
274.018768
 11
60.519520
 21
269.018768
  0
CIRCLE
  8
0
  6
CONTINUOUS
 10
56.519520
 20
273.018768
 40
2.250000
  0
ARC
  8
0
  6
CONTINUOUS
 10
57.519520
 20
274.018768
 40
3.000000
 50
0.000000
 51
90.000000
  0
LINE
  8
0
  6
CONTINUOUS
 10
61.519520
 20
274.018768
 11
61.519520
 21
270.018768
  0
ARC
  8
0
  6
CONTINUOUS
 10
57.519520
 20
274.018768
 40
4.000000
 50
0.000000
 51
90.000000
  0
LINE
  8
0
  6
CONTINUOUS
 10
53.519520
 20
278.018768
 11
57.519520
 21
278.018768
  0
LINE
  8
0
  6
CONTINUOUS
 10
61.519520
 20
270.018768
 11
60.519520
 21
269.018768
  0
LINE
  8
0
  6
CONTINUOUS
 10
53.519520
 20
278.018768
 11
52.519520
 21
277.018768
  0
LINE
  8
0
  6
CONTINUOUS
 10
60.519520
 20
326.018768
 11
60.519520
 21
331.018768
  0
LINE
  8
0
  6
CONTINUOUS
 10
57.519520
 20
323.018768
 11
52.519520
 21
323.018768
  0
CIRCLE
  8
0
  6
CONTINUOUS
 10
56.519520
 20
327.018768
 40
2.250000
  0
ARC
  8
0
  6
CONTINUOUS
 10
57.519520
 20
326.018768
 40
3.000000
 50
-90.000000
 51
0.000000
  0
LINE
  8
0
  6
CONTINUOUS
 10
57.519520
 20
322.018768
 11
53.519520
 21
322.018768
  0
ARC
  8
0
  6
CONTINUOUS
 10
57.519520
 20
326.018768
 40
4.000000
 50
-90.000000
 51
0.000000
  0
LINE
  8
0
  6
CONTINUOUS
 10
61.519520
 20
330.018768
 11
61.519520
 21
326.018768
  0
LINE
  8
0
  6
CONTINUOUS
 10
53.519520
 20
322.018768
 11
52.519520
 21
323.018768
  0
LINE
  8
0
  6
CONTINUOUS
 10
61.519520
 20
330.018768
 11
60.519520
 21
331.018768
  0
LINE
  8
0
  6
CONTINUOUS
 10
109.519524
 20
323.018768
 11
114.519524
 21
323.018768
  0
LINE
  8
0
  6
CONTINUOUS
 10
106.519524
 20
326.018768
 11
106.519524
 21
331.018768
  0
CIRCLE
  8
0
  6
CONTINUOUS
 10
110.519524
 20
327.018768
 40
2.250000
  0
ARC
  8
0
  6
CONTINUOUS
 10
109.519524
 20
326.018768
 40
3.000000
 50
180.000000
 51
270.000000
  0
LINE
  8
0
  6
CONTINUOUS
 10
105.519524
 20
326.018768
 11
105.519524
 21
330.018768
  0
ARC
  8
0
  6
CONTINUOUS
 10
109.519524
 20
326.018768
 40
4.000000
 50
180.000000
 51
270.000000
  0
LINE
  8
0
  6
CONTINUOUS
 10
113.519524
 20
322.018768
 11
109.519524
 21
322.018768
  0
LINE
  8
0
  6
CONTINUOUS
 10
105.519524
 20
330.018768
 11
106.519524
 21
331.018768
  0
LINE
  8
0
  6
CONTINUOUS
 10
113.519524
 20
322.018768
 11
114.519524
 21
323.018768
  0
LINE
  8
0
  6
CONTINUOUS
 10
61.519520
 20
330.018768
 11
105.519524
 21
330.018768
  0
LINE
  8
0
  6
CONTINUOUS
 10
53.519520
 20
278.018768
 11
53.519520
 21
322.018768
  0
LINE
  8
0
  6
CENTER
 10
83.519524
 20
263.772522
 11
83.519524
 21
336.465332
  0
LINE
  8
0
  6
CONTINUOUS
 10
546.263367
 20
135.843735
 11
546.263367
 21
133.361252
  0
LINE
  8
0
  6
CONTINUOUS
 10
484.263367
 20
135.843735
 11
484.263367
 21
134.443176
  0
LINE
  8
0
  6
CONTINUOUS
 10
485.263367
 20
136.843735
 11
545.263367
 21
136.843735
  0
LINE
  8
0
  6
CONTINUOUS
 10
545.263367
 20
136.843735
 11
546.263367
 21
135.843735
  0
LINE
  8
0
  6
CONTINUOUS
 10
485.263367
 20
136.843735
 11
484.263367
 21
135.843735
  0
LINE
  8
0
  6
CONTINUOUS
 10
484.263367
 20
135.843735
 11
546.263367
 21
135.843735
  0
TEXT
  8
0
 10
-8.000000
 20
-18.000000
 40
4.000000
 41
1.000000
  1
HFMN-22T-300~450-T60C
 50
0.000000
  0
ENDSEC
  0
EOF
