  0
SECTION
  2
HEADER
  9
$CLAYER
  8
1
  9
$LTSCALE
 40
3.0
  0
ENDSEC
  0
SECTION
  2
TABLES
  0
TABLE
  2
LTYPE
 70
     4
  0
LTYPE
  2
CONTINUOUS
  3
solid line
 70
    64
 72
    65
 73
     0
 40
0.0
  0
LTYPE
  2
DASHED
  3
__ __ __ __ __ __ __ __ __ __ __ __ __ __ __
 70
    64
 72
    65
 73
     2
 40
0.75
 49
0.5
 49
-0.25
  0
LTYPE
  2
CENTER
  3
____ _ ____ _ ____ _ ____ _ ____ _ ____ _ ____
 70
    64
 72
    65
 73
     4
 40
2.0
 49
1.25
 49
-0.25
 49
0.25
 49
-0.25
  0
LTYPE
  2
PHANTOM
  3
_____ _ _ _____ _ _ _____ _ _ _____ _ _ ____
 70
    64
 72
    65
 73
     6
 40
2.5
 49
1.25
 49
-0.25
 49
0.25
 49
-0.25
 49
0.25
 49
-0.25
  0
ENDTAB
  0
TABLE
  2
LAYER
 70
     1
  0
LAYER
  2
0
 70
    64
 62
     7
  6
CONTINUOUS
  0
ENDTAB
  0
TABLE
  2
STYLE
 70
     1
  0
STYLE
  2
STANDARD
 70
     0
 40
0.000000
 41
1.000000
 50
0.000000
 71
     0
 42
3.000000
  3
txt
  4
BIGFONT
  0
ENDTAB
  0
ENDSEC
  0
SECTION
  2
BLOCKS
  0
ENDSEC
  0
SECTION
  2
ENTITIES
  0
LINE
  8
0
  6
CENTER
 10
393.881256
 20
51.029064
 11
237.529999
 21
51.029064
  0
LINE
  8
0
  6
CONTINUOUS
 10
326.255005
 20
89.029060
 11
253.335007
 21
89.029060
  0
LINE
  8
0
  6
CONTINUOUS
 10
255.755005
 20
13.029063
 11
326.255005
 21
13.029063
  0
LINE
  8
0
  6
CONTINUOUS
 10
243.255005
 20
9.329063
 11
179.255005
 21
9.329063
  0
LINE
  8
0
  6
CONTINUOUS
 10
243.255005
 20
111.329063
 11
179.255005
 21
111.329063
  0
LINE
  8
0
  6
CONTINUOUS
 10
253.755005
 20
86.029060
 11
253.755005
 21
21.029074
  0
LINE
  8
0
  6
CENTER
 10
211.255005
 20
123.716560
 11
211.255005
 21
0.091563
  0
LINE
  8
0
  6
CENTER
 10
179.255005
 20
23.466562
 11
179.255005
 21
11.966563
  0
LINE
  8
0
  6
CENTER
 10
185.098694
 20
17.329063
 11
172.848694
 21
17.329063
  0
CIRCLE
  8
0
  6
CONTINUOUS
 10
179.255005
 20
17.329063
 40
3.250000
  0
LINE
  8
0
  6
CENTER
 10
179.255005
 20
97.191566
 11
179.255005
 21
108.691566
  0
CIRCLE
  8
0
  6
CONTINUOUS
 10
179.255005
 20
103.329063
 40
3.250000
  0
LINE
  8
0
  6
CENTER
 10
243.255005
 20
97.191566
 11
243.255005
 21
108.691566
  0
LINE
  8
0
  6
CENTER
 10
237.411301
 20
103.329063
 11
249.661301
 21
103.329063
  0
CIRCLE
  8
0
  6
CONTINUOUS
 10
243.255005
 20
103.329063
 40
3.250000
  0
LINE
  8
0
  6
CENTER
 10
243.255005
 20
23.466562
 11
243.255005
 21
11.966563
  0
LINE
  8
0
  6
CENTER
 10
237.411301
 20
17.329063
 11
249.661301
 21
17.329063
  0
CIRCLE
  8
0
  6
CONTINUOUS
 10
243.255005
 20
17.329063
 40
3.250000
  0
LINE
  8
0
  6
CONTINUOUS
 10
168.755005
 20
86.029060
 11
168.755005
 21
34.629074
  0
LINE
  8
0
  6
CONTINUOUS
 10
171.332306
 20
104.438225
 11
168.755005
 21
86.029060
  0
LINE
  8
0
  6
CONTINUOUS
 10
171.332306
 20
16.219942
 11
168.755005
 21
34.629074
  0
LINE
  8
0
  6
CONTINUOUS
 10
251.177704
 20
16.219864
 11
252.339096
 21
24.515364
  0
LINE
  8
0
  6
CONTINUOUS
 10
251.177704
 20
104.438210
 11
253.755005
 21
86.029060
  0
LINE
  8
0
  6
CENTER
 10
245.404999
 20
73.329063
 11
177.638748
 21
73.329063
  0
LINE
  8
0
  6
CONTINUOUS
 10
201.755005
 20
75.829063
 11
201.755005
 21
70.829063
  0
LINE
  8
0
  6
CONTINUOUS
 10
206.755005
 20
70.829063
 11
206.755005
 21
75.829063
  0
LINE
  8
0
  6
CONTINUOUS
 10
206.755005
 20
75.829063
 11
201.755005
 21
75.829063
  0
LINE
  8
0
  6
CONTINUOUS
 10
206.755005
 20
70.829063
 11
201.755005
 21
70.829063
  0
ARC
  8
0
  6
CONTINUOUS
 10
211.255005
 20
73.329063
 40
7.500000
 50
-160.528793
 51
160.528793
  0
ARC
  8
0
  6
CONTINUOUS
 10
179.255005
 20
103.329063
 40
8.000000
 50
90.000000
 51
172.030304
  0
ARC
  8
0
  6
CONTINUOUS
 10
243.255005
 20
103.329063
 40
8.000000
 50
7.969498
 51
90.000000
  0
ARC
  8
0
  6
CONTINUOUS
 10
243.255005
 20
17.329063
 40
8.000000
 50
-90.000000
 51
-7.969604
  0
ARC
  8
0
  6
CONTINUOUS
 10
179.255005
 20
17.329063
 40
8.000000
 50
-172.030304
 51
-90.000000
  0
LINE
  8
0
  6
CONTINUOUS
 10
253.755005
 20
15.029063
 11
253.755005
 21
21.029074
  0
ARC
  8
0
  6
CONTINUOUS
 10
255.755005
 20
15.029063
 40
2.000000
 50
180.000000
 51
270.000000
  0
ARC
  8
0
  6
CONTINUOUS
 10
248.755005
 20
21.029083
 40
5.000000
 50
0.000000
 51
90.000000
  0
LINE
  8
0
  6
CONTINUOUS
 10
326.255005
 20
81.278030
 11
254.505005
 21
81.278030
  0
LINE
  8
0
  6
CONTINUOUS
 10
326.255005
 20
20.780104
 11
254.255005
 21
20.780104
  0
LINE
  8
0
  6
CONTINUOUS
 10
197.834503
 20
105.329063
 11
224.675507
 21
105.329063
  0
LINE
  8
0
  6
CONTINUOUS
 10
224.675507
 20
15.329063
 11
197.834503
 21
15.329063
  0
LINE
  8
0
  6
CONTINUOUS
 10
227.547806
 20
104.421722
 11
253.755005
 21
86.029060
  0
LINE
  8
0
  6
CONTINUOUS
 10
194.962204
 20
104.421722
 11
168.755005
 21
86.029060
  0
LINE
  8
0
  6
CONTINUOUS
 10
194.962204
 20
16.236403
 11
168.755005
 21
34.629074
  0
LINE
  8
0
  6
CONTINUOUS
 10
240.208298
 20
25.121723
 11
227.547806
 21
16.236403
  0
LINE
  8
0
  6
CONTINUOUS
 10
243.080597
 20
26.029062
 11
248.755005
 21
26.029062
  0
ARC
  8
0
  6
CONTINUOUS
 10
224.675598
 20
100.329063
 40
5.000000
 50
54.938221
 51
90.000000
  0
ARC
  8
0
  6
CONTINUOUS
 10
197.834503
 20
100.329071
 40
5.000000
 50
90.000000
 51
125.062103
  0
ARC
  8
0
  6
CONTINUOUS
 10
197.834503
 20
20.329063
 40
5.000000
 50
234.938095
 51
270.000000
  0
ARC
  8
0
  6
CONTINUOUS
 10
224.675507
 20
20.329063
 40
5.000000
 50
270.000000
 51
305.061890
  0
ARC
  8
0
  6
CONTINUOUS
 10
243.080597
 20
21.029074
 40
5.000000
 50
90.000000
 51
125.062103
  0
CIRCLE
  8
0
  6
CONTINUOUS
 10
211.255005
 20
73.329063
 40
20.000000
  0
LINE
  8
0
  6
CENTER
 10
173.942505
 20
103.329063
 11
184.630005
 21
103.329063
  0
LINE
  8
0
  6
CONTINUOUS
 10
202.888794
 20
37.329063
 11
199.423203
 21
37.329063
  0
LINE
  8
0
  6
CONTINUOUS
 10
204.801697
 20
43.134026
 11
204.801697
 21
37.329063
  0
LINE
  8
0
  6
CONTINUOUS
 10
208.133698
 20
45.242561
 11
208.133698
 21
47.325050
  0
LINE
  8
0
  6
CONTINUOUS
 10
214.797699
 20
45.242561
 11
214.797699
 21
47.325050
  0
LINE
  8
0
  6
CONTINUOUS
 10
210.814896
 20
46.101585
 11
210.814896
 21
38.422375
  0
LINE
  8
0
  6
CONTINUOUS
 10
212.064407
 20
46.101585
 11
212.064407
 21
38.422375
  0
LINE
  8
0
  6
CONTINUOUS
 10
218.624298
 20
46.101585
 11
218.624298
 21
38.370304
  0
LINE
  8
0
  6
CONTINUOUS
 10
219.769699
 20
42.001671
 11
219.769699
 21
38.370304
  0
LINE
  8
0
  6
CONTINUOUS
 10
203.220596
 20
45.997459
 11
200.009506
 21
45.997459
  0
LINE
  8
0
  6
CONTINUOUS
 10
200.506607
 20
38.500462
 11
200.021500
 21
38.500462
  0
LINE
  8
0
  6
CONTINUOUS
 10
200.009506
 20
45.997459
 11
199.257095
 21
45.064507
  0
LINE
  8
0
  6
CONTINUOUS
 10
199.347595
 20
47.325050
 11
198.137695
 21
45.775887
  0
LINE
  8
0
  6
CONTINUOUS
 10
199.257095
 20
39.305683
 11
200.021500
 21
38.500462
  0
LINE
  8
0
  6
CONTINUOUS
 10
198.137695
 20
38.626163
 11
199.423203
 21
37.329063
  0
LINE
  8
0
  6
CONTINUOUS
 10
198.137695
 20
45.775887
 11
198.137695
 21
38.626163
  0
LINE
  8
0
  6
CONTINUOUS
 10
199.257095
 20
45.064507
 11
199.257095
 21
39.305683
  0
LINE
  8
0
  6
CONTINUOUS
 10
203.838593
 20
45.400124
 11
203.207993
 21
45.997459
  0
LINE
  8
0
  6
CONTINUOUS
 10
203.828598
 20
47.325050
 11
204.801697
 21
46.245079
  0
LINE
  8
0
  6
CONTINUOUS
 10
203.838593
 20
45.242561
 11
204.801697
 21
45.242561
  0
LINE
  8
0
  6
CONTINUOUS
 10
199.347595
 20
47.325050
 11
203.828598
 21
47.325050
  0
LINE
  8
0
  6
CONTINUOUS
 10
202.094498
 20
43.134026
 11
204.801697
 21
43.134026
  0
LINE
  8
0
  6
CONTINUOUS
 10
203.838593
 20
42.040718
 11
202.094498
 21
42.040718
  0
LINE
  8
0
  6
CONTINUOUS
 10
201.339600
 20
38.500462
 11
200.506607
 21
38.500462
  0
LINE
  8
0
  6
CONTINUOUS
 10
203.838593
 20
40.999474
 11
203.838593
 21
41.832466
  0
LINE
  8
0
  6
CONTINUOUS
 10
201.756104
 20
38.500462
 11
201.339600
 21
38.500462
  0
LINE
  8
0
  6
CONTINUOUS
 10
203.838593
 20
40.582973
 11
203.838593
 21
40.999474
  0
LINE
  8
0
  6
CONTINUOUS
 10
203.838593
 20
40.527653
 11
203.838593
 21
40.582973
  0
ARC
  8
0
  6
CONTINUOUS
 10
201.756104
 20
40.582973
 40
2.082500
 50
-89.999786
 51
0.000109
  0
LINE
  8
0
  6
CONTINUOUS
 10
203.838593
 20
38.125893
 11
203.838593
 21
37.329063
  0
LINE
  8
0
  6
CONTINUOUS
 10
204.801697
 20
46.245079
 11
204.801697
 21
45.242561
  0
LINE
  8
0
  6
CONTINUOUS
 10
203.838593
 20
42.040718
 11
203.838593
 21
40.582973
  0
LINE
  8
0
  6
CONTINUOUS
 10
202.094498
 20
43.134026
 11
202.094498
 21
42.040718
  0
LINE
  8
0
  6
CONTINUOUS
 10
203.838593
 20
41.832466
 11
203.838593
 21
42.040718
  0
LINE
  8
0
  6
CONTINUOUS
 10
203.838593
 20
37.329063
 11
204.801697
 21
37.329063
  0
LINE
  8
0
  6
CONTINUOUS
 10
203.838593
 20
38.125893
 11
202.888794
 21
37.329063
  0
LINE
  8
0
  6
CONTINUOUS
 10
212.064407
 20
38.422375
 11
212.480896
 21
38.422375
  0
LINE
  8
0
  6
CONTINUOUS
 10
210.320297
 20
38.422375
 11
210.320297
 21
37.329063
  0
LINE
  8
0
  6
CONTINUOUS
 10
212.480896
 20
38.422375
 11
212.480896
 21
37.329063
  0
LINE
  8
0
  6
CONTINUOUS
 10
214.102600
 20
45.242561
 11
214.797699
 21
45.242561
  0
LINE
  8
0
  6
CONTINUOUS
 10
208.133698
 20
45.242561
 11
208.873398
 21
45.242561
  0
LINE
  8
0
  6
CONTINUOUS
 10
208.133698
 20
47.325050
 11
214.797699
 21
47.325050
  0
LINE
  8
0
  6
CONTINUOUS
 10
210.320297
 20
37.329063
 11
212.480896
 21
37.329063
  0
LINE
  8
0
  6
CONTINUOUS
 10
210.320297
 20
38.422375
 11
210.814896
 21
38.422375
  0
ARC
  8
0
  6
CONTINUOUS
 10
222.125504
 20
44.656853
 40
2.668203
 50
-73.981873
 51
90.003510
  0
ARC
  8
0
  6
CONTINUOUS
 10
222.125504
 20
44.656853
 40
1.627786
 50
-82.585274
 51
62.411850
  0
LINE
  8
0
  6
CONTINUOUS
 10
218.129700
 20
47.325050
 11
222.125504
 21
47.325050
  0
LINE
  8
0
  6
CONTINUOUS
 10
222.335602
 20
43.042671
 11
219.769699
 21
43.042671
  0
LINE
  8
0
  6
CONTINUOUS
 10
218.129700
 20
47.325050
 11
218.129700
 21
46.101585
  0
LINE
  8
0
  6
CONTINUOUS
 10
219.769699
 20
46.101585
 11
219.769699
 21
43.042671
  0
LINE
  8
0
  6
CONTINUOUS
 10
222.861801
 20
42.092247
 11
224.513199
 21
38.370304
  0
LINE
  8
0
  6
CONTINUOUS
 10
221.902603
 20
42.001671
 11
223.465500
 21
38.370304
  0
LINE
  8
0
  6
CONTINUOUS
 10
218.129700
 20
38.370304
 11
218.624298
 21
38.370304
  0
LINE
  8
0
  6
CONTINUOUS
 10
219.769699
 20
38.370304
 11
220.225204
 21
38.370304
  0
LINE
  8
0
  6
CONTINUOUS
 10
220.225204
 20
37.329063
 11
218.129700
 21
37.329063
  0
LINE
  8
0
  6
CONTINUOUS
 10
223.257904
 20
38.370304
 11
223.465500
 21
38.370304
  0
LINE
  8
0
  6
CONTINUOUS
 10
224.513199
 20
38.370304
 11
224.793701
 21
38.370304
  0
LINE
  8
0
  6
CONTINUOUS
 10
223.257904
 20
37.329063
 11
224.793701
 21
37.329063
  0
LINE
  8
0
  6
CONTINUOUS
 10
224.793701
 20
38.370304
 11
224.793701
 21
37.329063
  0
LINE
  8
0
  6
CONTINUOUS
 10
223.257904
 20
38.370304
 11
223.257904
 21
37.329063
  0
LINE
  8
0
  6
CONTINUOUS
 10
220.225204
 20
38.370304
 11
220.225204
 21
37.329063
  0
LINE
  8
0
  6
CONTINUOUS
 10
218.129700
 20
38.370304
 11
218.129700
 21
37.329063
  0
LINE
  8
0
  6
CONTINUOUS
 10
209.231400
 20
46.101585
 11
208.873398
 21
45.242561
  0
LINE
  8
0
  6
CONTINUOUS
 10
213.800797
 20
46.101585
 11
214.102600
 21
45.242561
  0
LINE
  8
0
  6
CONTINUOUS
 10
212.064407
 20
46.101585
 11
213.800797
 21
46.101585
  0
LINE
  8
0
  6
CONTINUOUS
 10
210.814896
 20
46.101585
 11
209.231400
 21
46.101585
  0
LINE
  8
0
  6
CONTINUOUS
 10
219.769699
 20
42.001671
 11
221.902603
 21
42.001671
  0
LINE
  8
0
  6
CONTINUOUS
 10
218.129700
 20
46.101585
 11
218.624298
 21
46.101585
  0
LINE
  8
0
  6
CONTINUOUS
 10
219.769699
 20
46.101585
 11
222.879395
 21
46.099571
  0
LINE
  8
0
  6
CONTINUOUS
 10
203.838593
 20
45.400124
 11
203.838593
 21
45.242561
  0
LINE
  8
0
  6
CENTER
 10
211.255005
 20
156.449997
 11
211.255005
 21
276.744995
  0
LINE
  8
0
  6
CENTER
 10
390.968750
 20
224.949997
 11
162.755005
 21
224.949997
  0
LINE
  8
0
  6
CONTINUOUS
 10
172.562515
 20
193.949997
 11
251.806686
 21
193.949997
  0
LINE
  8
0
  6
CONTINUOUS
 10
255.886612
 20
186.949997
 11
326.255005
 21
186.949997
  0
LINE
  8
0
  6
CONTINUOUS
 10
326.255005
 20
201.949997
 11
250.335327
 21
201.949997
  0
LINE
  8
0
  6
CONTINUOUS
 10
252.964142
 20
255.949997
 11
169.964828
 21
255.949997
  0
LINE
  8
0
  6
CONTINUOUS
 10
255.268600
 20
262.950012
 11
326.255005
 21
262.950012
  0
LINE
  8
0
  6
CONTINUOUS
 10
326.255005
 20
247.949997
 11
254.200165
 21
247.949997
  0
LINE
  8
0
  6
CONTINUOUS
 10
231.255005
 20
190.949997
 11
231.255005
 21
193.949997
  0
LINE
  8
0
  6
CONTINUOUS
 10
191.255005
 20
190.949997
 11
191.255005
 21
193.949997
  0
LINE
  8
0
  6
CONTINUOUS
 10
192.255005
 20
189.949997
 11
230.255005
 21
189.949997
  0
ARC
  8
0
  6
CONTINUOUS
 10
230.255005
 20
190.949997
 40
1.000000
 50
-90.000000
 51
0.000000
  0
ARC
  8
0
  6
CONTINUOUS
 10
192.254990
 20
190.949997
 40
1.000000
 50
180.000000
 51
270.000000
  0
LINE
  8
0
  6
CONTINUOUS
 10
218.755005
 20
160.949997
 11
218.755005
 21
187.949997
  0
LINE
  8
0
  6
CONTINUOUS
 10
218.755005
 20
160.949997
 11
201.755005
 21
160.949997
  0
LINE
  8
0
  6
CONTINUOUS
 10
219.755005
 20
187.949997
 11
202.755005
 21
187.949997
  0
LINE
  8
0
  6
CONTINUOUS
 10
219.755005
 20
187.949997
 11
219.755005
 21
189.949997
  0
LINE
  8
0
  6
CONTINUOUS
 10
202.755005
 20
187.949997
 11
202.755005
 21
189.949997
  0
LINE
  8
0
  6
CONTINUOUS
 10
201.755005
 20
182.449997
 11
201.755005
 21
160.949997
  0
LINE
  8
0
  6
CONTINUOUS
 10
204.184006
 20
182.449997
 11
204.184006
 21
160.949997
  0
LINE
  8
0
  6
CONTINUOUS
 10
204.184006
 20
182.449997
 11
201.755005
 21
182.449997
  0
LINE
  8
0
  6
CONTINUOUS
 10
203.755005
 20
182.449997
 11
203.755005
 21
187.949997
  0
LINE
  8
0
  6
CONTINUOUS
 10
196.255005
 20
254.949997
 11
196.255005
 21
195.915100
  0
LINE
  8
0
  6
CONTINUOUS
 10
226.255005
 20
254.949997
 11
226.255005
 21
195.915100
  0
LINE
  8
0
  6
CONTINUOUS
 10
253.964417
 20
201.947266
 11
253.806000
 21
195.897644
  0
LINE
  8
0
  6
CONTINUOUS
 10
249.480392
 20
254.768753
 11
249.480392
 21
203.949722
  0
LINE
  8
0
  6
CONTINUOUS
 10
253.755005
 20
264.950012
 11
168.755005
 21
264.950012
  0
LINE
  8
0
  6
CONTINUOUS
 10
170.563202
 20
195.897644
 11
168.755005
 21
264.950012
  0
ARC
  8
0
  6
CONTINUOUS
 10
172.562515
 20
195.949997
 40
2.000000
 50
181.500000
 51
270.000000
  0
LINE
  8
0
  6
CONTINUOUS
 10
254.802429
 20
224.949997
 11
253.755005
 21
264.950012
  0
LINE
  8
0
  6
CONTINUOUS
 10
171.332306
 20
264.950012
 11
171.332306
 21
257.260315
  0
LINE
  8
0
  6
CONTINUOUS
 10
251.177704
 20
264.950012
 11
251.177704
 21
257.260315
  0
ARC
  8
0
  6
CONTINUOUS
 10
227.255005
 20
254.949997
 40
1.000000
 50
90.000000
 51
180.000000
  0
ARC
  8
0
  6
CONTINUOUS
 10
195.255005
 20
254.949997
 40
1.000000
 50
0.000000
 51
90.000000
  0
LINE
  8
0
  6
CONTINUOUS
 10
226.255005
 20
254.630005
 11
196.255005
 21
254.630005
  0
ARC
  8
0
  6
CONTINUOUS
 10
169.964828
 20
256.950012
 40
1.000000
 50
181.500000
 51
270.000000
  0
LINE
  8
0
  6
CONTINUOUS
 10
253.887299
 20
188.897644
 11
253.806000
 21
192.002350
  0
ARC
  8
0
  6
CONTINUOUS
 10
252.964142
 20
256.950012
 40
1.000000
 50
-90.000000
 51
1.499999
  0
ARC
  8
0
  6
CONTINUOUS
 10
255.268600
 20
264.450012
 40
1.500000
 50
181.500000
 51
270.000000
  0
ARC
  8
0
  6
CONTINUOUS
 10
255.886612
 20
188.949997
 40
2.000000
 50
181.500000
 51
270.000000
  0
ARC
  8
0
  6
CONTINUOUS
 10
251.806686
 20
191.949997
 40
2.000000
 50
1.500000
 51
90.000000
  0
ARC
  8
0
  6
CONTINUOUS
 10
251.806686
 20
195.949997
 40
2.000000
 50
270.000000
 51
358.500000
  0
LINE
  8
0
  6
CENTER
 10
179.255005
 20
268.840149
 11
179.255005
 21
251.699371
  0
LINE
  8
0
  6
DASHED
 10
176.005005
 20
255.949997
 11
176.005005
 21
264.950012
  0
LINE
  8
0
  6
DASHED
 10
182.505005
 20
255.949997
 11
182.505005
 21
264.950012
  0
LINE
  8
0
  6
CENTER
 10
243.255005
 20
268.840149
 11
243.255005
 21
251.699371
  0
LINE
  8
0
  6
DASHED
 10
246.505005
 20
255.949997
 11
246.505005
 21
264.950012
  0
LINE
  8
0
  6
DASHED
 10
240.005005
 20
255.949997
 11
240.005005
 21
264.950012
  0
LINE
  8
0
  6
CENTER
 10
53.901665
 20
1.341565
 11
53.901665
 21
115.841560
  0
LINE
  8
0
  6
CONTINUOUS
 10
84.901665
 20
17.276995
 11
84.901665
 21
103.363663
  0
LINE
  8
0
  6
CONTINUOUS
 10
88.901665
 20
54.329063
 11
88.901665
 21
92.329063
  0
LINE
  8
0
  6
CENTER
 10
4.361875
 20
73.329063
 11
121.807503
 21
73.329063
  0
LINE
  8
0
  6
CONTINUOUS
 10
87.901665
 20
93.329063
 11
86.901665
 21
93.329063
  0
LINE
  8
0
  6
CONTINUOUS
 10
87.901665
 20
53.329063
 11
86.901665
 21
53.329063
  0
LINE
  8
0
  6
CONTINUOUS
 10
82.936562
 20
105.363365
 11
24.866764
 21
106.376740
  0
LINE
  8
0
  6
CONTINUOUS
 10
82.936562
 20
15.277294
 11
24.866764
 21
14.263474
  0
ARC
  8
0
  6
CONTINUOUS
 10
82.901665
 20
103.363655
 40
2.000000
 50
0.000000
 51
89.000359
  0
ARC
  8
0
  6
CONTINUOUS
 10
82.901665
 20
17.276983
 40
2.000000
 50
-88.999634
 51
0.000000
  0
ARC
  8
0
  6
CONTINUOUS
 10
87.901665
 20
92.329063
 40
1.000000
 50
0.000000
 51
90.000000
  0
ARC
  8
0
  6
CONTINUOUS
 10
87.901665
 20
54.329060
 40
1.000000
 50
-90.000000
 51
0.000000
  0
LINE
  8
0
  6
CONTINUOUS
 10
22.901665
 20
31.629084
 11
22.901665
 21
10.829064
  0
LINE
  8
0
  6
CONTINUOUS
 10
13.901664
 20
111.329063
 11
21.750664
 21
111.329063
  0
LINE
  8
0
  6
CONTINUOUS
 10
21.366964
 20
9.329064
 11
13.901664
 21
9.329064
  0
LINE
  8
0
  6
CONTINUOUS
 10
26.402664
 20
86.029060
 11
82.932961
 21
86.029060
  0
LINE
  8
0
  6
CONTINUOUS
 10
25.901665
 20
34.629063
 11
83.464165
 21
34.629063
  0
ARC
  8
0
  6
CONTINUOUS
 10
21.401665
 20
10.829064
 40
1.500000
 50
-90.000000
 51
0.000000
  0
LINE
  8
0
  6
CONTINUOUS
 10
23.199564
 20
110.217285
 11
23.639364
 21
108.575920
  0
ARC
  8
0
  6
CONTINUOUS
 10
26.534763
 20
109.348099
 40
3.000000
 50
194.932602
 51
269.000610
  0
ARC
  8
0
  6
CONTINUOUS
 10
21.750664
 20
109.829063
 40
1.500000
 50
15.000070
 51
90.000000
  0
ARC
  8
0
  6
CONTINUOUS
 10
25.901665
 20
31.629084
 40
3.000000
 50
90.000000
 51
180.000000
  0
ARC
  8
0
  6
CONTINUOUS
 10
86.901665
 20
95.329063
 40
2.000000
 50
180.000000
 51
270.000000
  0
ARC
  8
0
  6
CONTINUOUS
 10
86.901665
 20
51.329075
 40
2.000000
 50
90.000000
 51
180.000000
  0
LINE
  8
0
  6
CONTINUOUS
 10
90.901665
 20
80.829063
 11
117.901665
 21
80.829063
  0
LINE
  8
0
  6
CONTINUOUS
 10
90.901665
 20
65.829063
 11
117.901665
 21
65.829063
  0
LINE
  8
0
  6
CONTINUOUS
 10
117.901665
 20
65.829063
 11
117.901665
 21
80.829063
  0
LINE
  8
0
  6
CONTINUOUS
 10
96.401665
 20
70.829063
 11
117.901665
 21
70.829063
  0
LINE
  8
0
  6
CONTINUOUS
 10
96.401665
 20
75.829063
 11
117.901665
 21
75.829063
  0
ARC
  8
0
  6
CONTINUOUS
 10
96.401665
 20
73.329071
 40
2.500000
 50
90.000000
 51
180.000000
  0
ARC
  8
0
  6
CONTINUOUS
 10
96.401665
 20
73.329063
 40
2.500000
 50
180.000000
 51
270.000000
  0
LINE
  8
0
  6
CENTER
 10
10.182965
 20
103.329063
 11
26.432964
 21
103.329063
  0
LINE
  8
0
  6
CENTER
 10
11.182965
 20
17.329063
 11
26.182964
 21
17.329063
  0
LINE
  8
0
  6
DASHED
 10
13.901664
 20
20.579063
 11
22.901665
 21
20.579063
  0
LINE
  8
0
  6
DASHED
 10
13.901664
 20
14.079064
 11
22.901665
 21
14.079064
  0
LINE
  8
0
  6
DASHED
 10
13.901664
 20
106.579063
 11
22.901665
 21
106.579063
  0
LINE
  8
0
  6
DASHED
 10
13.901664
 20
100.079063
 11
22.901665
 21
100.079063
  0
LINE
  8
0
  6
CONTINUOUS
 10
32.901665
 20
13.029064
 11
74.901665
 21
13.029064
  0
ARC
  8
0
  6
CONTINUOUS
 10
74.901665
 20
15.029064
 40
2.000000
 50
-90.000000
 51
0.000000
  0
ARC
  8
0
  6
CONTINUOUS
 10
32.901665
 20
15.029064
 40
2.000000
 50
199.216690
 51
270.000000
  0
LINE
  8
0
  6
CONTINUOUS
 10
76.901665
 20
15.029064
 11
76.901665
 21
15.171933
  0
LINE
  8
0
  6
CONTINUOUS
 10
13.901664
 20
9.329064
 11
13.901664
 21
111.329063
  0
LINE
  8
0
  6
CONTINUOUS
 10
90.901665
 20
81.829063
 11
90.901665
 21
64.829063
  0
LINE
  8
0
  6
CENTER
 10
7.515965
 20
51.029064
 11
95.639160
 21
51.029064
  0
LINE
  8
0
  6
CONTINUOUS
 10
22.901665
 20
110.790939
 11
22.901665
 21
31.629084
  0
LINE
  8
0
  6
CONTINUOUS
 10
88.901665
 20
81.829063
 11
90.901665
 21
81.829063
  0
LINE
  8
0
  6
CONTINUOUS
 10
88.901665
 20
64.829063
 11
90.901665
 21
64.829063
  0
ARC
  8
0
  6
CONTINUOUS
 10
24.901665
 20
108.376442
 40
2.000000
 50
180.000000
 51
269.000610
  0
ARC
  8
0
  6
CONTINUOUS
 10
24.901665
 20
12.263794
 40
2.000000
 50
91.000641
 51
180.000000
  0
LINE
  8
0
  6
CONTINUOUS
 10
23.298864
 20
10.811424
 11
23.635664
 21
12.068554
  0
ARC
  8
0
  6
CONTINUOUS
 10
21.366964
 20
11.329064
 40
2.000000
 50
270.000000
 51
345.000092
  0
ARC
  8
0
  6
CONTINUOUS
 10
26.533464
 20
11.292134
 40
3.000000
 50
91.000488
 51
165.000397
  0
LINE
  8
0
  6
DASHED
 10
74.936562
 20
88.661903
 11
53.901665
 21
89.029053
  0
ARC
  8
0
  6
DASHED
 10
74.901665
 20
86.662193
 40
2.000000
 50
0.000000
 51
89.000137
  0
LINE
  8
0
  6
DASHED
 10
30.901663
 20
86.662193
 11
30.901663
 21
82.730797
  0
LINE
  8
0
  6
DASHED
 10
32.866764
 20
88.661903
 11
53.901665
 21
89.029053
  0
ARC
  8
0
  6
DASHED
 10
32.901665
 20
86.662193
 40
2.000000
 50
90.999863
 51
180.000000
  0
LINE
  8
0
  6
DASHED
 10
30.901663
 20
15.029064
 11
30.901663
 21
19.327330
  0
ARC
  8
0
  6
DASHED
 10
32.901665
 20
15.029064
 40
2.000000
 50
180.000000
 51
199.216690
  0
ARC
  8
0
  6
DASHED
 10
53.901665
 20
51.029064
 40
38.000000
 50
129.356705
 51
230.643295
  0
ARC
  8
0
  6
CONTINUOUS
 10
53.901665
 20
51.029064
 40
38.000000
 50
-35.334499
 51
21.294262
  0
LINE
  8
0
  6
DASHED
 10
76.901665
 20
15.171933
 11
76.901665
 21
19.327330
  0
ARC
  8
0
  6
DASHED
 10
53.901665
 20
51.029064
 40
38.000000
 50
-50.643299
 51
-35.334499
  0
ARC
  8
0
  6
DASHED
 10
53.901665
 20
51.029064
 40
38.000000
 50
21.294262
 51
50.643299
  0
LINE
  8
0
  6
DASHED
 10
76.901665
 20
86.662193
 11
76.901665
 21
82.730797
  0
ARC
  8
0
  6
DASHED
 10
27.901663
 20
82.730797
 40
3.000000
 50
-50.643299
 51
0.000000
  0
ARC
  8
0
  6
DASHED
 10
79.901665
 20
82.730797
 40
3.000000
 50
180.000000
 51
230.643295
  0
ARC
  8
0
  6
DASHED
 10
79.901665
 20
19.327330
 40
3.000000
 50
129.356705
 51
180.000000
  0
ARC
  8
0
  6
DASHED
 10
27.901663
 20
19.327330
 40
3.000000
 50
0.000000
 51
50.643299
  0
LINE
  8
0
  6
CONTINUOUS
 10
30.901663
 20
106.029060
 11
30.901663
 21
108.512482
  0
LINE
  8
0
  6
CONTINUOUS
 10
76.651665
 20
106.529060
 11
76.651665
 21
107.968262
  0
LINE
  8
0
  6
CONTINUOUS
 10
71.151665
 20
106.528862
 11
71.151665
 21
107.968262
  0
LINE
  8
0
  6
CONTINUOUS
 10
76.651665
 20
107.229065
 11
71.151665
 21
107.229065
  0
ARC
  8
0
  6
CONTINUOUS
 10
73.901665
 20
102.229065
 40
7.000000
 50
73.041977
 51
106.956497
  0
ARC
  8
0
  6
CONTINUOUS
 10
72.151665
 20
107.968262
 40
1.000000
 50
106.956902
 51
180.000000
  0
ARC
  8
0
  6
CONTINUOUS
 10
75.651665
 20
107.968262
 40
1.000000
 50
0.000000
 51
73.041847
  0
LINE
  8
0
  6
DASHED
 10
76.401665
 20
101.529060
 11
76.401665
 21
102.529060
  0
LINE
  8
0
  6
CONTINUOUS
 10
76.901665
 20
105.468674
 11
76.901665
 21
108.512482
  0
LINE
  8
0
  6
CONTINUOUS
 10
76.651665
 20
106.529060
 11
70.901665
 21
106.529060
  0
LINE
  8
0
  6
DASHED
 10
31.401663
 20
101.529060
 11
31.401663
 21
102.529060
  0
ARC
  8
0
  6
CONTINUOUS
 10
53.901665
 20
102.029060
 40
6.000000
 50
38.797073
 51
139.203384
  0
LINE
  8
0
  6
CONTINUOUS
 10
70.401665
 20
109.015526
 11
70.401665
 21
107.029060
  0
ARC
  8
0
  6
CONTINUOUS
 10
53.901665
 20
-139.970917
 40
250.000000
 50
84.826019
 51
95.173981
  0
ARC
  8
0
  6
CONTINUOUS
 10
76.401665
 20
108.512482
 40
0.500000
 50
0.000000
 51
84.826019
  0
ARC
  8
0
  6
CONTINUOUS
 10
69.901665
 20
109.015526
 40
0.500000
 50
0.000000
 51
86.323196
  0
ARC
  8
0
  6
CONTINUOUS
 10
76.401665
 20
106.029060
 40
0.500000
 50
0.000000
 51
90.000000
  0
ARC
  8
0
  6
CONTINUOUS
 10
70.901665
 20
107.029060
 40
0.500000
 50
180.000000
 51
270.000000
  0
LINE
  8
0
  6
CONTINUOUS
 10
31.151663
 20
106.529060
 11
31.151663
 21
107.968262
  0
LINE
  8
0
  6
CONTINUOUS
 10
36.651665
 20
106.528862
 11
36.651665
 21
107.968262
  0
LINE
  8
0
  6
CONTINUOUS
 10
31.151663
 20
107.229065
 11
36.651665
 21
107.229065
  0
ARC
  8
0
  6
CONTINUOUS
 10
33.901665
 20
102.229065
 40
7.000000
 50
73.043503
 51
106.958023
  0
ARC
  8
0
  6
CONTINUOUS
 10
35.651665
 20
107.968262
 40
1.000000
 50
0.000000
 51
73.043098
  0
ARC
  8
0
  6
CONTINUOUS
 10
32.151665
 20
107.968262
 40
1.000000
 50
106.958153
 51
180.000000
  0
LINE
  8
0
  6
CONTINUOUS
 10
31.151663
 20
106.529060
 11
36.901665
 21
106.529060
  0
LINE
  8
0
  6
CONTINUOUS
 10
37.401665
 20
109.015526
 11
37.401665
 21
107.029060
  0
ARC
  8
0
  6
CONTINUOUS
 10
31.401663
 20
108.512482
 40
0.500000
 50
95.173981
 51
180.000000
  0
ARC
  8
0
  6
CONTINUOUS
 10
37.901665
 20
109.015526
 40
0.500000
 50
93.676804
 51
180.000000
  0
ARC
  8
0
  6
CONTINUOUS
 10
31.401663
 20
106.029060
 40
0.500000
 50
90.000000
 51
180.000000
  0
ARC
  8
0
  6
CONTINUOUS
 10
36.901665
 20
107.029060
 40
0.500000
 50
-90.000000
 51
0.000000
  0
LINE
  8
0
  6
DASHED
 10
76.901665
 20
101.529060
 11
76.901665
 21
86.662193
  0
LINE
  8
0
  6
DASHED
 10
30.901663
 20
101.529060
 11
30.901663
 21
86.662193
  0
LINE
  8
0
  6
DASHED
 10
76.401665
 20
102.529060
 11
76.901665
 21
102.529060
  0
LINE
  8
0
  6
DASHED
 10
76.401665
 20
101.529060
 11
76.901665
 21
101.529060
  0
LINE
  8
0
  6
DASHED
 10
31.401663
 20
102.529060
 11
30.901663
 21
102.529060
  0
LINE
  8
0
  6
DASHED
 10
31.401663
 20
101.529060
 11
30.901663
 21
101.529060
  0
LINE
  8
0
  6
DASHED
 10
76.901665
 20
105.468674
 11
76.901665
 21
102.529060
  0
LINE
  8
0
  6
DASHED
 10
30.901663
 20
106.029060
 11
30.901663
 21
102.529060
  0
LINE
  8
0
  6
CONTINUOUS
 10
96.401665
 20
75.829063
 11
96.401665
 21
70.829063
  0
LINE
  8
0
  6
CENTER
 10
343.755005
 20
195.469376
 11
343.755005
 21
252.486496
  0
LINE
  8
0
  6
CONTINUOUS
 10
326.255005
 20
262.950012
 11
326.255005
 21
186.949997
  0
LINE
  8
0
  6
CONTINUOUS
 10
351.255005
 20
188.654099
 11
351.255005
 21
201.949997
  0
LINE
  8
0
  6
CONTINUOUS
 10
351.255005
 20
261.245911
 11
351.255005
 21
247.949997
  0
LINE
  8
0
  6
CONTINUOUS
 10
349.255310
 20
262.548492
 11
326.255005
 21
262.950012
  0
LINE
  8
0
  6
CONTINUOUS
 10
350.513397
 20
262.211914
 11
349.255310
 21
262.548492
  0
ARC
  8
0
  6
CONTINUOUS
 10
350.255005
 20
261.245911
 40
1.000000
 50
0.000000
 51
75.025597
  0
LINE
  8
0
  6
CONTINUOUS
 10
349.255310
 20
187.351593
 11
326.255005
 21
186.949997
  0
LINE
  8
0
  6
CONTINUOUS
 10
350.513397
 20
187.688095
 11
349.255310
 21
187.351593
  0
ARC
  8
0
  6
CONTINUOUS
 10
350.255005
 20
188.654099
 40
1.000000
 50
-75.025597
 51
0.000000
  0
LINE
  8
0
  6
CONTINUOUS
 10
358.755096
 20
245.949997
 11
358.755096
 21
203.949997
  0
LINE
  8
0
  6
CONTINUOUS
 10
328.755005
 20
203.949997
 11
328.755005
 21
245.949997
  0
LINE
  8
0
  6
CONTINUOUS
 10
326.755005
 20
219.949997
 11
326.755005
 21
229.949997
  0
LINE
  8
0
  6
CONTINUOUS
 10
360.755005
 20
219.949997
 11
360.755005
 21
229.949997
  0
ARC
  8
0
  6
CONTINUOUS
 10
355.755005
 20
244.949997
 40
3.500000
 50
180.000000
 51
270.000000
  0
LINE
  8
0
  6
CONTINUOUS
 10
357.755096
 20
241.449997
 11
355.755005
 21
241.449997
  0
LINE
  8
0
  6
CONTINUOUS
 10
352.255005
 20
246.949997
 11
352.255005
 21
244.949997
  0
ARC
  8
0
  6
CONTINUOUS
 10
357.755096
 20
240.449997
 40
1.000000
 50
0.000000
 51
90.000000
  0
ARC
  8
0
  6
CONTINUOUS
 10
331.755005
 20
244.949997
 40
3.500000
 50
-90.000000
 51
0.000000
  0
LINE
  8
0
  6
CONTINUOUS
 10
335.255005
 20
246.949997
 11
335.255005
 21
244.949997
  0
LINE
  8
0
  6
CONTINUOUS
 10
329.754913
 20
241.449997
 11
331.755005
 21
241.449997
  0
ARC
  8
0
  6
CONTINUOUS
 10
329.754913
 20
240.449997
 40
1.000000
 50
90.000000
 51
180.000000
  0
LINE
  8
0
  6
CONTINUOUS
 10
330.755005
 20
247.949997
 11
356.755096
 21
247.949997
  0
ARC
  8
0
  6
CONTINUOUS
 10
336.255005
 20
246.949997
 40
1.000000
 50
90.000000
 51
180.000000
  0
ARC
  8
0
  6
CONTINUOUS
 10
351.255005
 20
246.949997
 40
1.000000
 50
0.000000
 51
90.000000
  0
ARC
  8
0
  6
CONTINUOUS
 10
356.755096
 20
245.949997
 40
2.000000
 50
0.000000
 51
90.000000
  0
ARC
  8
0
  6
CONTINUOUS
 10
330.755005
 20
245.949997
 40
2.000000
 50
90.000000
 51
180.000000
  0
ARC
  8
0
  6
CONTINUOUS
 10
355.755005
 20
204.949997
 40
3.500000
 50
90.000000
 51
180.000000
  0
LINE
  8
0
  6
CONTINUOUS
 10
357.755096
 20
208.449997
 11
355.755005
 21
208.449997
  0
LINE
  8
0
  6
CONTINUOUS
 10
352.255005
 20
202.949997
 11
352.255005
 21
204.949997
  0
ARC
  8
0
  6
CONTINUOUS
 10
357.755096
 20
209.449997
 40
1.000000
 50
-90.000000
 51
0.000000
  0
ARC
  8
0
  6
CONTINUOUS
 10
331.755005
 20
204.949997
 40
3.500000
 50
0.000000
 51
90.000000
  0
LINE
  8
0
  6
CONTINUOUS
 10
335.255005
 20
202.949997
 11
335.255005
 21
204.949997
  0
LINE
  8
0
  6
CONTINUOUS
 10
329.754913
 20
208.449997
 11
331.755005
 21
208.449997
  0
ARC
  8
0
  6
CONTINUOUS
 10
329.754913
 20
209.449997
 40
1.000000
 50
180.000000
 51
270.000000
  0
LINE
  8
0
  6
CONTINUOUS
 10
330.755005
 20
201.949997
 11
356.755096
 21
201.949997
  0
ARC
  8
0
  6
CONTINUOUS
 10
336.255005
 20
202.949997
 40
1.000000
 50
180.000000
 51
270.000000
  0
ARC
  8
0
  6
CONTINUOUS
 10
351.255005
 20
202.949997
 40
1.000000
 50
-90.000000
 51
0.000000
  0
ARC
  8
0
  6
CONTINUOUS
 10
356.755096
 20
203.949997
 40
2.000000
 50
-90.000000
 51
0.000000
  0
ARC
  8
0
  6
CONTINUOUS
 10
330.755005
 20
203.949997
 40
2.000000
 50
180.000000
 51
270.000000
  0
LINE
  8
0
  6
CONTINUOUS
 10
359.255005
 20
218.949997
 11
359.755005
 21
218.949997
  0
ARC
  8
0
  6
CONTINUOUS
 10
359.755005
 20
219.949997
 40
1.000000
 50
-90.000000
 51
0.000000
  0
ARC
  8
0
  6
CONTINUOUS
 10
359.255005
 20
218.449997
 40
0.500000
 50
90.000000
 51
180.000000
  0
LINE
  8
0
  6
CONTINUOUS
 10
359.255005
 20
230.949997
 11
359.755005
 21
230.949997
  0
ARC
  8
0
  6
CONTINUOUS
 10
359.755005
 20
229.949997
 40
1.000000
 50
0.000000
 51
90.000000
  0
ARC
  8
0
  6
CONTINUOUS
 10
359.255005
 20
231.449997
 40
0.500000
 50
180.000000
 51
270.000000
  0
LINE
  8
0
  6
CONTINUOUS
 10
328.255005
 20
218.949997
 11
327.755005
 21
218.949997
  0
ARC
  8
0
  6
CONTINUOUS
 10
327.755005
 20
219.949997
 40
1.000000
 50
180.000000
 51
270.000000
  0
ARC
  8
0
  6
CONTINUOUS
 10
328.255005
 20
218.449997
 40
0.500000
 50
0.000000
 51
90.000000
  0
LINE
  8
0
  6
CONTINUOUS
 10
328.255005
 20
230.949997
 11
327.755005
 21
230.949997
  0
ARC
  8
0
  6
CONTINUOUS
 10
327.755005
 20
229.949997
 40
1.000000
 50
90.000000
 51
180.000000
  0
ARC
  8
0
  6
CONTINUOUS
 10
328.255005
 20
231.449997
 40
0.500000
 50
-90.000000
 51
0.000000
  0
LINE
  8
0
  6
CONTINUOUS
 10
330.377319
 20
201.985992
 11
326.255005
 21
201.949997
  0
LINE
  8
0
  6
CONTINUOUS
 10
330.377319
 20
247.914017
 11
326.255005
 21
247.949997
  0
LINE
  8
0
  6
CONTINUOUS
 10
354.005005
 20
244.550003
 11
354.005005
 21
245.350021
  0
LINE
  8
0
  6
CONTINUOUS
 10
356.155029
 20
243.199997
 11
355.355011
 21
243.199997
  0
LINE
  8
0
  6
CONTINUOUS
 10
356.155029
 20
246.699997
 11
355.355011
 21
246.699997
  0
LINE
  8
0
  6
CONTINUOUS
 10
357.505005
 20
244.550003
 11
357.505005
 21
245.350021
  0
CIRCLE
  8
0
  6
CONTINUOUS
 10
355.755005
 20
244.949997
 40
2.750000
  0
ARC
  8
0
  6
CONTINUOUS
 10
357.505005
 20
243.199997
 40
1.350000
 50
90.000000
 51
180.000000
  0
ARC
  8
0
  6
CONTINUOUS
 10
357.505005
 20
246.699997
 40
1.350000
 50
180.000000
 51
270.000000
  0
ARC
  8
0
  6
CONTINUOUS
 10
354.005005
 20
243.199997
 40
1.350000
 50
0.000000
 51
90.000000
  0
ARC
  8
0
  6
CONTINUOUS
 10
354.005005
 20
246.699997
 40
1.350000
 50
-90.000000
 51
0.000000
  0
LINE
  8
0
  6
CONTINUOUS
 10
330.005005
 20
244.550003
 11
330.005005
 21
245.350021
  0
LINE
  8
0
  6
CONTINUOUS
 10
332.155029
 20
243.199997
 11
331.355011
 21
243.199997
  0
LINE
  8
0
  6
CONTINUOUS
 10
332.155029
 20
246.699997
 11
331.355011
 21
246.699997
  0
LINE
  8
0
  6
CONTINUOUS
 10
333.505005
 20
244.550003
 11
333.505005
 21
245.350021
  0
CIRCLE
  8
0
  6
CONTINUOUS
 10
331.755005
 20
244.949997
 40
2.750000
  0
ARC
  8
0
  6
CONTINUOUS
 10
333.505005
 20
243.199997
 40
1.350000
 50
90.000000
 51
180.000000
  0
ARC
  8
0
  6
CONTINUOUS
 10
333.505005
 20
246.699997
 40
1.350000
 50
180.000000
 51
270.000000
  0
ARC
  8
0
  6
CONTINUOUS
 10
330.005005
 20
243.199997
 40
1.350000
 50
0.000000
 51
90.000000
  0
ARC
  8
0
  6
CONTINUOUS
 10
330.005005
 20
246.699997
 40
1.350000
 50
-90.000000
 51
0.000000
  0
LINE
  8
0
  6
CONTINUOUS
 10
330.005005
 20
204.550003
 11
330.005005
 21
205.350021
  0
LINE
  8
0
  6
CONTINUOUS
 10
332.155029
 20
203.199997
 11
331.355011
 21
203.199997
  0
LINE
  8
0
  6
CONTINUOUS
 10
332.155029
 20
206.699997
 11
331.355011
 21
206.699997
  0
LINE
  8
0
  6
CONTINUOUS
 10
333.505005
 20
204.550003
 11
333.505005
 21
205.350021
  0
CIRCLE
  8
0
  6
CONTINUOUS
 10
331.755005
 20
204.949997
 40
2.750000
  0
ARC
  8
0
  6
CONTINUOUS
 10
333.505005
 20
203.199997
 40
1.350000
 50
90.000000
 51
180.000000
  0
ARC
  8
0
  6
CONTINUOUS
 10
333.505005
 20
206.699997
 40
1.350000
 50
180.000000
 51
270.000000
  0
ARC
  8
0
  6
CONTINUOUS
 10
330.005005
 20
203.199997
 40
1.350000
 50
0.000000
 51
90.000000
  0
ARC
  8
0
  6
CONTINUOUS
 10
330.005005
 20
206.699997
 40
1.350000
 50
-90.000000
 51
0.000000
  0
LINE
  8
0
  6
CONTINUOUS
 10
354.005005
 20
204.550003
 11
354.005005
 21
205.350021
  0
LINE
  8
0
  6
CONTINUOUS
 10
356.155029
 20
203.199997
 11
355.355011
 21
203.199997
  0
LINE
  8
0
  6
CONTINUOUS
 10
356.155029
 20
206.699997
 11
355.355011
 21
206.699997
  0
LINE
  8
0
  6
CONTINUOUS
 10
357.505005
 20
204.550003
 11
357.505005
 21
205.350021
  0
CIRCLE
  8
0
  6
CONTINUOUS
 10
355.755005
 20
204.949997
 40
2.750000
  0
ARC
  8
0
  6
CONTINUOUS
 10
357.505005
 20
203.199997
 40
1.350000
 50
90.000000
 51
180.000000
  0
ARC
  8
0
  6
CONTINUOUS
 10
357.505005
 20
206.699997
 40
1.350000
 50
180.000000
 51
270.000000
  0
ARC
  8
0
  6
CONTINUOUS
 10
354.005005
 20
203.199997
 40
1.350000
 50
0.000000
 51
90.000000
  0
ARC
  8
0
  6
CONTINUOUS
 10
354.005005
 20
206.699997
 40
1.350000
 50
-90.000000
 51
0.000000
  0
LINE
  8
0
  6
CONTINUOUS
 10
375.903687
 20
228.800003
 11
360.754883
 21
228.800003
  0
LINE
  8
0
  6
CONTINUOUS
 10
375.051880
 20
221.100006
 11
375.787689
 21
223.935104
  0
LINE
  8
0
  6
CONTINUOUS
 10
375.787689
 20
223.935104
 11
374.975586
 21
226.410095
  0
LINE
  8
0
  6
CONTINUOUS
 10
374.975586
 20
226.410095
 11
375.903687
 21
228.800003
  0
LINE
  8
0
  6
CONTINUOUS
 10
375.051880
 20
221.100006
 11
360.754883
 21
221.100006
  0
LINE
  8
0
  6
CONTINUOUS
 10
379.010895
 20
194.176819
 11
357.512970
 21
193.613876
  0
LINE
  8
0
  6
CONTINUOUS
 10
382.755005
 20
196.637817
 11
382.755005
 21
253.262177
  0
LINE
  8
0
  6
CONTINUOUS
 10
381.387451
 20
194.740448
 11
380.461151
 21
194.431686
  0
ARC
  8
0
  6
CONTINUOUS
 10
378.880005
 20
199.175095
 40
5.000000
 50
271.500000
 51
288.434937
  0
ARC
  8
0
  6
CONTINUOUS
 10
380.755005
 20
196.637817
 40
2.000000
 50
-71.565048
 51
0.000000
  0
LINE
  8
0
  6
CONTINUOUS
 10
381.387451
 20
255.159546
 11
380.461151
 21
255.468323
  0
ARC
  8
0
  6
CONTINUOUS
 10
378.880005
 20
250.724899
 40
5.000000
 50
71.565048
 51
88.500000
  0
ARC
  8
0
  6
CONTINUOUS
 10
380.755005
 20
253.262177
 40
2.000000
 50
0.000000
 51
71.565048
  0
LINE
  8
0
  6
CONTINUOUS
 10
379.010895
 20
255.723190
 11
357.512970
 21
256.286133
  0
LINE
  8
0
  6
CONTINUOUS
 10
355.255005
 20
257.427124
 11
355.255005
 21
247.949997
  0
LINE
  8
0
  6
CONTINUOUS
 10
354.768097
 20
257.926941
 11
351.255005
 21
258.018921
  0
ARC
  8
0
  6
CONTINUOUS
 10
354.755005
 20
257.427124
 40
0.500000
 50
0.000000
 51
88.500511
  0
LINE
  8
0
  6
CONTINUOUS
 10
355.255005
 20
256.711914
 11
356.694275
 21
256.711914
  0
LINE
  8
0
  6
CONTINUOUS
 10
355.255005
 20
251.211899
 11
356.694275
 21
251.211899
  0
LINE
  8
0
  6
CONTINUOUS
 10
355.955078
 20
256.711914
 11
355.955078
 21
251.211899
  0
ARC
  8
0
  6
CONTINUOUS
 10
350.955078
 20
253.961899
 40
7.000000
 50
-16.956499
 51
16.958000
  0
ARC
  8
0
  6
CONTINUOUS
 10
356.694275
 20
252.211899
 40
1.000000
 50
270.000000
 51
343.043091
  0
ARC
  8
0
  6
CONTINUOUS
 10
356.694275
 20
255.711899
 40
1.000000
 50
16.958099
 51
90.000000
  0
LINE
  8
0
  6
CONTINUOUS
 10
355.255005
 20
192.472885
 11
355.255005
 21
201.949997
  0
LINE
  8
0
  6
CONTINUOUS
 10
354.768097
 20
191.973053
 11
351.255005
 21
191.881088
  0
ARC
  8
0
  6
CONTINUOUS
 10
354.755005
 20
192.472885
 40
0.500000
 50
-88.500511
 51
0.000000
  0
LINE
  8
0
  6
CONTINUOUS
 10
355.255005
 20
193.188095
 11
356.694275
 21
193.188095
  0
LINE
  8
0
  6
CONTINUOUS
 10
355.255005
 20
198.688095
 11
356.694275
 21
198.688095
  0
LINE
  8
0
  6
CONTINUOUS
 10
355.955078
 20
193.188095
 11
355.955078
 21
198.688095
  0
ARC
  8
0
  6
CONTINUOUS
 10
350.955078
 20
195.938095
 40
7.000000
 50
-16.958000
 51
16.956499
  0
ARC
  8
0
  6
CONTINUOUS
 10
356.694275
 20
197.688095
 40
1.000000
 50
16.956900
 51
90.000000
  0
ARC
  8
0
  6
CONTINUOUS
 10
356.694275
 20
194.188095
 40
1.000000
 50
-90.000000
 51
-16.958099
  0
LINE
  8
0
  6
CONTINUOUS
 10
357.949432
 20
253.681290
 11
382.755005
 21
253.031708
  0
LINE
  8
0
  6
CONTINUOUS
 10
355.255005
 20
250.146210
 11
382.755005
 21
250.866333
  0
LINE
  8
0
  6
CONTINUOUS
 10
355.255005
 20
251.211899
 11
356.694275
 21
251.211899
  0
LINE
  8
0
  6
CONTINUOUS
 10
357.949432
 20
196.218704
 11
382.755005
 21
196.868286
  0
LINE
  8
0
  6
CONTINUOUS
 10
355.255005
 20
199.753799
 11
382.755005
 21
199.033676
  0
LINE
  8
0
  6
CONTINUOUS
 10
355.255005
 20
14.620876
 11
355.255005
 21
20.383806
  0
LINE
  8
0
  6
CONTINUOUS
 10
355.255005
 20
14.779063
 11
356.694275
 21
14.779063
  0
LINE
  8
0
  6
CONTINUOUS
 10
355.255005
 20
20.279062
 11
356.694275
 21
20.279062
  0
LINE
  8
0
  6
CONTINUOUS
 10
355.955078
 20
14.779063
 11
355.955078
 21
20.279062
  0
ARC
  8
0
  6
CONTINUOUS
 10
350.955078
 20
17.529062
 40
7.000000
 50
-16.958000
 51
16.956499
  0
ARC
  8
0
  6
CONTINUOUS
 10
356.694275
 20
19.279062
 40
1.000000
 50
16.956900
 51
90.000000
  0
ARC
  8
0
  6
CONTINUOUS
 10
356.694275
 20
15.779063
 40
1.000000
 50
-90.000000
 51
-16.958099
  0
LINE
  8
0
  6
CONTINUOUS
 10
382.755005
 20
79.298050
 11
382.755005
 21
23.460983
  0
LINE
  8
0
  6
CONTINUOUS
 10
355.255005
 20
65.029060
 11
356.694275
 21
65.029060
  0
LINE
  8
0
  6
CONTINUOUS
 10
355.255005
 20
70.529060
 11
356.694275
 21
70.529060
  0
LINE
  8
0
  6
CONTINUOUS
 10
355.955078
 20
65.029060
 11
355.955078
 21
70.529060
  0
ARC
  8
0
  6
CONTINUOUS
 10
350.955078
 20
67.779060
 40
7.000000
 50
-16.958000
 51
16.956499
  0
ARC
  8
0
  6
CONTINUOUS
 10
356.694275
 20
69.529060
 40
1.000000
 50
16.956900
 51
90.000000
  0
ARC
  8
0
  6
CONTINUOUS
 10
356.694275
 20
66.029060
 40
1.000000
 50
-90.000000
 51
-16.958099
  0
LINE
  8
0
  6
CONTINUOUS
 10
355.255005
 20
72.370346
 11
351.255005
 21
72.370346
  0
LINE
  8
0
  6
CONTINUOUS
 10
355.255005
 20
58.964043
 11
351.255005
 21
58.964043
  0
LINE
  8
0
  6
CONTINUOUS
 10
351.255005
 20
81.568001
 11
351.255005
 21
14.029053
  0
LINE
  8
0
  6
CONTINUOUS
 10
327.781219
 20
89.069046
 11
326.255005
 21
89.029060
  0
ARC
  8
0
  6
CONTINUOUS
 10
327.755005
 20
90.068672
 40
1.000000
 50
-88.499901
 51
0.000000
  0
LINE
  8
0
  6
CONTINUOUS
 10
349.255310
 20
21.529062
 11
341.255005
 21
21.529062
  0
LINE
  8
0
  6
CONTINUOUS
 10
358.754883
 20
89.529060
 11
341.255005
 21
89.529060
  0
LINE
  8
0
  6
CONTINUOUS
 10
340.255005
 20
20.529062
 11
340.255005
 21
13.882653
  0
ARC
  8
0
  6
CONTINUOUS
 10
341.255005
 20
20.529062
 40
1.000000
 50
90.000000
 51
180.000000
  0
LINE
  8
0
  6
CONTINUOUS
 10
340.255005
 20
81.029060
 11
340.255005
 21
88.529060
  0
ARC
  8
0
  6
CONTINUOUS
 10
341.255005
 20
88.529060
 40
1.000000
 50
90.000000
 51
180.000000
  0
LINE
  8
0
  6
CONTINUOUS
 10
341.255005
 20
81.529060
 11
341.255005
 21
88.529060
  0
LINE
  8
0
  6
CONTINUOUS
 10
340.255005
 20
81.529060
 11
342.234009
 21
81.529060
  0
LINE
  8
0
  6
CONTINUOUS
 10
340.255005
 20
88.529060
 11
342.234009
 21
88.529060
  0
ARC
  8
0
  6
CONTINUOUS
 10
334.855011
 20
85.029060
 40
8.999999
 50
-16.601500
 51
16.601000
  0
ARC
  8
0
  6
CONTINUOUS
 10
342.234009
 20
82.829086
 40
1.300000
 50
-90.000000
 51
-16.601601
  0
ARC
  8
0
  6
CONTINUOUS
 10
342.234009
 20
87.229073
 40
1.300000
 50
16.600901
 51
90.000000
  0
LINE
  8
0
  6
CONTINUOUS
 10
340.255005
 20
20.647133
 11
340.255005
 21
13.529063
  0
LINE
  8
0
  6
CONTINUOUS
 10
341.255005
 20
20.529062
 11
341.255005
 21
13.529063
  0
LINE
  8
0
  6
CONTINUOUS
 10
340.255005
 20
20.529062
 11
342.234009
 21
20.529062
  0
LINE
  8
0
  6
CONTINUOUS
 10
340.255005
 20
13.529063
 11
342.234009
 21
13.529063
  0
ARC
  8
0
  6
CONTINUOUS
 10
334.855011
 20
17.029062
 40
8.999999
 50
-16.601000
 51
16.601500
  0
ARC
  8
0
  6
CONTINUOUS
 10
342.234009
 20
19.229042
 40
1.300000
 50
16.601601
 51
90.000000
  0
ARC
  8
0
  6
CONTINUOUS
 10
342.234009
 20
14.829053
 40
1.300000
 50
270.000000
 51
343.399109
  0
LINE
  8
0
  6
CONTINUOUS
 10
326.255005
 20
13.029083
 11
326.255005
 21
89.029060
  0
LINE
  8
0
  6
CONTINUOUS
 10
326.255005
 20
81.278030
 11
340.255005
 21
81.278030
  0
LINE
  8
0
  6
CONTINUOUS
 10
326.255005
 20
20.780092
 11
340.255005
 21
20.780092
  0
LINE
  8
0
  6
CONTINUOUS
 10
328.754883
 20
90.068672
 11
328.754883
 21
101.529060
  0
LINE
  8
0
  6
CONTINUOUS
 10
375.903687
 20
98.479065
 11
360.754883
 21
98.479065
  0
LINE
  8
0
  6
CONTINUOUS
 10
326.754883
 20
107.029060
 11
326.754883
 21
102.529060
  0
LINE
  8
0
  6
CONTINUOUS
 10
360.754883
 20
102.529060
 11
326.754883
 21
102.529060
  0
LINE
  8
0
  6
CONTINUOUS
 10
360.754883
 20
101.529060
 11
326.754883
 21
101.529060
  0
LINE
  8
0
  6
CONTINUOUS
 10
360.754883
 20
107.029060
 11
360.754883
 21
102.529060
  0
LINE
  8
0
  6
CONTINUOUS
 10
375.051880
 20
106.179062
 11
360.754883
 21
106.179062
  0
ARC
  8
0
  6
CONTINUOUS
 10
343.754883
 20
-139.970917
 40
250.000000
 50
86.668304
 51
93.331696
  0
LINE
  8
0
  6
CONTINUOUS
 10
328.254883
 20
108.029060
 11
327.754883
 21
108.029060
  0
ARC
  8
0
  6
CONTINUOUS
 10
327.754883
 20
107.029060
 40
1.000000
 50
90.000000
 51
180.000000
  0
ARC
  8
0
  6
CONTINUOUS
 10
328.254883
 20
108.529060
 40
0.500000
 50
-90.000000
 51
0.000000
  0
LINE
  8
0
  6
CONTINUOUS
 10
359.254883
 20
108.029060
 11
359.754883
 21
108.029060
  0
ARC
  8
0
  6
CONTINUOUS
 10
359.754883
 20
107.029060
 40
1.000000
 50
0.000000
 51
90.000000
  0
ARC
  8
0
  6
CONTINUOUS
 10
359.254883
 20
108.529060
 40
0.500000
 50
180.000000
 51
270.000000
  0
LINE
  8
0
  6
CONTINUOUS
 10
358.754883
 20
84.686859
 11
358.754883
 21
101.529060
  0
LINE
  8
0
  6
CONTINUOUS
 10
359.254883
 20
96.029060
 11
359.754883
 21
96.029060
  0
ARC
  8
0
  6
CONTINUOUS
 10
359.754883
 20
97.029060
 40
1.000000
 50
-90.000000
 51
0.000000
  0
ARC
  8
0
  6
CONTINUOUS
 10
359.254883
 20
95.529060
 40
0.500000
 50
90.000000
 51
180.000000
  0
LINE
  8
0
  6
CONTINUOUS
 10
328.254883
 20
96.029060
 11
327.754883
 21
96.029060
  0
ARC
  8
0
  6
CONTINUOUS
 10
327.754883
 20
97.029060
 40
1.000000
 50
180.000000
 51
270.000000
  0
ARC
  8
0
  6
CONTINUOUS
 10
328.254883
 20
95.529060
 40
0.500000
 50
0.000000
 51
90.000000
  0
LINE
  8
0
  6
CENTER
 10
343.755005
 20
113.054581
 11
343.754883
 21
95.255760
  0
ARC
  8
0
  6
CONTINUOUS
 10
329.254883
 20
109.107384
 40
0.500000
 50
93.331696
 51
180.000000
  0
ARC
  8
0
  6
CONTINUOUS
 10
358.254883
 20
109.107384
 40
0.500000
 50
0.000000
 51
86.668304
  0
LINE
  8
0
  6
CONTINUOUS
 10
327.254883
 20
102.529060
 11
327.254883
 21
101.529060
  0
LINE
  8
0
  6
CONTINUOUS
 10
326.754883
 20
101.529060
 11
326.754883
 21
97.029060
  0
LINE
  8
0
  6
CONTINUOUS
 10
328.754883
 20
102.529060
 11
328.754883
 21
109.107384
  0
LINE
  8
0
  6
CONTINUOUS
 10
358.254883
 20
102.529060
 11
358.254883
 21
101.529060
  0
LINE
  8
0
  6
CONTINUOUS
 10
358.754883
 20
102.529060
 11
358.754883
 21
109.107384
  0
LINE
  8
0
  6
CONTINUOUS
 10
360.754883
 20
101.529060
 11
360.754883
 21
97.029060
  0
LINE
  8
0
  6
CONTINUOUS
 10
334.754883
 20
106.529060
 11
329.254883
 21
106.529060
  0
LINE
  8
0
  6
CONTINUOUS
 10
335.254883
 20
107.029060
 11
335.254883
 21
109.400795
  0
ARC
  8
0
  6
CONTINUOUS
 10
334.754883
 20
107.029060
 40
0.500000
 50
-90.000000
 51
0.000000
  0
ARC
  8
0
  6
CONTINUOUS
 10
329.254883
 20
106.029060
 40
0.500000
 50
90.000000
 51
180.000000
  0
ARC
  8
0
  6
CONTINUOUS
 10
335.754883
 20
109.400795
 40
0.500000
 50
91.837456
 51
180.000000
  0
LINE
  8
0
  6
CONTINUOUS
 10
352.755127
 20
106.529060
 11
358.255127
 21
106.529060
  0
ARC
  8
0
  6
CONTINUOUS
 10
352.755127
 20
107.029060
 40
0.500000
 50
180.000000
 51
270.000000
  0
ARC
  8
0
  6
CONTINUOUS
 10
358.255127
 20
106.029060
 40
0.500000
 50
0.000000
 51
90.000000
  0
LINE
  8
0
  6
CONTINUOUS
 10
352.255127
 20
107.029060
 11
352.255127
 21
109.400795
  0
ARC
  8
0
  6
CONTINUOUS
 10
351.755127
 20
109.400795
 40
0.500000
 50
0.000000
 51
88.162544
  0
LINE
  8
0
  6
CONTINUOUS
 10
334.504883
 20
106.529060
 11
334.504883
 21
107.968262
  0
LINE
  8
0
  6
CONTINUOUS
 10
329.004883
 20
106.528862
 11
329.004883
 21
107.968262
  0
LINE
  8
0
  6
CONTINUOUS
 10
334.504883
 20
107.229065
 11
329.004883
 21
107.229065
  0
ARC
  8
0
  6
CONTINUOUS
 10
331.754883
 20
102.229065
 40
7.000000
 50
73.042000
 51
106.956512
  0
ARC
  8
0
  6
CONTINUOUS
 10
330.004883
 20
107.968262
 40
1.000000
 50
106.956902
 51
180.000000
  0
ARC
  8
0
  6
CONTINUOUS
 10
333.504883
 20
107.968262
 40
1.000000
 50
0.000000
 51
73.041801
  0
LINE
  8
0
  6
CONTINUOUS
 10
358.504883
 20
106.529060
 11
358.504883
 21
107.968262
  0
LINE
  8
0
  6
CONTINUOUS
 10
353.004883
 20
106.528862
 11
353.004883
 21
107.968262
  0
LINE
  8
0
  6
CONTINUOUS
 10
358.504883
 20
107.229065
 11
353.004883
 21
107.229065
  0
ARC
  8
0
  6
CONTINUOUS
 10
355.754883
 20
102.229065
 40
7.000000
 50
73.042000
 51
106.956512
  0
ARC
  8
0
  6
CONTINUOUS
 10
354.004883
 20
107.968262
 40
1.000000
 50
106.956902
 51
180.000000
  0
ARC
  8
0
  6
CONTINUOUS
 10
357.504883
 20
107.968262
 40
1.000000
 50
0.000000
 51
73.041801
  0
LINE
  8
0
  6
CONTINUOUS
 10
352.228821
 20
82.567657
 11
356.807220
 21
82.687546
  0
ARC
  8
0
  6
CONTINUOUS
 10
356.754883
 20
84.686859
 40
2.000000
 50
-88.500000
 51
0.000000
  0
LINE
  8
0
  6
CONTINUOUS
 10
349.255310
 20
13.430535
 11
326.255005
 21
13.029063
  0
ARC
  8
0
  6
CONTINUOUS
 10
339.755005
 20
13.764783
 40
0.500000
 50
-89.000000
 51
0.000000
  0
LINE
  8
0
  6
CONTINUOUS
 10
340.755005
 20
80.529060
 11
349.255310
 21
80.529060
  0
ARC
  8
0
  6
CONTINUOUS
 10
340.755005
 20
81.029060
 40
0.500000
 50
180.000000
 51
270.000000
  0
LINE
  8
0
  6
CONTINUOUS
 10
350.513397
 20
21.865597
 11
349.255310
 21
21.529062
  0
ARC
  8
0
  6
CONTINUOUS
 10
350.255005
 20
22.831633
 40
1.000000
 50
-75.024384
 51
0.000000
  0
LINE
  8
0
  6
CONTINUOUS
 10
350.513397
 20
13.767069
 11
349.255310
 21
13.430535
  0
ARC
  8
0
  6
CONTINUOUS
 10
350.255005
 20
14.733105
 40
1.000000
 50
-75.024384
 51
0.000000
  0
LINE
  8
0
  6
CONTINUOUS
 10
350.513397
 20
80.192528
 11
349.255310
 21
80.529060
  0
ARC
  8
0
  6
CONTINUOUS
 10
350.255005
 20
79.226494
 40
1.000000
 50
0.000000
 51
75.024384
  0
LINE
  8
0
  6
CONTINUOUS
 10
378.951843
 20
81.803772
 11
351.923706
 21
82.511528
  0
ARC
  8
0
  6
CONTINUOUS
 10
352.255005
 20
81.568001
 40
1.000000
 50
91.500000
 51
180.000000
  0
LINE
  8
0
  6
CONTINUOUS
 10
380.513031
 20
81.510475
 11
381.431824
 21
81.180038
  0
ARC
  8
0
  6
CONTINUOUS
 10
380.755005
 20
79.298050
 40
2.000000
 50
0.000000
 51
70.219711
  0
LINE
  8
0
  6
CONTINUOUS
 10
354.768097
 20
14.121047
 11
351.255005
 21
14.029053
  0
ARC
  8
0
  6
CONTINUOUS
 10
350.255005
 20
22.831633
 40
1.000000
 50
-75.024384
 51
0.000000
  0
LINE
  8
0
  6
CONTINUOUS
 10
378.951843
 20
21.004353
 11
351.255005
 21
20.279085
  0
LINE
  8
0
  6
CONTINUOUS
 10
380.513031
 20
21.297653
 11
381.431824
 21
21.628084
  0
ARC
  8
0
  6
CONTINUOUS
 10
380.755005
 20
23.510078
 40
2.000000
 50
-70.219711
 51
0.000000
  0
LINE
  8
0
  6
CONTINUOUS
 10
375.051880
 20
106.179062
 11
375.787689
 21
103.343964
  0
LINE
  8
0
  6
CONTINUOUS
 10
375.787689
 20
103.343964
 11
374.975586
 21
100.868965
  0
LINE
  8
0
  6
CONTINUOUS
 10
374.975586
 20
100.868965
 11
375.903687
 21
98.479065
  0
ARC
  8
0
  6
CONTINUOUS
 10
378.820953
 20
76.805489
 40
5.000000
 50
70.219711
 51
88.500000
  0
ARC
  8
0
  6
CONTINUOUS
 10
378.820953
 20
26.002640
 40
5.000000
 50
-88.500000
 51
-70.219711
  0
ARC
  8
0
  6
CONTINUOUS
 10
354.755005
 20
14.620876
 40
0.500000
 50
-88.499992
 51
0.000000
  0
LINE
  8
0
  6
CONTINUOUS
 10
355.255005
 20
72.370346
 11
355.255005
 21
58.964043
  0
LINE
  8
0
  6
CONTINUOUS
 10
355.255005
 20
70.752853
 11
382.755005
 21
70.032753
  0
LINE
  8
0
  6
CONTINUOUS
 10
355.255005
 20
64.805267
 11
382.755005
 21
65.525368
  0
TEXT
  8
0
 10
-28.000000
 20
0.000000
 40
4.000000
 41
1.000000
  1
HFV-15L-10~240-T25
 50
0.000000
  0
ENDSEC
  0
EOF
