  0
SECTION
  2
HEADER
  9
$ACADVER
  1
AC1015
  9
$ACADMAINTVER
 70
    20
  9
$DWGCODEPAGE
  3
ANSI_932
  9
$INSBASE
 10
0.0
 20
0.0
 30
0.0
  9
$EXTMIN
 10
23.2613806599
 20
23.4851450418
 30
0.0
  9
$EXTMAX
 10
716.5053058011
 20
351.7367410866
 30
0.0
  9
$LIMMIN
 10
0.0
 20
0.0
  9
$LIMMAX
 10
297.0
 20
210.0
  9
$ORTHOMODE
 70
     0
  9
$REGENMODE
 70
     1
  9
$FILLMODE
 70
     1
  9
$QTEXTMODE
 70
     0
  9
$MIRRTEXT
 70
     0
  9
$LTSCALE
 40
2.0
  9
$ATTMODE
 70
     1
  9
$TEXTSIZE
 40
2.0
  9
$TRACEWID
 40
1.0
  9
$TEXTSTYLE
  7
STANDARD
  9
$CLAYER
  8
0
  9
$CELTYPE
  6
BYLAYER
  9
$CECOLOR
 62
   256
  9
$CELTSCALE
 40
1.0
  9
$DISPSILH
 70
     0
  9
$DIMSCALE
 40
2.0
  9
$DIMASZ
 40
1.8
  9
$DIMEXO
 40
0.625
  9
$DIMDLI
 40
3.75
  9
$DIMRND
 40
0.0
  9
$DIMDLE
 40
0.0
  9
$DIMEXE
 40
0.8
  9
$DIMTP
 40
0.0
  9
$DIMTM
 40
0.0
  9
$DIMTXT
 40
1.8
  9
$DIMCEN
 40
2.5
  9
$DIMTSZ
 40
0.0
  9
$DIMTOL
 70
     0
  9
$DIMLIM
 70
     0
  9
$DIMTIH
 70
     0
  9
$DIMTOH
 70
     0
  9
$DIMSE1
 70
     0
  9
$DIMSE2
 70
     0
  9
$DIMTAD
 70
     1
  9
$DIMZIN
 70
     8
  9
$DIMBLK
  1

  9
$DIMASO
 70
     1
  9
$DIMSHO
 70
     1
  9
$DIMPOST
  1

  9
$DIMAPOST
  1

  9
$DIMALT
 70
     0
  9
$DIMALTD
 70
     4
  9
$DIMALTF
 40
0.0394
  9
$DIMLFAC
 40
1.0
  9
$DIMTOFL
 70
     1
  9
$DIMTVP
 40
0.0
  9
$DIMTIX
 70
     0
  9
$DIMSOXD
 70
     0
  9
$DIMSAH
 70
     0
  9
$DIMBLK1
  1

  9
$DIMBLK2
  1

  9
$DIMSTYLE
  2
STANDARD
  9
$DIMCLRD
 70
     0
  9
$DIMCLRE
 70
     0
  9
$DIMCLRT
 70
     0
  9
$DIMTFAC
 40
1.0
  9
$DIMGAP
 40
0.75
  9
$DIMJUST
 70
     0
  9
$DIMSD1
 70
     0
  9
$DIMSD2
 70
     0
  9
$DIMTOLJ
 70
     1
  9
$DIMTZIN
 70
     0
  9
$DIMALTZ
 70
     0
  9
$DIMALTTZ
 70
     0
  9
$DIMUPT
 70
     0
  9
$DIMDEC
 70
     2
  9
$DIMTDEC
 70
     2
  9
$DIMALTU
 70
     8
  9
$DIMALTTD
 70
     4
  9
$DIMTXSTY
  7
STANDARD
  9
$DIMAUNIT
 70
     0
  9
$DIMADEC
 70
     2
  9
$DIMALTRND
 40
0.0
  9
$DIMAZIN
 70
     0
  9
$DIMDSEP
 70
    46
  9
$DIMATFIT
 70
     3
  9
$DIMFRAC
 70
     0
  9
$DIMLDRBLK
  1

  9
$DIMLUNIT
 70
     6
  9
$DIMLWD
 70
    -2
  9
$DIMLWE
 70
    -2
  9
$DIMTMOVE
 70
     0
  9
$LUNITS
 70
     2
  9
$LUPREC
 70
     3
  9
$SKETCHINC
 40
1.0
  9
$FILLETRAD
 40
10.0
  9
$AUNITS
 70
     0
  9
$AUPREC
 70
     2
  9
$MENU
  1
.
  9
$ELEVATION
 40
0.0
  9
$PELEVATION
 40
0.0
  9
$THICKNESS
 40
0.0
  9
$LIMCHECK
 70
     0
  9
$CHAMFERA
 40
0.0
  9
$CHAMFERB
 40
0.0
  9
$CHAMFERC
 40
20.0
  9
$CHAMFERD
 40
0.0
  9
$SKPOLY
 70
     0
  9
$TDCREATE
 40
2453759.695104167
  9
$TDUCREATE
 40
2453759.320106146
  9
$TDUPDATE
 40
2460516.499016204
  9
$TDUUPDATE
 40
2460516.124016204
  9
$TDINDWG
 40
0.0641030093
  9
$TDUSRTIMER
 40
0.0641030093
  9
$USRTIMER
 70
     1
  9
$ANGBASE
 50
0.0
  9
$ANGDIR
 70
     0
  9
$PDMODE
 70
     0
  9
$PDSIZE
 40
-10.0
  9
$PLINEWID
 40
0.0
  9
$SPLFRAME
 70
     0
  9
$SPLINETYPE
 70
     6
  9
$SPLINESEGS
 70
     8
  9
$HANDSEED
  5
16A3
  9
$SURFTAB1
 70
     6
  9
$SURFTAB2
 70
     6
  9
$SURFTYPE
 70
     6
  9
$SURFU
 70
     6
  9
$SURFV
 70
     6
  9
$UCSBASE
  2

  9
$UCSNAME
  2

  9
$UCSORG
 10
0.0
 20
0.0
 30
0.0
  9
$UCSXDIR
 10
1.0
 20
0.0
 30
0.0
  9
$UCSYDIR
 10
0.0
 20
1.0
 30
0.0
  9
$UCSORTHOREF
  2

  9
$UCSORTHOVIEW
 70
     0
  9
$UCSORGTOP
 10
0.0
 20
0.0
 30
0.0
  9
$UCSORGBOTTOM
 10
0.0
 20
0.0
 30
0.0
  9
$UCSORGLEFT
 10
0.0
 20
0.0
 30
0.0
  9
$UCSORGRIGHT
 10
0.0
 20
0.0
 30
0.0
  9
$UCSORGFRONT
 10
0.0
 20
0.0
 30
0.0
  9
$UCSORGBACK
 10
0.0
 20
0.0
 30
0.0
  9
$PUCSBASE
  2

  9
$PUCSNAME
  2

  9
$PUCSORG
 10
0.0
 20
0.0
 30
0.0
  9
$PUCSXDIR
 10
1.0
 20
0.0
 30
0.0
  9
$PUCSYDIR
 10
0.0
 20
1.0
 30
0.0
  9
$PUCSORTHOREF
  2

  9
$PUCSORTHOVIEW
 70
     0
  9
$PUCSORGTOP
 10
0.0
 20
0.0
 30
0.0
  9
$PUCSORGBOTTOM
 10
0.0
 20
0.0
 30
0.0
  9
$PUCSORGLEFT
 10
0.0
 20
0.0
 30
0.0
  9
$PUCSORGRIGHT
 10
0.0
 20
0.0
 30
0.0
  9
$PUCSORGFRONT
 10
0.0
 20
0.0
 30
0.0
  9
$PUCSORGBACK
 10
0.0
 20
0.0
 30
0.0
  9
$USERI1
 70
     0
  9
$USERI2
 70
     0
  9
$USERI3
 70
     0
  9
$USERI4
 70
     0
  9
$USERI5
 70
     0
  9
$USERR1
 40
0.0
  9
$USERR2
 40
0.0
  9
$USERR3
 40
0.0
  9
$USERR4
 40
0.0
  9
$USERR5
 40
0.0
  9
$WORLDVIEW
 70
     1
  9
$SHADEDGE
 70
     3
  9
$SHADEDIF
 70
    70
  9
$TILEMODE
 70
     1
  9
$MAXACTVP
 70
    48
  9
$PINSBASE
 10
0.0
 20
0.0
 30
0.0
  9
$PLIMCHECK
 70
     0
  9
$PEXTMIN
 10
0.0
 20
0.0
 30
0.0
  9
$PEXTMAX
 10
0.0
 20
0.0
 30
0.0
  9
$PLIMMIN
 10
0.0
 20
0.0
  9
$PLIMMAX
 10
12.0
 20
9.0
  9
$UNITMODE
 70
     0
  9
$VISRETAIN
 70
     1
  9
$PLINEGEN
 70
     0
  9
$PSLTSCALE
 70
     1
  9
$TREEDEPTH
 70
  3020
  9
$CMLSTYLE
  2
STANDARD
  9
$CMLJUST
 70
     0
  9
$CMLSCALE
 40
1.0
  9
$PROXYGRAPHICS
 70
     1
  9
$MEASUREMENT
 70
     0
  9
$CELWEIGHT
370
    -1
  9
$ENDCAPS
280
     0
  9
$JOINSTYLE
280
     0
  9
$LWDISPLAY
290
     0
  9
$INSUNITS
 70
     0
  9
$HYPERLINKBASE
  1

  9
$STYLESHEET
  1
SEKKEI.CTB
  9
$XEDIT
290
     1
  9
$CEPSNTYPE
380
     0
  9
$PSTYLEMODE
290
     1
  9
$FINGERPRINTGUID
  2
{6385560B-F4B1-4644-A7C2-A3E32AC3D232}
  9
$VERSIONGUID
  2
{5C3B7E13-FCFF-6D44-BD6D-71AD84AD3930}
  9
$EXTNAMES
290
     1
  9
$PSVPSCALE
 40
0.0
  9
$OLESTARTUP
290
     0
  0
ENDSEC
  0
SECTION
  2
CLASSES
  0
CLASS
  1
DICTIONARYVAR
  2
AcDbDictionaryVar
  3
ObjectDBX Classes
 90
        0
280
     0
281
     0
  0
CLASS
  1
ACDBDICTIONARYWDFLT
  2
AcDbDictionaryWithDefault
  3
ObjectDBX Classes
 90
        0
280
     0
281
     0
  0
CLASS
  1
MATERIAL
  2
AcDbMaterial
  3
ObjectDBX Classes
 90
     1153
280
     0
281
     0
  0
CLASS
  1
VISUALSTYLE
  2
AcDbVisualStyle
  3
ObjectDBX Classes
 90
     4095
280
     0
281
     0
  0
CLASS
  1
TABLESTYLE
  2
AcDbTableStyle
  3
ObjectDBX Classes
 90
     4095
280
     0
281
     0
  0
CLASS
  1
SCALE
  2
AcDbScale
  3
ObjectDBX Classes
 90
     1153
280
     0
281
     0
  0
CLASS
  1
MLEADERSTYLE
  2
AcDbMLeaderStyle
  3
ACDB_MLEADERSTYLE_CLASS
 90
     4095
280
     0
281
     0
  0
CLASS
  1
CELLSTYLEMAP
  2
AcDbCellStyleMap
  3
ObjectDBX Classes
 90
     1152
280
     0
281
     0
  0
CLASS
  1
ACDBPLACEHOLDER
  2
AcDbPlaceHolder
  3
ObjectDBX Classes
 90
        0
280
     0
281
     0
  0
CLASS
  1
LAYOUT
  2
AcDbLayout
  3
ObjectDBX Classes
 90
        0
280
     0
281
     0
  0
CLASS
  1
ACDBSECTIONVIEWSTYLE
  2
AcDbSectionViewStyle
  3
ObjectDBX Classes
 90
     1025
280
     0
281
     0
  0
CLASS
  1
ACDBDETAILVIEWSTYLE
  2
AcDbDetailViewStyle
  3
ObjectDBX Classes
 90
     1025
280
     0
281
     0
  0
CLASS
  1
SORTENTSTABLE
  2
AcDbSortentsTable
  3
ObjectDBX Classes
 90
        0
280
     0
281
     0
  0
ENDSEC
  0
SECTION
  2
TABLES
  0
TABLE
  2
VPORT
  5
6E
102
{ACAD_XDICTIONARY
360
1359
102
}
330
0
100
AcDbSymbolTable
 70
     1
  0
VPORT
  5
12D9
330
6E
100
AcDbSymbolTableRecord
100
AcDbViewportTableRecord
  2
*Active
 70
     0
 10
0.0
 20
0.0
 11
1.0
 21
1.0
 12
411.204959242
 22
187.6145775444
 13
0.0
 23
0.0
 14
10.0
 24
10.0
 15
10.0
 25
10.0
 16
0.0
 26
0.0
 36
1.0
 17
0.0
 27
0.0
 37
0.0
 40
330.6620684834
 41
2.38
 42
50.0
 43
0.0
 44
0.0
 50
0.0
 51
0.0
 71
     0
 72
   100
 73
     1
 74
     3
 75
     0
 76
     0
 77
     0
 78
     0
281
     0
 65
     1
110
0.0
120
0.0
130
0.0
111
1.0
121
0.0
131
0.0
112
0.0
122
1.0
132
0.0
 79
     0
146
0.0
1001
ACAD_NAV_VCDISPLAY
1070
     3
  0
ENDTAB
  0
TABLE
  2
LTYPE
  5
69
330
0
100
AcDbSymbolTable
 70
     4
  0
LTYPE
  5
6A
330
69
100
AcDbSymbolTableRecord
100
AcDbLinetypeTableRecord
  2
BYBLOCK
 70
     0
  3

 72
    65
 73
     0
 40
0.0
  0
LTYPE
  5
6B
330
69
100
AcDbSymbolTableRecord
100
AcDbLinetypeTableRecord
  2
BYLAYER
 70
     0
  3

 72
    65
 73
     0
 40
0.0
  0
LTYPE
  5
8
330
69
100
AcDbSymbolTableRecord
100
AcDbLinetypeTableRecord
  2
CONTINUOUS
 70
     0
  3
Solid line
 72
    65
 73
     0
 40
0.0
  0
LTYPE
  5
27C
330
69
100
AcDbSymbolTableRecord
100
AcDbLinetypeTableRecord
  2
sekkei(A2)
 70
     0
  3
center(A2)  ____ _ ____ _ ____ _ ____ _ ____ _ 
 72
    65
 73
     4
 40
14.2875
 49
9.525
 74
     0
 49
-1.5875
 74
     0
 49
1.5875
 74
     0
 49
-1.5875
 74
     0
  0
LTYPE
  5
2B4
330
69
100
AcDbSymbolTableRecord
100
AcDbLinetypeTableRecord
  2
HIDDEN2
 70
     0
  3
Hidden (.5x) _ _ _ _ _ _ _ _ _ _ _ _ _ _ _ _ _
 72
    65
 73
     2
 40
4.7625
 49
3.175
 74
     0
 49
-1.5875
 74
     0
  0
LTYPE
  5
48F
330
69
100
AcDbSymbolTableRecord
100
AcDbLinetypeTableRecord
  2
sekkei_H
 70
     0
  3
Hidden-S _ _ _ _ _ _ _ _ _ _ _ _ _ _ _ _ _
 72
    65
 73
     2
 40
2.38125
 49
1.5875
 74
     0
 49
-0.79375
 74
     0
  0
ENDTAB
  0
TABLE
  2
LAYER
  5
66
102
{ACAD_XDICTIONARY
360
14BD
102
}
330
0
100
AcDbSymbolTable
 70
     9
  0
LAYER
  5
5E
102
{ACAD_XDICTIONARY
360
132F
102
}
330
66
100
AcDbSymbolTableRecord
100
AcDbLayerTableRecord
  2
0
 70
     0
 62
     7
  6
CONTINUOUS
370
    -3
390
5
  0
LAYER
  5
3E
102
{ACAD_XDICTIONARY
360
1331
102
}
330
66
100
AcDbSymbolTableRecord
100
AcDbLayerTableRecord
  2
CENTER
 70
     0
 62
     3
  6
sekkei(A2)
370
    -3
390
5
  0
LAYER
  5
135
330
66
100
AcDbSymbolTableRecord
100
AcDbLayerTableRecord
  2
DEFPOINTS
 70
     0
 62
     7
  6
CONTINUOUS
290
     0
370
    -3
390
5
  0
LAYER
  5
2B5
102
{ACAD_XDICTIONARY
360
1337
102
}
330
66
100
AcDbSymbolTableRecord
100
AcDbLayerTableRecord
  2
HIDS
 70
     0
 62
     1
  6
HIDDEN2
370
    -3
390
5
  0
LAYER
  5
2BA
102
{ACAD_XDICTIONARY
360
1339
102
}
330
66
100
AcDbSymbolTableRecord
100
AcDbLayerTableRecord
  2
HOJO
 70
     0
 62
     4
  6
CONTINUOUS
370
    -3
390
5
  0
LAYER
  5
3FA
102
{ACAD_XDICTIONARY
360
133D
102
}
330
66
100
AcDbSymbolTableRecord
100
AcDbLayerTableRecord
  2
TITLE
 70
     0
 62
     4
  6
CONTINUOUS
290
     0
370
    -3
390
5
  0
ENDTAB
  0
TABLE
  2
STYLE
  5
67
330
0
100
AcDbSymbolTable
 70
     1
  0
STYLE
  5
16
330
67
100
AcDbSymbolTableRecord
100
AcDbTextStyleTableRecord
  2
STANDARD
 70
     0
 40
0.0
 41
1.0
 50
0.0
 71
     0
 42
2.0
  3
simplex.shx
  4
extfont.shx
  0
ENDTAB
  0
TABLE
  2
VIEW
  5
6C
330
0
100
AcDbSymbolTable
 70
     0
  0
ENDTAB
  0
TABLE
  2
UCS
  5
6D
330
0
100
AcDbSymbolTable
 70
     0
  0
ENDTAB
  0
TABLE
  2
APPID
  5
70
330
0
100
AcDbSymbolTable
 70
     4
  0
APPID
  5
71
330
70
100
AcDbSymbolTableRecord
100
AcDbRegAppTableRecord
  2
ACAD
 70
     0
  0
APPID
  5
132C
330
70
100
AcDbSymbolTableRecord
100
AcDbRegAppTableRecord
  2
ACAD_MLEADERVER
 70
     0
  0
APPID
  5
13D0
330
70
100
AcDbSymbolTableRecord
100
AcDbRegAppTableRecord
  2
ACAD_NAV_VCDISPLAY
 70
     0
  0
APPID
  5
15AD
330
70
100
AcDbSymbolTableRecord
100
AcDbRegAppTableRecord
  2
ACAD_EXEMPT_FROM_CAD_STANDARDS
 70
     0
  0
ENDTAB
  0
TABLE
  2
DIMSTYLE
  5
72
330
0
100
AcDbSymbolTable
 70
     2
100
AcDbDimStyleTable
 71
     1
340
73
  0
DIMSTYLE
105
73
102
{ACAD_REACTORS
330
93D
330
AD0
102
}
330
72
100
AcDbSymbolTableRecord
100
AcDbDimStyleTableRecord
  2
STANDARD
 70
     0
 40
2.0
 41
1.8
 42
0.625
 43
3.75
 44
0.8
 73
     0
 74
     0
 77
     1
 78
     8
140
1.8
141
2.5
143
0.0394
147
0.75
171
     4
172
     1
179
     2
271
     2
272
     2
273
     8
274
     4
277
     6
340
16
  0
ENDTAB
  0
TABLE
  2
BLOCK_RECORD
  5
1
330
0
100
AcDbSymbolTable
 70
    62
  0
BLOCK_RECORD
  5
2
330
1
100
AcDbSymbolTableRecord
100
AcDbBlockTableRecord
  2
*MODEL_SPACE
340
60
  0
BLOCK_RECORD
  5
1646
330
1
100
AcDbSymbolTableRecord
100
AcDbBlockTableRecord
  2
*Paper_Space
340
1647
  0
BLOCK_RECORD
  5
4AC
330
1
100
AcDbSymbolTableRecord
100
AcDbBlockTableRecord
  2
黒丸矢印1
340
0
  0
BLOCK_RECORD
  5
C41
330
1
100
AcDbSymbolTableRecord
100
AcDbBlockTableRecord
  2
*D3
340
0
  0
BLOCK_RECORD
  5
C4D
330
1
100
AcDbSymbolTableRecord
100
AcDbBlockTableRecord
  2
*D4
340
0
  0
BLOCK_RECORD
  5
C59
330
1
100
AcDbSymbolTableRecord
100
AcDbBlockTableRecord
  2
*D5
340
0
  0
BLOCK_RECORD
  5
C65
330
1
100
AcDbSymbolTableRecord
100
AcDbBlockTableRecord
  2
*D6
340
0
  0
BLOCK_RECORD
  5
C71
330
1
100
AcDbSymbolTableRecord
100
AcDbBlockTableRecord
  2
*D7
340
0
  0
BLOCK_RECORD
  5
C7D
330
1
100
AcDbSymbolTableRecord
100
AcDbBlockTableRecord
  2
*D8
340
0
  0
BLOCK_RECORD
  5
C89
330
1
100
AcDbSymbolTableRecord
100
AcDbBlockTableRecord
  2
*D9
340
0
  0
BLOCK_RECORD
  5
C95
330
1
100
AcDbSymbolTableRecord
100
AcDbBlockTableRecord
  2
*D10
340
0
  0
BLOCK_RECORD
  5
C9F
330
1
100
AcDbSymbolTableRecord
100
AcDbBlockTableRecord
  2
*D11
340
0
  0
BLOCK_RECORD
  5
CAB
330
1
100
AcDbSymbolTableRecord
100
AcDbBlockTableRecord
  2
*D12
340
0
  0
BLOCK_RECORD
  5
CB7
330
1
100
AcDbSymbolTableRecord
100
AcDbBlockTableRecord
  2
*D13
340
0
  0
BLOCK_RECORD
  5
CC3
330
1
100
AcDbSymbolTableRecord
100
AcDbBlockTableRecord
  2
*D14
340
0
  0
BLOCK_RECORD
  5
CCF
330
1
100
AcDbSymbolTableRecord
100
AcDbBlockTableRecord
  2
*D15
340
0
  0
BLOCK_RECORD
  5
CDB
330
1
100
AcDbSymbolTableRecord
100
AcDbBlockTableRecord
  2
*D16
340
0
  0
BLOCK_RECORD
  5
CE7
330
1
100
AcDbSymbolTableRecord
100
AcDbBlockTableRecord
  2
*D17
340
0
  0
BLOCK_RECORD
  5
CF3
330
1
100
AcDbSymbolTableRecord
100
AcDbBlockTableRecord
  2
*D18
340
0
  0
BLOCK_RECORD
  5
CFF
330
1
100
AcDbSymbolTableRecord
100
AcDbBlockTableRecord
  2
*D19
340
0
  0
BLOCK_RECORD
  5
D0B
330
1
100
AcDbSymbolTableRecord
100
AcDbBlockTableRecord
  2
*D20
340
0
  0
BLOCK_RECORD
  5
D17
330
1
100
AcDbSymbolTableRecord
100
AcDbBlockTableRecord
  2
*D21
340
0
  0
BLOCK_RECORD
  5
D23
330
1
100
AcDbSymbolTableRecord
100
AcDbBlockTableRecord
  2
*D22
340
0
  0
BLOCK_RECORD
  5
D2F
330
1
100
AcDbSymbolTableRecord
100
AcDbBlockTableRecord
  2
*D23
340
0
  0
BLOCK_RECORD
  5
D3B
330
1
100
AcDbSymbolTableRecord
100
AcDbBlockTableRecord
  2
*D24
340
0
  0
BLOCK_RECORD
  5
1437
330
1
100
AcDbSymbolTableRecord
100
AcDbBlockTableRecord
  2
A$C6643dda2
340
0
102
{BLKREFS
331
14C4
102
}
  0
BLOCK_RECORD
  5
14C5
102
{ACAD_XDICTIONARY
360
14C6
102
}
330
1
100
AcDbSymbolTableRecord
100
AcDbBlockTableRecord
  2
A$C57c306b1
340
0
102
{BLKREFS
331
153E
331
153F
331
1540
331
1541
102
}
  0
BLOCK_RECORD
  5
14DC
330
1
100
AcDbSymbolTableRecord
100
AcDbBlockTableRecord
  2
A$C46bf166a
340
0
102
{BLKREFS
331
1548
102
}
  0
ENDTAB
  0
ENDSEC
  0
SECTION
  2
BLOCKS
  0
BLOCK
  5
5D
330
2
100
AcDbEntity
  8
0
100
AcDbBlockBegin
  2
*MODEL_SPACE
 70
     0
 10
0.0
 20
0.0
 30
0.0
  3
*MODEL_SPACE
  1

  0
ENDBLK
  5
5F
330
2
100
AcDbEntity
  8
0
100
AcDbBlockEnd
  0
BLOCK
  5
1648
330
1646
100
AcDbEntity
 67
     1
  8
0
100
AcDbBlockBegin
  2
*Paper_Space
 70
     0
 10
0.0
 20
0.0
 30
0.0
  3
*Paper_Space
  1

  0
ENDBLK
  5
1649
330
1646
100
AcDbEntity
 67
     1
  8
0
100
AcDbBlockEnd
  0
BLOCK
  5
4B0
330
4AC
100
AcDbEntity
  8
0
100
AcDbBlockBegin
  2
黒丸矢印1
 70
     0
 10
0.0
 20
0.0
 30
0.0
  3
黒丸矢印1
  1

  0
HATCH
  5
4AD
330
4AC
100
AcDbEntity
  8
0
100
AcDbHatch
 10
0.0
 20
0.0
 30
0.0
210
0.0
220
0.0
230
1.0
  2
SOLID
 70
     1
 71
     1
 91
        1
 92
        7
 72
     1
 73
     1
 93
        2
 10
-0.25
 20
0.0
 42
1.0
 10
0.25
 20
0.0
 42
1.0
 97
        1
330
4AE
 75
     0
 76
     1
 47
0.0031599728
 98
        1
 10
-0.0919668375711354
 20
0.0618998464179867
  0
CIRCLE
  5
4AE
102
{ACAD_REACTORS
330
4AD
102
}
330
4AC
100
AcDbEntity
  8
0
100
AcDbCircle
 10
0.0
 20
0.0
 30
0.0
 40
0.25
  0
LINE
  5
4AF
330
4AC
100
AcDbEntity
  8
0
100
AcDbLine
 10
0.0
 20
0.0
 30
0.0
 11
-1.0
 21
0.0
 31
0.0
  0
ENDBLK
  5
4B1
330
4AC
100
AcDbEntity
  8
0
100
AcDbBlockEnd
  0
BLOCK
  5
C4B
330
C41
100
AcDbEntity
  8
0
100
AcDbBlockBegin
  2
*D3
 70
     1
 10
0.0
 20
0.0
 30
0.0
  3
*D3
  1

  0
POINT
  5
EFD
330
C41
100
AcDbEntity
  8
DEFPOINTS
 62
     0
100
AcDbPoint
 10
249.1359517264
 20
163.0003994777
 30
0.0
  0
POINT
  5
EFE
330
C41
100
AcDbEntity
  8
DEFPOINTS
 62
     0
100
AcDbPoint
 10
291.6359517264
 20
130.7003964777
 30
0.0
  0
POINT
  5
EFF
330
C41
100
AcDbEntity
  8
DEFPOINTS
 62
     0
100
AcDbPoint
 10
291.6359517264
 20
183.7207708186
 30
0.0
  0
ENDBLK
  5
C4C
330
C41
100
AcDbEntity
  8
0
100
AcDbBlockEnd
  0
BLOCK
  5
C57
330
C4D
100
AcDbEntity
  8
0
100
AcDbBlockBegin
  2
*D4
 70
     1
 10
0.0
 20
0.0
 30
0.0
  3
*D4
  1

  0
POINT
  5
F31
330
C4D
100
AcDbEntity
  8
DEFPOINTS
 62
     0
100
AcDbPoint
 10
217.1359517264
 20
56.1567114777
 30
0.0
  0
POINT
  5
F32
330
C4D
100
AcDbEntity
  8
DEFPOINTS
 62
     0
100
AcDbPoint
 10
281.1359517264
 20
56.1567114777
 30
0.0
  0
POINT
  5
F33
330
C4D
100
AcDbEntity
  8
DEFPOINTS
 62
     0
100
AcDbPoint
 10
281.1359517264
 20
37.0953165649
 30
0.0
  0
ENDBLK
  5
C58
330
C4D
100
AcDbEntity
  8
0
100
AcDbBlockEnd
  0
BLOCK
  5
C63
330
C59
100
AcDbEntity
  8
0
100
AcDbBlockBegin
  2
*D5
 70
     1
 10
0.0
 20
0.0
 30
0.0
  3
*D5
  1

  0
POINT
  5
F16
330
C59
100
AcDbEntity
  8
DEFPOINTS
 62
     0
100
AcDbPoint
 10
206.6359517264
 20
79.3004014777
 30
0.0
  0
POINT
  5
F17
330
C59
100
AcDbEntity
  8
DEFPOINTS
 62
     0
100
AcDbPoint
 10
291.6359517264
 20
79.3004104777
 30
0.0
  0
POINT
  5
F18
330
C59
100
AcDbEntity
  8
DEFPOINTS
 62
     0
100
AcDbPoint
 10
291.6359517264
 20
25.0851450418
 30
0.0
  0
ENDBLK
  5
C64
330
C59
100
AcDbEntity
  8
0
100
AcDbBlockEnd
  0
BLOCK
  5
C6F
330
C65
100
AcDbEntity
  8
0
100
AcDbBlockBegin
  2
*D6
 70
     1
 10
0.0
 20
0.0
 30
0.0
  3
*D6
  1

  0
POINT
  5
EF4
330
C65
100
AcDbEntity
  8
DEFPOINTS
 62
     0
100
AcDbPoint
 10
291.6359517264
 20
130.7003964777
 30
0.0
  0
POINT
  5
EF5
330
C65
100
AcDbEntity
  8
DEFPOINTS
 62
     0
100
AcDbPoint
 10
77.6359567264
 20
123.2193904777
 30
0.0
  0
POINT
  5
EF6
330
C65
100
AcDbEntity
  8
DEFPOINTS
 62
     0
100
AcDbPoint
 10
77.6359567264
 20
195.6549541776
 30
0.0
  0
ENDBLK
  5
C70
330
C65
100
AcDbEntity
  8
0
100
AcDbBlockEnd
  0
BLOCK
  5
C7B
330
C71
100
AcDbEntity
  8
0
100
AcDbBlockBegin
  2
*D7
 70
     1
 10
0.0
 20
0.0
 30
0.0
  3
*D7
  1

  0
POINT
  5
F4C
330
C71
100
AcDbEntity
  8
DEFPOINTS
 62
     0
100
AcDbPoint
 10
99.6360767264
 20
151.7003964777
 30
0.0
  0
POINT
  5
F4D
330
C71
100
AcDbEntity
  8
DEFPOINTS
 62
     0
100
AcDbPoint
 10
133.6360767264
 20
151.7003964777
 30
0.0
  0
POINT
  5
F4E
330
C71
100
AcDbEntity
  8
DEFPOINTS
 62
     0
100
AcDbPoint
 10
133.6360767264
 20
171.6954345883
 30
0.0
  0
ENDBLK
  5
C7C
330
C71
100
AcDbEntity
  8
0
100
AcDbBlockEnd
  0
BLOCK
  5
C87
330
C7D
100
AcDbEntity
  8
0
100
AcDbBlockBegin
  2
*D8
 70
     1
 10
0.0
 20
0.0
 30
0.0
  3
*D8
  1

  0
POINT
  5
EEB
330
C7D
100
AcDbEntity
  8
DEFPOINTS
 62
     0
100
AcDbPoint
 10
249.1359517264
 20
163.0003994777
 30
0.0
  0
POINT
  5
EEC
330
C7D
100
AcDbEntity
  8
DEFPOINTS
 62
     0
100
AcDbPoint
 10
77.6359567264
 20
123.2193904777
 30
0.0
  0
POINT
  5
EED
330
C7D
100
AcDbEntity
  8
DEFPOINTS
 62
     0
100
AcDbPoint
 10
77.6359567264
 20
183.7207708186
 30
0.0
  0
ENDBLK
  5
C88
330
C7D
100
AcDbEntity
  8
0
100
AcDbBlockEnd
  0
BLOCK
  5
C93
330
C89
100
AcDbEntity
  8
0
100
AcDbBlockBegin
  2
*D9
 70
     1
 10
0.0
 20
0.0
 30
0.0
  3
*D9
  1

  0
POINT
  5
EE2
330
C89
100
AcDbEntity
  8
DEFPOINTS
 62
     0
100
AcDbPoint
 10
116.6359787844
 20
154.7004194776
 30
0.0
  0
POINT
  5
EE3
330
C89
100
AcDbEntity
  8
DEFPOINTS
 62
     0
100
AcDbPoint
 10
70.6359567264
 20
95.7004004777
 30
0.0
  0
POINT
  5
EE4
330
C89
100
AcDbEntity
  8
DEFPOINTS
 62
     0
100
AcDbPoint
 10
48.5587546492
 20
95.7004004777
 30
0.0
  0
ENDBLK
  5
C94
330
C89
100
AcDbEntity
  8
0
100
AcDbBlockEnd
  0
BLOCK
  5
C9D
330
C95
100
AcDbEntity
  8
0
100
AcDbBlockBegin
  2
*D10
 70
     1
 10
0.0
 20
0.0
 30
0.0
  3
*D10
  1

  0
POINT
  5
F0D
330
C95
100
AcDbEntity
  8
DEFPOINTS
 62
     0
100
AcDbPoint
 10
109.1368117264
 20
126.4504004777
 30
0.0
  0
POINT
  5
F0E
330
C95
100
AcDbEntity
  8
DEFPOINTS
 62
     0
100
AcDbPoint
 10
109.1359567264
 20
64.9504214777
 30
0.0
  0
POINT
  5
F0F
330
C95
100
AcDbEntity
  8
DEFPOINTS
 62
     0
100
AcDbPoint
 10
60.5483464846
 20
64.9504214777
 30
0.0
  0
ENDBLK
  5
C9E
330
C95
100
AcDbEntity
  8
0
100
AcDbBlockEnd
  0
BLOCK
  5
CA9
330
C9F
100
AcDbEntity
  8
0
100
AcDbBlockBegin
  2
*D11
 70
     1
 10
0.0
 20
0.0
 30
0.0
  3
*D11
  1

  0
POINT
  5
ED9
330
C9F
100
AcDbEntity
  8
DEFPOINTS
 62
     0
100
AcDbPoint
 10
99.6360767264
 20
151.7003964777
 30
0.0
  0
POINT
  5
EDA
330
C9F
100
AcDbEntity
  8
DEFPOINTS
 62
     0
100
AcDbPoint
 10
77.6359567264
 20
123.2193904777
 30
0.0
  0
POINT
  5
EDB
330
C9F
100
AcDbEntity
  8
DEFPOINTS
 62
     0
100
AcDbPoint
 10
77.6359567264
 20
171.6954345883
 30
0.0
  0
ENDBLK
  5
CAA
330
C9F
100
AcDbEntity
  8
0
100
AcDbBlockEnd
  0
BLOCK
  5
CB5
330
CAB
100
AcDbEntity
  8
0
100
AcDbBlockBegin
  2
*D12
 70
     1
 10
0.0
 20
0.0
 30
0.0
  3
*D12
  1

  0
POINT
  5
F1F
330
CAB
100
AcDbEntity
  8
DEFPOINTS
 62
     0
100
AcDbPoint
 10
156.5997761757
 20
133.7003964777
 30
0.0
  0
POINT
  5
F20
330
CAB
100
AcDbEntity
  8
DEFPOINTS
 62
     0
100
AcDbPoint
 10
156.5997761757
 20
57.7004194777
 30
0.0
  0
POINT
  5
F21
330
CAB
100
AcDbEntity
  8
DEFPOINTS
 62
     0
100
AcDbPoint
 10
156.3849755253
 20
57.7004194777
 30
0.0
  0
ENDBLK
  5
CB6
330
CAB
100
AcDbEntity
  8
0
100
AcDbBlockEnd
  0
BLOCK
  5
CC1
330
CB7
100
AcDbEntity
  8
0
100
AcDbBlockBegin
  2
*D13
 70
     1
 10
0.0
 20
0.0
 30
0.0
  3
*D13
  1

  0
POINT
  5
F3A
330
CB7
100
AcDbEntity
  8
DEFPOINTS
 62
     0
100
AcDbPoint
 10
222.386014234
 20
118.0003994777
 30
0.0
  0
POINT
  5
F3B
330
CB7
100
AcDbEntity
  8
DEFPOINTS
 62
     0
100
AcDbPoint
 10
224.4359547264
 20
95.7004004777
 30
0.0
  0
POINT
  5
F3C
330
CB7
100
AcDbEntity
  8
DEFPOINTS
 62
     0
100
AcDbPoint
 10
220.8610644633
 20
95.7004004777
 30
0.0
  0
ENDBLK
  5
CC2
330
CB7
100
AcDbEntity
  8
0
100
AcDbBlockEnd
  0
BLOCK
  5
CCD
330
CC3
100
AcDbEntity
  8
0
100
AcDbBlockBegin
  2
*D14
 70
     1
 10
0.0
 20
0.0
 30
0.0
  3
*D14
  1

  0
POINT
  5
F70
330
CC3
100
AcDbEntity
  8
DEFPOINTS
 62
     0
100
AcDbPoint
 10
351.5932214095
 20
156.0003994777
 30
0.0
  0
POINT
  5
F71
330
CC3
100
AcDbEntity
  8
DEFPOINTS
 62
     0
100
AcDbPoint
 10
455.5932264095
 20
125.5004004777
 30
0.0
  0
POINT
  5
F72
330
CC3
100
AcDbEntity
  8
DEFPOINTS
 62
     0
100
AcDbPoint
 10
455.5932264095
 20
195.6549541776
 30
0.0
  0
ENDBLK
  5
CCE
330
CC3
100
AcDbEntity
  8
0
100
AcDbBlockEnd
  0
BLOCK
  5
CD9
330
CCF
100
AcDbEntity
  8
0
100
AcDbBlockBegin
  2
*D15
 70
     1
 10
0.0
 20
0.0
 30
0.0
  3
*D15
  1

  0
POINT
  5
F97
330
CCF
100
AcDbEntity
  8
DEFPOINTS
 62
     0
100
AcDbPoint
 10
368.5932224095
 20
153.1838184777
 30
0.0
  0
POINT
  5
F98
330
CCF
100
AcDbEntity
  8
DEFPOINTS
 62
     0
100
AcDbPoint
 10
414.5932264095
 20
153.1838184777
 30
0.0
  0
POINT
  5
F99
330
CCF
100
AcDbEntity
  8
DEFPOINTS
 62
     0
100
AcDbPoint
 10
414.5932264095
 20
171.7588794785
 30
0.0
  0
ENDBLK
  5
CDA
330
CCF
100
AcDbEntity
  8
0
100
AcDbBlockEnd
  0
BLOCK
  5
CE5
330
CDB
100
AcDbEntity
  8
0
100
AcDbBlockBegin
  2
*D16
 70
     1
 10
0.0
 20
0.0
 30
0.0
  3
*D16
  1

  0
POINT
  5
F67
330
CDB
100
AcDbEntity
  8
DEFPOINTS
 62
     0
100
AcDbPoint
 10
391.5932224095
 20
161.7004194777
 30
0.0
  0
POINT
  5
F68
330
CDB
100
AcDbEntity
  8
DEFPOINTS
 62
     0
100
AcDbPoint
 10
455.5932264095
 20
125.5004004777
 30
0.0
  0
POINT
  5
F69
330
CDB
100
AcDbEntity
  8
DEFPOINTS
 62
     0
100
AcDbPoint
 10
455.5932264095
 20
183.5827951586
 30
0.0
  0
ENDBLK
  5
CE6
330
CDB
100
AcDbEntity
  8
0
100
AcDbBlockEnd
  0
BLOCK
  5
CF1
330
CE7
100
AcDbEntity
  8
0
100
AcDbBlockBegin
  2
*D17
 70
     1
 10
0.0
 20
0.0
 30
0.0
  3
*D17
  1

  0
POINT
  5
F06
330
CE7
100
AcDbEntity
  8
DEFPOINTS
 62
     0
100
AcDbPoint
 10
281.1359517264
 20
156.0003994777
 30
0.0
  0
POINT
  5
F07
330
CE7
100
AcDbEntity
  8
DEFPOINTS
 62
     0
100
AcDbPoint
 10
281.1359517264
 20
54.0004004777
 30
0.0
  0
POINT
  5
F08
330
CE7
100
AcDbEntity
  8
DEFPOINTS
 62
     0
100
AcDbPoint
 10
320.8461848403
 20
54.0004004777
 30
0.0
  0
ENDBLK
  5
CF2
330
CE7
100
AcDbEntity
  8
0
100
AcDbBlockEnd
  0
BLOCK
  5
CFD
330
CF3
100
AcDbEntity
  8
0
100
AcDbBlockBegin
  2
*D18
 70
     1
 10
0.0
 20
0.0
 30
0.0
  3
*D18
  1

  0
POINT
  5
F28
330
CF3
100
AcDbEntity
  8
DEFPOINTS
 62
     0
100
AcDbPoint
 10
276.1359517264
 20
118.0003994777
 30
0.0
  0
POINT
  5
F29
330
CF3
100
AcDbEntity
  8
DEFPOINTS
 62
     0
100
AcDbPoint
 10
286.9796407264
 20
62.0004004777
 30
0.0
  0
POINT
  5
F2A
330
CF3
100
AcDbEntity
  8
DEFPOINTS
 62
     0
100
AcDbPoint
 10
308.8989486651
 20
62.0004004777
 30
0.0
  0
ENDBLK
  5
CFE
330
CF3
100
AcDbEntity
  8
0
100
AcDbBlockEnd
  0
BLOCK
  5
D09
330
CFF
100
AcDbEntity
  8
0
100
AcDbBlockBegin
  2
*D19
 70
     1
 10
0.0
 20
0.0
 30
0.0
  3
*D19
  1

  0
POINT
  5
F43
330
CFF
100
AcDbEntity
  8
DEFPOINTS
 62
     0
100
AcDbPoint
 10
276.1359517264
 20
118.0003994777
 30
0.0
  0
POINT
  5
F44
330
CFF
100
AcDbEntity
  8
DEFPOINTS
 62
     0
100
AcDbPoint
 10
286.9796407264
 20
148.0003994777
 30
0.0
  0
POINT
  5
F45
330
CFF
100
AcDbEntity
  8
DEFPOINTS
 62
     0
100
AcDbPoint
 10
308.8989486651
 20
148.0003994777
 30
0.0
  0
ENDBLK
  5
D0A
330
CFF
100
AcDbEntity
  8
0
100
AcDbBlockEnd
  0
BLOCK
  5
D15
330
D0B
100
AcDbEntity
  8
0
100
AcDbBlockBegin
  2
*D20
 70
     1
 10
0.0
 20
0.0
 30
0.0
  3
*D20
  1

  0
POINT
  5
F7B
330
D0B
100
AcDbEntity
  8
DEFPOINTS
 62
     0
100
AcDbPoint
 10
360.5932224095
 20
55.5004004777
 30
0.0
  0
POINT
  5
F7C
330
D0B
100
AcDbEntity
  8
DEFPOINTS
 62
     0
100
AcDbPoint
 10
351.5932214095
 20
54.0004004777
 30
0.0
  0
POINT
  5
F7D
330
D0B
100
AcDbEntity
  8
DEFPOINTS
 62
     0
100
AcDbPoint
 10
351.5932214095
 20
39.5473804268
 30
0.0
  0
ENDBLK
  5
D16
330
D0B
100
AcDbEntity
  8
0
100
AcDbBlockEnd
  0
BLOCK
  5
D21
330
D17
100
AcDbEntity
  8
0
100
AcDbBlockBegin
  2
*D21
 70
     1
 10
0.0
 20
0.0
 30
0.0
  3
*D21
  1

  0
POINT
  5
F8E
330
D17
100
AcDbEntity
  8
DEFPOINTS
 62
     0
100
AcDbPoint
 10
391.5932224095
 20
161.7004194777
 30
0.0
  0
POINT
  5
F8F
330
D17
100
AcDbEntity
  8
DEFPOINTS
 62
     0
100
AcDbPoint
 10
351.5932214095
 20
156.0003994777
 30
0.0
  0
POINT
  5
F90
330
D17
100
AcDbEntity
  8
DEFPOINTS
 62
     0
100
AcDbPoint
 10
351.5932214095
 20
183.5827951586
 30
0.0
  0
ENDBLK
  5
D22
330
D17
100
AcDbEntity
  8
0
100
AcDbBlockEnd
  0
BLOCK
  5
D2D
330
D23
100
AcDbEntity
  8
0
100
AcDbBlockBegin
  2
*D22
 70
     1
 10
0.0
 20
0.0
 30
0.0
  3
*D22
  1

  0
POINT
  5
F5E
330
D23
100
AcDbEntity
  8
DEFPOINTS
 62
     0
100
AcDbPoint
 10
428.5932264095
 20
126.5004004777
 30
0.0
  0
POINT
  5
F5F
330
D23
100
AcDbEntity
  8
DEFPOINTS
 62
     0
100
AcDbPoint
 10
455.5932264095
 20
125.5004004777
 30
0.0
  0
POINT
  5
F60
330
D23
100
AcDbEntity
  8
DEFPOINTS
 62
     0
100
AcDbPoint
 10
455.5932264095
 20
171.7588794785
 30
0.0
  0
ENDBLK
  5
D2E
330
D23
100
AcDbEntity
  8
0
100
AcDbBlockEnd
  0
BLOCK
  5
D39
330
D2F
100
AcDbEntity
  8
0
100
AcDbBlockBegin
  2
*D23
 70
     1
 10
0.0
 20
0.0
 30
0.0
  3
*D23
  1

  0
POINT
  5
F55
330
D2F
100
AcDbEntity
  8
DEFPOINTS
 62
     0
100
AcDbPoint
 10
434.0932264095
 20
120.5003844777
 30
0.0
  0
POINT
  5
F56
330
D2F
100
AcDbEntity
  8
DEFPOINTS
 62
     0
100
AcDbPoint
 10
455.5932264095
 20
125.5004004777
 30
0.0
  0
POINT
  5
F57
330
D2F
100
AcDbEntity
  8
DEFPOINTS
 62
     0
100
AcDbPoint
 10
455.5932264095
 20
159.7952495286
 30
0.0
  0
ENDBLK
  5
D3A
330
D2F
100
AcDbEntity
  8
0
100
AcDbBlockEnd
  0
BLOCK
  5
D45
330
D3B
100
AcDbEntity
  8
0
100
AcDbBlockBegin
  2
*D24
 70
     1
 10
0.0
 20
0.0
 30
0.0
  3
*D24
  1

  0
POINT
  5
F85
330
D3B
100
AcDbEntity
  8
DEFPOINTS
 62
     0
100
AcDbPoint
 10
455.5932224095
 20
110.5003994777
 30
0.0
  0
POINT
  5
F86
330
D3B
100
AcDbEntity
  8
DEFPOINTS
 62
     0
100
AcDbPoint
 10
455.5932224095
 20
125.5003994777
 30
0.0
  0
POINT
  5
F87
330
D3B
100
AcDbEntity
  8
DEFPOINTS
 62
     0
100
AcDbPoint
 10
467.8562193483
 20
125.5003994777
 30
0.0
  0
ENDBLK
  5
D46
330
D3B
100
AcDbEntity
  8
0
100
AcDbBlockEnd
  0
BLOCK
  5
1438
330
1437
100
AcDbEntity
  8
0
100
AcDbBlockBegin
  2
A$C6643dda2
 70
     0
 10
0.0
 20
0.0
 30
0.0
  3
A$C6643dda2
  1

  0
LINE
  5
1439
330
1437
100
AcDbEntity
  8
0
100
AcDbLine
 10
0.0
 20
-37.999978
 30
0.0
 11
0.0
 21
38.000001
 31
0.0
  0
LINE
  5
143A
330
1437
100
AcDbEntity
  8
0
100
AcDbLine
 10
-25.0
 20
30.538935
 30
0.0
 11
-25.0
 21
-37.000009
 31
0.0
  0
LINE
  5
143B
330
1437
100
AcDbEntity
  8
0
100
AcDbLine
 10
-56.5
 20
28.268985
 30
0.0
 11
-56.5
 21
-27.568078
 31
0.0
  0
LINE
  5
143C
330
1437
100
AcDbEntity
  8
0
100
AcDbLine
 10
-23.000305
 20
-37.598527
 30
0.0
 11
0.0
 21
-38.000001
 31
0.0
  0
LINE
  5
143D
330
1437
100
AcDbEntity
  8
0
100
AcDbLine
 10
0.0
 20
-30.248971
 30
0.0
 11
-14.0
 21
-30.248971
 31
0.0
  0
LINE
  5
143E
330
1437
100
AcDbEntity
  8
0
100
AcDbLine
 10
-52.696838
 20
-30.024709
 30
0.0
 11
-25.0
 21
-30.749978
 31
0.0
  0
ARC
  5
143F
330
1437
100
AcDbEntity
  8
0
100
AcDbCircle
 10
-52.565956
 20
-25.026426
 30
0.0
 40
5.0
100
AcDbArc
 50
250.219711
 51
268.5
  0
ARC
  5
1440
330
1437
100
AcDbEntity
  8
0
100
AcDbCircle
 10
-54.5
 20
-27.518983
 30
0.0
 40
2.0
100
AcDbArc
 50
180.0
 51
250.219711
  0
LINE
  5
1441
330
1437
100
AcDbEntity
  8
0
100
AcDbLine
 10
-54.258026
 20
-29.731408
 30
0.0
 11
-55.176826
 21
-29.400979
 31
0.0
  0
LINE
  5
1442
330
1437
100
AcDbEntity
  8
0
100
AcDbLine
 10
-23.000305
 20
-29.500001
 30
0.0
 11
-15.0
 21
-29.500001
 31
0.0
  0
ARC
  5
1443
330
1437
100
AcDbEntity
  8
0
100
AcDbCircle
 10
-28.5
 20
-36.408185
 30
0.0
 40
0.5
100
AcDbArc
 50
180.0
 51
268.5
  0
ARC
  5
1444
330
1437
100
AcDbEntity
  8
0
100
AcDbCircle
 10
-24.700073
 20
-33.500001
 30
0.0
 40
7.0
100
AcDbArc
 50
163.043503
 51
196.957993
  0
LINE
  5
1445
330
1437
100
AcDbEntity
  8
0
100
AcDbLine
 10
-29.700073
 20
-36.250001
 30
0.0
 11
-29.700073
 21
-30.750001
 31
0.0
  0
LINE
  5
1446
330
1437
100
AcDbEntity
  8
0
100
AcDbLine
 10
-29.0
 20
-36.408185
 30
0.0
 11
-29.0
 21
-30.645257
 31
0.0
  0
ARC
  5
1447
330
1437
100
AcDbEntity
  8
0
100
AcDbCircle
 10
-30.43927
 20
-35.250001
 30
0.0
 40
1.0
100
AcDbArc
 50
196.958099
 51
270.0
  0
LINE
  5
1448
330
1437
100
AcDbEntity
  8
0
100
AcDbLine
 10
-29.0
 20
-36.250001
 30
0.0
 11
-30.43927
 21
-36.250001
 31
0.0
  0
ARC
  5
1449
330
1437
100
AcDbEntity
  8
0
100
AcDbCircle
 10
-30.43927
 20
-31.750001
 30
0.0
 40
1.0
100
AcDbArc
 50
90.0
 51
163.043106
  0
LINE
  5
144A
330
1437
100
AcDbEntity
  8
0
100
AcDbLine
 10
-29.0
 20
-30.750001
 30
0.0
 11
-30.43927
 21
-30.750001
 31
0.0
  0
ARC
  5
144B
330
1437
100
AcDbEntity
  8
0
100
AcDbCircle
 10
-24.0
 20
-36.295957
 30
0.0
 40
1.0
100
AcDbArc
 50
180.0
 51
255.024384
  0
LINE
  5
144C
330
1437
100
AcDbEntity
  8
0
100
AcDbLine
 10
-28.513089
 20
-36.908017
 30
0.0
 11
-25.0
 21
-37.000009
 31
0.0
  0
LINE
  5
144D
330
1437
100
AcDbEntity
  8
0
100
AcDbLine
 10
-24.258408
 20
-37.261995
 30
0.0
 11
-23.000305
 21
-37.598527
 31
0.0
  0
ARC
  5
144E
330
1437
100
AcDbEntity
  8
0
100
AcDbCircle
 10
-24.0
 20
-28.197431
 30
0.0
 40
1.0
100
AcDbArc
 50
180.0
 51
255.024384
  0
ARC
  5
144F
330
1437
100
AcDbEntity
  8
0
100
AcDbCircle
 10
-24.0
 20
-28.197431
 30
0.0
 40
1.0
100
AcDbArc
 50
180.0
 51
255.024384
  0
LINE
  5
1450
330
1437
100
AcDbEntity
  8
0
100
AcDbLine
 10
-24.258408
 20
-29.163465
 30
0.0
 11
-23.000305
 21
-29.500001
 31
0.0
  0
ARC
  5
1451
330
1437
100
AcDbEntity
  8
0
100
AcDbCircle
 10
-8.60001
 20
-34.000001
 30
0.0
 40
8.999999
100
AcDbArc
 50
163.398499
 51
196.600998
  0
LINE
  5
1452
330
1437
100
AcDbEntity
  8
0
100
AcDbLine
 10
-15.0
 20
-30.500001
 30
0.0
 11
-15.0
 21
-37.500001
 31
0.0
  0
LINE
  5
1453
330
1437
100
AcDbEntity
  8
0
100
AcDbLine
 10
-14.0
 20
-30.381929
 30
0.0
 11
-14.0
 21
-37.500001
 31
0.0
  0
LINE
  5
1454
330
1437
100
AcDbEntity
  8
0
100
AcDbLine
 10
-14.0
 20
-30.500001
 30
0.0
 11
-14.0
 21
-37.146409
 31
0.0
  0
ARC
  5
1455
330
1437
100
AcDbEntity
  8
0
100
AcDbCircle
 10
-15.979004
 20
-36.20001
 30
0.0
 40
1.3
100
AcDbArc
 50
196.600906
 51
270.0
  0
ARC
  5
1456
330
1437
100
AcDbEntity
  8
0
100
AcDbCircle
 10
-13.5
 20
-37.26428
 30
0.0
 40
0.5
100
AcDbArc
 50
180.0
 51
269.0
  0
LINE
  5
1457
330
1437
100
AcDbEntity
  8
0
100
AcDbLine
 10
-14.0
 20
-37.500001
 30
0.0
 11
-15.979004
 21
-37.500001
 31
0.0
  0
ARC
  5
1458
330
1437
100
AcDbEntity
  8
0
100
AcDbCircle
 10
-15.979004
 20
-31.800019
 30
0.0
 40
1.3
100
AcDbArc
 50
90.0
 51
163.398407
  0
LINE
  5
1459
330
1437
100
AcDbEntity
  8
0
100
AcDbLine
 10
-14.0
 20
-30.500001
 30
0.0
 11
-15.979004
 21
-30.500001
 31
0.0
  0
ARC
  5
145A
330
1437
100
AcDbEntity
  8
0
100
AcDbCircle
 10
-15.0
 20
-30.500001
 30
0.0
 40
1.0
100
AcDbArc
 50
0.0
 51
90.0
  0
LINE
  5
145B
330
1437
100
AcDbEntity
  8
0
100
AcDbLine
 10
0.0
 20
30.248971
 30
0.0
 11
-14.0
 21
30.248971
 31
0.0
  0
LINE
  5
145C
330
1437
100
AcDbEntity
  8
0
100
AcDbLine
 10
-29.0
 20
19.723792
 30
0.0
 11
-56.5
 21
19.003693
 31
0.0
  0
LINE
  5
145D
330
1437
100
AcDbEntity
  8
0
100
AcDbLine
 10
-29.0
 20
21.34128
 30
0.0
 11
-29.0
 21
7.934979
 31
0.0
  0
ARC
  5
145E
330
1437
100
AcDbEntity
  8
0
100
AcDbCircle
 10
-30.43927
 20
18.5
 30
0.0
 40
1.0
100
AcDbArc
 50
90.0
 51
163.043106
  0
LINE
  5
145F
330
1437
100
AcDbEntity
  8
0
100
AcDbLine
 10
-29.0
 20
13.776208
 30
0.0
 11
-56.5
 21
14.496307
 31
0.0
  0
LINE
  5
1460
330
1437
100
AcDbEntity
  8
0
100
AcDbLine
 10
-29.0
 20
7.934979
 30
0.0
 11
-25.0
 21
7.934979
 31
0.0
  0
ARC
  5
1461
330
1437
100
AcDbEntity
  8
0
100
AcDbCircle
 10
-30.43927
 20
15.0
 30
0.0
 40
1.0
100
AcDbArc
 50
196.958099
 51
270.0
  0
ARC
  5
1462
330
1437
100
AcDbEntity
  8
0
100
AcDbCircle
 10
-24.700073
 20
16.75
 30
0.0
 40
7.0
100
AcDbArc
 50
163.043503
 51
196.957993
  0
LINE
  5
1463
330
1437
100
AcDbEntity
  8
0
100
AcDbLine
 10
-29.700073
 20
14.0
 30
0.0
 11
-29.700073
 21
19.5
 31
0.0
  0
LINE
  5
1464
330
1437
100
AcDbEntity
  8
0
100
AcDbLine
 10
-29.0
 20
19.5
 30
0.0
 11
-30.43927
 21
19.5
 31
0.0
  0
LINE
  5
1465
330
1437
100
AcDbEntity
  8
0
100
AcDbLine
 10
-29.0
 20
14.0
 30
0.0
 11
-30.43927
 21
14.0
 31
0.0
  0
LINE
  5
1466
330
1437
100
AcDbEntity
  8
0
100
AcDbLine
 10
-52.696838
 20
30.77471
 30
0.0
 11
-25.668716
 21
31.482467
 31
0.0
  0
ARC
  5
1467
330
1437
100
AcDbEntity
  8
0
100
AcDbCircle
 10
-52.565956
 20
25.776424
 30
0.0
 40
5.0
100
AcDbArc
 50
91.5
 51
109.780289
  0
ARC
  5
1468
330
1437
100
AcDbEntity
  8
0
100
AcDbCircle
 10
-54.5
 20
28.268985
 30
0.0
 40
2.0
100
AcDbArc
 50
109.780289
 51
180.0
  0
LINE
  5
1469
330
1437
100
AcDbEntity
  8
0
100
AcDbLine
 10
-54.258026
 20
30.48141
 30
0.0
 11
-55.176826
 21
30.150979
 31
0.0
  0
LINE
  5
146A
330
1437
100
AcDbEntity
  8
0
100
AcDbLine
 10
-32.49988
 20
33.657798
 30
0.0
 11
-32.49988
 21
50.499999
 31
0.0
  0
LINE
  5
146B
330
1437
100
AcDbEntity
  8
0
100
AcDbLine
 10
-14.5
 20
29.500001
 30
0.0
 11
-23.000305
 21
29.500001
 31
0.0
  0
LINE
  5
146C
330
1437
100
AcDbEntity
  8
0
100
AcDbLine
 10
-32.49988
 20
38.500001
 30
0.0
 11
-15.0
 21
38.500001
 31
0.0
  0
ARC
  5
146D
330
1437
100
AcDbEntity
  8
0
100
AcDbCircle
 10
-26.0
 20
30.538935
 30
0.0
 40
1.0
100
AcDbArc
 50
0.0
 51
88.5
  0
LINE
  5
146E
330
1437
100
AcDbEntity
  8
0
100
AcDbLine
 10
-29.0
 20
21.34128
 30
0.0
 11
-25.0
 21
21.34128
 31
0.0
  0
ARC
  5
146F
330
1437
100
AcDbEntity
  8
0
100
AcDbCircle
 10
-24.0
 20
28.19743
 30
0.0
 40
1.0
100
AcDbArc
 50
104.975616
 51
180.0
  0
LINE
  5
1470
330
1437
100
AcDbEntity
  8
0
100
AcDbLine
 10
-24.258408
 20
29.163466
 30
0.0
 11
-23.000305
 21
29.500001
 31
0.0
  0
LINE
  5
1471
330
1437
100
AcDbEntity
  8
0
100
AcDbLine
 10
-25.973823
 20
31.538592
 30
0.0
 11
-30.552234
 21
31.658482
 31
0.0
  0
ARC
  5
1472
330
1437
100
AcDbEntity
  8
0
100
AcDbCircle
 10
-30.49988
 20
33.657798
 30
0.0
 40
2.0
100
AcDbArc
 50
180.0
 51
268.5
  0
ARC
  5
1473
330
1437
100
AcDbEntity
  8
0
100
AcDbCircle
 10
-15.979004
 20
31.800019
 30
0.0
 40
1.3
100
AcDbArc
 50
196.601593
 51
270.0
  0
LINE
  5
1474
330
1437
100
AcDbEntity
  8
0
100
AcDbLine
 10
-15.0
 20
30.500001
 30
0.0
 11
-15.0
 21
37.500001
 31
0.0
  0
LINE
  5
1475
330
1437
100
AcDbEntity
  8
0
100
AcDbLine
 10
-14.0
 20
30.000001
 30
0.0
 11
-14.0
 21
37.500001
 31
0.0
  0
ARC
  5
1476
330
1437
100
AcDbEntity
  8
0
100
AcDbCircle
 10
-14.5
 20
30.000001
 30
0.0
 40
0.5
100
AcDbArc
 50
270.0
 51
0.0
  0
LINE
  5
1477
330
1437
100
AcDbEntity
  8
0
100
AcDbLine
 10
-14.0
 20
30.500001
 30
0.0
 11
-15.979004
 21
30.500001
 31
0.0
  0
ARC
  5
1478
330
1437
100
AcDbEntity
  8
0
100
AcDbCircle
 10
-15.979004
 20
36.200009
 30
0.0
 40
1.3
100
AcDbArc
 50
90.0
 51
163.399094
  0
ARC
  5
1479
330
1437
100
AcDbEntity
  8
0
100
AcDbCircle
 10
-8.60001
 20
34.000001
 30
0.0
 40
8.999999
100
AcDbArc
 50
163.399002
 51
196.601501
  0
LINE
  5
147A
330
1437
100
AcDbEntity
  8
0
100
AcDbLine
 10
-14.0
 20
37.500001
 30
0.0
 11
-15.979004
 21
37.500001
 31
0.0
  0
ARC
  5
147B
330
1437
100
AcDbEntity
  8
0
100
AcDbCircle
 10
-15.0
 20
37.500001
 30
0.0
 40
1.0
100
AcDbArc
 50
0.0
 51
90.0
  0
LINE
  5
147C
330
1437
100
AcDbEntity
  8
0
100
AcDbLine
 10
-2.49988
 20
39.039611
 30
0.0
 11
-2.49988
 21
50.499999
 31
0.0
  0
ARC
  5
147D
330
1437
100
AcDbEntity
  8
0
100
AcDbCircle
 10
-1.5
 20
39.039611
 30
0.0
 40
1.0
100
AcDbArc
 50
180.0
 51
268.499908
  0
LINE
  5
147E
330
1437
100
AcDbEntity
  8
0
100
AcDbLine
 10
-1.52621
 20
38.039981
 30
0.0
 11
0.0
 21
38.000001
 31
0.0
  0
ARC
  5
147F
330
1437
100
AcDbEntity
  8
0
100
AcDbCircle
 10
-32.000122
 20
55.000001
 30
0.0
 40
0.5
100
AcDbArc
 50
90.0
 51
180.0
  0
ARC
  5
1480
330
1437
100
AcDbEntity
  8
0
100
AcDbCircle
 10
-31.999878
 20
58.07834
 30
0.0
 40
0.5
100
AcDbArc
 50
93.331696
 51
180.0
  0
LINE
  5
1481
330
1437
100
AcDbEntity
  8
HOJO
100
AcDbLine
 10
-48.796883
 20
55.150025
 30
0.0
 11
-49.532677
 21
52.314912
 31
0.0
  0
LINE
  5
1482
330
1437
100
AcDbEntity
  8
0
100
AcDbLine
 10
-49.648682
 20
47.450013
 30
0.0
 11
-34.499878
 21
47.450013
 31
0.0
  0
LINE
  5
1483
330
1437
100
AcDbEntity
  8
HOJO
100
AcDbLine
 10
-48.720581
 20
49.839906
 30
0.0
 11
-49.648682
 21
47.450013
 31
0.0
  0
LINE
  5
1484
330
1437
100
AcDbEntity
  8
HOJO
100
AcDbLine
 10
-49.532677
 20
52.314912
 30
0.0
 11
-48.720581
 21
49.839906
 31
0.0
  0
LINE
  5
1485
330
1437
100
AcDbEntity
  8
0
100
AcDbLine
 10
-48.796883
 20
55.150025
 30
0.0
 11
-34.499878
 21
55.150025
 31
0.0
  0
LINE
  5
1486
330
1437
100
AcDbEntity
  8
0
100
AcDbLine
 10
-32.499878
 20
51.500001
 30
0.0
 11
-32.499878
 21
58.07834
 31
0.0
  0
LINE
  5
1487
330
1437
100
AcDbEntity
  8
0
100
AcDbLine
 10
-2.499878
 20
51.500001
 30
0.0
 11
-2.499878
 21
58.07834
 31
0.0
  0
LINE
  5
1488
330
1437
100
AcDbEntity
  8
CENTER
100
AcDbLine
 10
-17.5
 20
62.025514
 30
0.0
 11
-17.499878
 21
44.226716
 31
0.0
  0
ARC
  5
1489
330
1437
100
AcDbEntity
  8
0
100
AcDbCircle
 10
-9.499878
 20
58.371736
 30
0.0
 40
0.5
100
AcDbArc
 50
0.0
 51
88.162544
  0
ARC
  5
148A
330
1437
100
AcDbEntity
  8
0
100
AcDbCircle
 10
-17.499878
 20
-190.999968
 30
0.0
 40
250.0
100
AcDbArc
 50
86.668304
 51
93.331696
  0
ARC
  5
148B
330
1437
100
AcDbEntity
  8
0
100
AcDbCircle
 10
-31.249878
 20
56.93921
 30
0.0
 40
1.0
100
AcDbArc
 50
106.958199
 51
180.0
  0
ARC
  5
148C
330
1437
100
AcDbEntity
  8
0
100
AcDbCircle
 10
-27.749878
 20
56.93921
 30
0.0
 40
1.0
100
AcDbArc
 50
0.0
 51
73.043098
  0
ARC
  5
148D
330
1437
100
AcDbEntity
  8
0
100
AcDbCircle
 10
-29.499878
 20
51.200013
 30
0.0
 40
7.0
100
AcDbArc
 50
73.043488
 51
106.958
  0
LINE
  5
148E
330
1437
100
AcDbEntity
  8
0
100
AcDbLine
 10
-32.249878
 20
56.200013
 30
0.0
 11
-26.749878
 21
56.200013
 31
0.0
  0
LINE
  5
148F
330
1437
100
AcDbEntity
  8
0
100
AcDbLine
 10
-26.749878
 20
55.499818
 30
0.0
 11
-26.749878
 21
56.93921
 31
0.0
  0
LINE
  5
1490
330
1437
100
AcDbEntity
  8
0
100
AcDbLine
 10
-32.249878
 20
55.500001
 30
0.0
 11
-32.249878
 21
56.93921
 31
0.0
  0
ARC
  5
1491
330
1437
100
AcDbEntity
  8
0
100
AcDbCircle
 10
-25.500122
 20
58.371736
 30
0.0
 40
0.5
100
AcDbArc
 50
91.837456
 51
180.0
  0
LINE
  5
1492
330
1437
100
AcDbEntity
  8
0
100
AcDbLine
 10
-26.000122
 20
56.000001
 30
0.0
 11
-26.000122
 21
58.371736
 31
0.0
  0
ARC
  5
1493
330
1437
100
AcDbEntity
  8
0
100
AcDbCircle
 10
-26.500122
 20
56.000001
 30
0.0
 40
0.5
100
AcDbArc
 50
270.0
 51
0.0
  0
LINE
  5
1494
330
1437
100
AcDbEntity
  8
0
100
AcDbLine
 10
-26.500122
 20
55.500001
 30
0.0
 11
-32.000122
 21
55.500001
 31
0.0
  0
ARC
  5
1495
330
1437
100
AcDbEntity
  8
0
100
AcDbCircle
 10
-7.249878
 20
56.93921
 30
0.0
 40
1.0
100
AcDbArc
 50
106.958199
 51
180.0
  0
ARC
  5
1496
330
1437
100
AcDbEntity
  8
0
100
AcDbCircle
 10
-3.749878
 20
56.93921
 30
0.0
 40
1.0
100
AcDbArc
 50
0.0
 51
73.043098
  0
ARC
  5
1497
330
1437
100
AcDbEntity
  8
0
100
AcDbCircle
 10
-5.499878
 20
51.200013
 30
0.0
 40
7.0
100
AcDbArc
 50
73.043488
 51
106.958
  0
LINE
  5
1498
330
1437
100
AcDbEntity
  8
0
100
AcDbLine
 10
-8.249878
 20
56.200013
 30
0.0
 11
-2.749878
 21
56.200013
 31
0.0
  0
LINE
  5
1499
330
1437
100
AcDbEntity
  8
0
100
AcDbLine
 10
-2.749878
 20
55.499818
 30
0.0
 11
-2.749878
 21
56.93921
 31
0.0
  0
LINE
  5
149A
330
1437
100
AcDbEntity
  8
0
100
AcDbLine
 10
-8.249878
 20
55.500001
 30
0.0
 11
-8.249878
 21
56.93921
 31
0.0
  0
ARC
  5
149B
330
1437
100
AcDbEntity
  8
0
100
AcDbCircle
 10
-2.999878
 20
55.000001
 30
0.0
 40
0.5
100
AcDbArc
 50
0.0
 51
90.0
  0
ARC
  5
149C
330
1437
100
AcDbEntity
  8
0
100
AcDbCircle
 10
-8.499878
 20
56.000001
 30
0.0
 40
0.5
100
AcDbArc
 50
180.0
 51
270.0
  0
LINE
  5
149D
330
1437
100
AcDbEntity
  8
0
100
AcDbLine
 10
-8.999878
 20
56.000001
 30
0.0
 11
-8.999878
 21
58.371736
 31
0.0
  0
LINE
  5
149E
330
1437
100
AcDbEntity
  8
0
100
AcDbLine
 10
-8.499878
 20
55.500001
 30
0.0
 11
-2.999878
 21
55.500001
 31
0.0
  0
ARC
  5
149F
330
1437
100
AcDbEntity
  8
0
100
AcDbCircle
 10
-2.999878
 20
58.07834
 30
0.0
 40
0.5
100
AcDbArc
 50
0.0
 51
86.668304
  0
ARC
  5
14A0
330
1437
100
AcDbEntity
  8
0
100
AcDbCircle
 10
-1.999878
 20
43.500025
 30
0.0
 40
0.5
100
AcDbArc
 50
90.0
 51
180.0
  0
ARC
  5
14A1
330
1437
100
AcDbEntity
  8
0
100
AcDbCircle
 10
-32.9997082848
 20
43.500025
 30
0.0
 40
0.5
100
AcDbArc
 50
359.9985816336
 51
90.0
  0
LINE
  5
14A2
330
1437
100
AcDbEntity
  8
0
100
AcDbLine
 10
-34.499878
 20
50.500025
 30
0.0
 11
-0.499882
 21
50.500025
 31
0.0
  0
LINE
  5
14A3
330
1437
100
AcDbEntity
  8
0
100
AcDbLine
 10
-34.499878
 20
51.500025
 30
0.0
 11
-32.500084
 21
51.500025
 31
0.0
  0
LINE
  5
14A4
330
1437
100
AcDbEntity
  8
0
100
AcDbLine
 10
-24.500084
 20
51.500025
 30
0.0
 11
-10.499878
 21
51.500025
 31
0.0
  0
LINE
  5
14A5
330
1437
100
AcDbEntity
  8
0
100
AcDbLine
 10
-2.499878
 20
51.500025
 30
0.0
 11
-0.499882
 21
51.500025
 31
0.0
  0
ARC
  5
14A6
330
1437
100
AcDbEntity
  8
0
100
AcDbCircle
 10
-32.906617134
 20
58.500025
 30
0.0
 40
0.5
100
AcDbArc
 50
270.0
 51
335.0585433099
  0
LINE
  5
14A7
330
1437
100
AcDbEntity
  8
0
100
AcDbLine
 10
-34.499878
 20
50.500025
 30
0.0
 11
-34.499878
 21
44.500025
 31
0.0
  0
ARC
  5
14A8
330
1437
100
AcDbEntity
  8
0
100
AcDbCircle
 10
-33.999878
 20
44.500025
 30
0.0
 40
0.5
100
AcDbArc
 50
180.0
 51
270.0
  0
LINE
  5
14A9
330
1437
100
AcDbEntity
  8
0
100
AcDbLine
 10
-32.999878
 20
44.000025
 30
0.0
 11
-33.999878
 21
44.000025
 31
0.0
  0
LINE
  5
14AA
330
1437
100
AcDbEntity
  8
0
100
AcDbLine
 10
-32.906617134
 20
58.000025
 30
0.0
 11
-33.999878
 21
58.000025
 31
0.0
  0
LINE
  5
14AB
330
1437
100
AcDbEntity
  8
0
100
AcDbLine
 10
-34.499878
 20
55.250025
 30
0.0
 11
-34.499878
 21
51.500025
 31
0.0
  0
LINE
  5
14AC
330
1437
100
AcDbEntity
  8
0
100
AcDbLine
 10
-34.499878
 20
57.500025
 30
0.0
 11
-34.499878
 21
55.250025
 31
0.0
  0
ARC
  5
14AD
330
1437
100
AcDbEntity
  8
0
100
AcDbCircle
 10
-33.999878
 20
57.500025
 30
0.0
 40
0.5
100
AcDbArc
 50
90.0
 51
180.0
  0
ARC
  5
14AE
330
1437
100
AcDbEntity
  8
0
100
AcDbCircle
 10
-2.093138866
 20
58.500025
 30
0.0
 40
0.5
100
AcDbArc
 50
204.9414566901
 51
270.0
  0
LINE
  5
14AF
330
1437
100
AcDbEntity
  8
0
100
AcDbLine
 10
-0.499882
 20
50.500025
 30
0.0
 11
-0.499882
 21
44.500025
 31
0.0
  0
LINE
  5
14B0
330
1437
100
AcDbEntity
  8
0
100
AcDbLine
 10
-1.999882
 20
44.000025
 30
0.0
 11
-0.999882
 21
44.000025
 31
0.0
  0
ARC
  5
14B1
330
1437
100
AcDbEntity
  8
0
100
AcDbCircle
 10
-0.999882
 20
44.500025
 30
0.0
 40
0.5
100
AcDbArc
 50
270.0
 51
0.0
  0
LINE
  5
14B2
330
1437
100
AcDbEntity
  8
0
100
AcDbLine
 10
-2.093138866
 20
58.000025
 30
0.0
 11
-0.999882
 21
58.000025
 31
0.0
  0
ARC
  5
14B3
330
1437
100
AcDbEntity
  8
0
100
AcDbCircle
 10
-0.999882
 20
57.500025
 30
0.0
 40
0.5
100
AcDbArc
 50
0.0
 51
90.0
  0
LINE
  5
14B4
330
1437
100
AcDbEntity
  8
0
100
AcDbLine
 10
-0.499882
 20
57.500025
 30
0.0
 11
-0.499882
 21
51.500025
 31
0.0
  0
LINE
  5
14B5
330
1437
100
AcDbEntity
  8
0
100
AcDbLine
 10
-32.500084
 20
51.500025
 30
0.0
 11
-32.500084
 21
50.500025
 31
0.0
  0
LINE
  5
14B6
330
1437
100
AcDbEntity
  8
0
100
AcDbLine
 10
-24.500084
 20
51.500025
 30
0.0
 11
-24.500084
 21
50.500025
 31
0.0
  0
LINE
  5
14B7
330
1437
100
AcDbEntity
  8
0
100
AcDbLine
 10
-34.199878
 20
51.500025
 30
0.0
 11
-34.199878
 21
50.500025
 31
0.0
  0
LINE
  5
14B8
330
1437
100
AcDbEntity
  8
0
100
AcDbLine
 10
-10.499878
 20
51.500025
 30
0.0
 11
-10.499878
 21
50.500025
 31
0.0
  0
LINE
  5
14B9
330
1437
100
AcDbEntity
  8
0
100
AcDbLine
 10
-2.499878
 20
51.500025
 30
0.0
 11
-2.499878
 21
50.500025
 31
0.0
  0
LINE
  5
14BA
330
1437
100
AcDbEntity
  8
0
100
AcDbLine
 10
-0.799882
 20
51.500025
 30
0.0
 11
-0.799882
 21
50.500025
 31
0.0
  0
LINE
  5
14BB
330
1437
100
AcDbEntity
  8
0
100
AcDbLine
 10
-0.499882
 20
51.500025
 30
0.0
 11
-0.499882
 21
50.500025
 31
0.0
  0
ENDBLK
  5
14BC
330
1437
100
AcDbEntity
  8
0
100
AcDbBlockEnd
  0
BLOCK
  5
14C8
330
14C5
100
AcDbEntity
  8
0
100
AcDbBlockBegin
  2
A$C57c306b1
 70
     0
 10
0.0
 20
0.0
 30
0.0
  3
A$C57c306b1
  1

  0
ARC
  5
14C9
330
14C5
100
AcDbEntity
  8
0
100
AcDbCircle
 10
0.0
 20
1.56
 30
0.0
 40
0.3900000000000001
100
AcDbArc
 50
17.2352852571
 51
162.7647147429
  0
ARC
  5
14CA
330
14C5
100
AcDbEntity
  8
0
100
AcDbCircle
 10
-1.117462403
 20
1.9066666667
 30
0.0
 40
0.7800000000000002
100
AcDbArc
 50
300.3737861998
 51
342.7647147429
  0
ARC
  5
14CB
330
14C5
100
AcDbEntity
  8
0
100
AcDbCircle
 10
1.117462403
 20
1.9066666667
 30
0.0
 40
0.7800000000000002
100
AcDbArc
 50
197.2352852571
 51
239.6262138002
  0
ARC
  5
14CC
330
14C5
100
AcDbEntity
  8
0
100
AcDbCircle
 10
-1.3509996299
 20
0.78
 30
0.0
 40
0.3900000000000001
100
AcDbArc
 50
77.2352852571
 51
222.7647147429
  0
ARC
  5
14CD
330
14C5
100
AcDbEntity
  8
0
100
AcDbCircle
 10
-2.2099529714
 20
-0.0144174955
 30
0.0
 40
0.7800000000000002
100
AcDbArc
 50
0.3737861998
 51
42.7647147429
  0
ARC
  5
14CE
330
14C5
100
AcDbEntity
  8
0
100
AcDbCircle
 10
-1.0924905684
 20
1.9210841621
 30
0.0
 40
0.7800000000000002
100
AcDbArc
 50
257.2352852571
 51
299.6262138002
  0
ARC
  5
14CF
330
14C5
100
AcDbEntity
  8
0
100
AcDbCircle
 10
1.3509996299
 20
0.78
 30
0.0
 40
0.3900000000000001
100
AcDbArc
 50
317.2352852571
 51
102.7647147429
  0
ARC
  5
14D0
330
14C5
100
AcDbEntity
  8
0
100
AcDbCircle
 10
2.2099529714
 20
-0.0144174955
 30
0.0
 40
0.7800000000000002
100
AcDbArc
 50
137.2352852571
 51
179.6262138002
  0
ARC
  5
14D1
330
14C5
100
AcDbEntity
  8
0
100
AcDbCircle
 10
1.0924905684
 20
1.9210841621
 30
0.0
 40
0.7800000000000002
100
AcDbArc
 50
240.3737861998
 51
282.7647147429
  0
ARC
  5
14D2
330
14C5
100
AcDbEntity
  8
0
100
AcDbCircle
 10
0.0
 20
-1.56
 30
0.0
 40
0.3900000000000001
100
AcDbArc
 50
197.2352852571
 51
342.7647147429
  0
ARC
  5
14D3
330
14C5
100
AcDbEntity
  8
0
100
AcDbCircle
 10
-1.117462403
 20
-1.9066666667
 30
0.0
 40
0.7800000000000002
100
AcDbArc
 50
17.2352852571
 51
59.6262138002
  0
ARC
  5
14D4
330
14C5
100
AcDbEntity
  8
0
100
AcDbCircle
 10
1.117462403
 20
-1.9066666667
 30
0.0
 40
0.7800000000000002
100
AcDbArc
 50
120.3737861998
 51
162.7647147429
  0
ARC
  5
14D5
330
14C5
100
AcDbEntity
  8
0
100
AcDbCircle
 10
-1.3509996299
 20
-0.78
 30
0.0
 40
0.3900000000000001
100
AcDbArc
 50
137.2352852571
 51
282.7647147429
  0
ARC
  5
14D6
330
14C5
100
AcDbEntity
  8
0
100
AcDbCircle
 10
-2.2099529714
 20
0.0144174955
 30
0.0
 40
0.7800000000000002
100
AcDbArc
 50
317.2352852571
 51
359.6262138002
  0
ARC
  5
14D7
330
14C5
100
AcDbEntity
  8
0
100
AcDbCircle
 10
-1.0924905684
 20
-1.9210841621
 30
0.0
 40
0.7800000000000002
100
AcDbArc
 50
60.3737861998
 51
102.7647147429
  0
ARC
  5
14D8
330
14C5
100
AcDbEntity
  8
0
100
AcDbCircle
 10
1.3509996299
 20
-0.78
 30
0.0
 40
0.3900000000000001
100
AcDbArc
 50
257.2352852571
 51
42.7647147429
  0
ARC
  5
14D9
330
14C5
100
AcDbEntity
  8
0
100
AcDbCircle
 10
1.0924905684
 20
-1.9210841621
 30
0.0
 40
0.7800000000000002
100
AcDbArc
 50
77.2352852571
 51
119.6262138002
  0
ARC
  5
14DA
330
14C5
100
AcDbEntity
  8
0
100
AcDbCircle
 10
2.2099529714
 20
0.0144174955
 30
0.0
 40
0.7800000000000002
100
AcDbArc
 50
180.3737861998
 51
222.7647147429
  0
ENDBLK
  5
14DB
330
14C5
100
AcDbEntity
  8
0
100
AcDbBlockEnd
  0
BLOCK
  5
14DD
330
14DC
100
AcDbEntity
  8
0
100
AcDbBlockBegin
  2
A$C46bf166a
 70
     0
 10
0.0
 20
0.0
 30
0.0
  3
A$C46bf166a
  1

  0
LINE
  5
14DE
330
14DC
100
AcDbEntity
  8
0
100
AcDbLine
 10
-56.5
 20
28.312195
 30
0.0
 11
-56.5
 21
-28.31218
 31
0.0
  0
LINE
  5
14DF
330
14DC
100
AcDbEntity
  8
HOJO
100
AcDbLine
 10
-48.796881
 20
3.850006
 30
0.0
 11
-49.532681
 21
1.014908
 31
0.0
  0
LINE
  5
14E0
330
14DC
100
AcDbEntity
  8
0
100
AcDbLine
 10
-2.5
 20
21.0
 30
0.0
 11
-2.5
 21
-20.999992
 31
0.0
  0
LINE
  5
14E1
330
14DC
100
AcDbEntity
  8
0
100
AcDbLine
 10
-32.5001
 20
-20.999992
 30
0.0
 11
-32.5001
 21
21.0
 31
0.0
  0
LINE
  5
14E2
330
14DC
100
AcDbEntity
  8
0
100
AcDbLine
 10
0.0
 20
-37.999992
 30
0.0
 11
0.0
 21
38.0
 31
0.0
  0
LINE
  5
14E3
330
14DC
100
AcDbEntity
  8
CENTER
100
AcDbLine
 10
-17.5
 20
28.508564
 30
0.0
 11
-17.5
 21
-28.508564
 31
0.0
  0
LINE
  5
14E4
330
14DC
100
AcDbEntity
  8
0
100
AcDbLine
 10
-4.122315
 20
-22.964005
 30
0.0
 11
0.0
 21
-22.999992
 31
0.0
  0
ARC
  5
14E5
330
14DC
100
AcDbEntity
  8
0
100
AcDbCircle
 10
-4.5
 20
-20.999992
 30
0.0
 40
2.0
100
AcDbArc
 50
270.0
 51
0.0
  0
LINE
  5
14E6
330
14DC
100
AcDbEntity
  8
0
100
AcDbLine
 10
-23.0003
 20
-37.598496
 30
0.0
 11
0.0
 21
-37.999992
 31
0.0
  0
LINE
  5
14E7
330
14DC
100
AcDbEntity
  8
0
100
AcDbLine
 10
-29.0
 20
-25.196198
 30
0.0
 11
-56.5
 21
-25.916321
 31
0.0
  0
LINE
  5
14E8
330
14DC
100
AcDbEntity
  8
0
100
AcDbLine
 10
-31.694446
 20
-28.731293
 30
0.0
 11
-56.5
 21
-28.081703
 31
0.0
  0
LINE
  5
14E9
330
14DC
100
AcDbEntity
  8
0
100
AcDbLine
 10
-52.755901
 20
-30.773178
 30
0.0
 11
-31.257964
 21
-31.336121
 31
0.0
  0
LINE
  5
14EA
330
14DC
100
AcDbEntity
  8
0
100
AcDbLine
 10
-49.648682
 20
-3.849991
 30
0.0
 11
-34.49988
 21
-3.849991
 31
0.0
  0
ARC
  5
14EB
330
14DC
100
AcDbEntity
  8
0
100
AcDbCircle
 10
-52.625015
 20
-25.774895
 30
0.0
 40
5.0
100
AcDbArc
 50
251.565048
 51
268.5
  0
ARC
  5
14EC
330
14DC
100
AcDbEntity
  8
0
100
AcDbCircle
 10
-54.5
 20
-28.31218
 30
0.0
 40
2.0
100
AcDbArc
 50
180.0
 51
251.565048
  0
LINE
  5
14ED
330
14DC
100
AcDbEntity
  8
0
100
AcDbLine
 10
-55.132458
 20
-30.209541
 30
0.0
 11
-54.206158
 21
-30.518311
 31
0.0
  0
LINE
  5
14EE
330
14DC
100
AcDbEntity
  8
HOJO
100
AcDbLine
 10
-48.720579
 20
-1.460098
 30
0.0
 11
-49.648682
 21
-3.849991
 31
0.0
  0
LINE
  5
14EF
330
14DC
100
AcDbEntity
  8
HOJO
100
AcDbLine
 10
-49.532681
 20
1.014908
 30
0.0
 11
-48.720579
 21
-1.460098
 31
0.0
  0
ARC
  5
14F0
330
14DC
100
AcDbEntity
  8
0
100
AcDbCircle
 10
-30.5001
 20
-20.999992
 30
0.0
 40
2.0
100
AcDbArc
 50
180.0
 51
270.0
  0
LINE
  5
14F1
330
14DC
100
AcDbEntity
  8
0
100
AcDbLine
 10
-4.5
 20
-22.999992
 30
0.0
 11
-30.5001
 21
-22.999992
 31
0.0
  0
LINE
  5
14F2
330
14DC
100
AcDbEntity
  8
0
100
AcDbLine
 10
-25.0
 20
-36.295891
 30
0.0
 11
-25.0
 21
-22.999992
 31
0.0
  0
ARC
  5
14F3
330
14DC
100
AcDbEntity
  8
0
100
AcDbCircle
 10
-24.0
 20
-36.295891
 30
0.0
 40
1.0
100
AcDbArc
 50
180.0
 51
255.025604
  0
LINE
  5
14F4
330
14DC
100
AcDbEntity
  8
0
100
AcDbLine
 10
-24.2584
 20
-37.261894
 30
0.0
 11
-23.0003
 21
-37.598496
 31
0.0
  0
ARC
  5
14F5
330
14DC
100
AcDbEntity
  8
0
100
AcDbCircle
 10
-28.5
 20
-32.477112
 30
0.0
 40
0.5
100
AcDbArc
 50
180.0
 51
268.500519
  0
ARC
  5
14F6
330
14DC
100
AcDbEntity
  8
0
100
AcDbCircle
 10
-24.700073
 20
-29.011894
 30
0.0
 40
7.0
100
AcDbArc
 50
163.043503
 51
196.957993
  0
LINE
  5
14F7
330
14DC
100
AcDbEntity
  8
0
100
AcDbLine
 10
-29.700073
 20
-31.761894
 30
0.0
 11
-29.700073
 21
-26.261894
 31
0.0
  0
LINE
  5
14F8
330
14DC
100
AcDbEntity
  8
0
100
AcDbLine
 10
-29.0
 20
-32.477112
 30
0.0
 11
-29.0
 21
-22.999992
 31
0.0
  0
ARC
  5
14F9
330
14DC
100
AcDbEntity
  8
0
100
AcDbCircle
 10
-30.43927
 20
-30.761894
 30
0.0
 40
1.0
100
AcDbArc
 50
196.958099
 51
270.0
  0
LINE
  5
14FA
330
14DC
100
AcDbEntity
  8
0
100
AcDbLine
 10
-29.0
 20
-31.761894
 30
0.0
 11
-30.43927
 21
-31.761894
 31
0.0
  0
LINE
  5
14FB
330
14DC
100
AcDbEntity
  8
0
100
AcDbLine
 10
-29.0
 20
-26.261894
 30
0.0
 11
-30.43927
 21
-26.261894
 31
0.0
  0
ARC
  5
14FC
330
14DC
100
AcDbEntity
  8
0
100
AcDbCircle
 10
-30.43927
 20
-27.261894
 30
0.0
 40
1.0
100
AcDbArc
 50
90.0
 51
163.043106
  0
LINE
  5
14FD
330
14DC
100
AcDbEntity
  8
0
100
AcDbLine
 10
-29.0
 20
-26.261894
 30
0.0
 11
-30.43927
 21
-26.261894
 31
0.0
  0
LINE
  5
14FE
330
14DC
100
AcDbEntity
  8
0
100
AcDbLine
 10
-28.513084
 20
-32.976936
 30
0.0
 11
-25.0
 21
-33.068901
 31
0.0
  0
LINE
  5
14FF
330
14DC
100
AcDbEntity
  8
0
100
AcDbLine
 10
-4.122315
 20
22.96402
 30
0.0
 11
0.0
 21
23.0
 31
0.0
  0
ARC
  5
1500
330
14DC
100
AcDbEntity
  8
0
100
AcDbCircle
 10
-4.5
 20
21.0
 30
0.0
 40
2.0
100
AcDbArc
 50
0.0
 51
90.0
  0
LINE
  5
1501
330
14DC
100
AcDbEntity
  8
0
100
AcDbLine
 10
-23.0003
 20
37.598404
 30
0.0
 11
0.0
 21
38.0
 31
0.0
  0
LINE
  5
1502
330
14DC
100
AcDbEntity
  8
0
100
AcDbLine
 10
-29.0
 20
25.196213
 30
0.0
 11
-56.5
 21
25.916336
 31
0.0
  0
LINE
  5
1503
330
14DC
100
AcDbEntity
  8
0
100
AcDbLine
 10
-31.694446
 20
28.731308
 30
0.0
 11
-56.5
 21
28.081726
 31
0.0
  0
LINE
  5
1504
330
14DC
100
AcDbEntity
  8
0
100
AcDbLine
 10
-52.755901
 20
30.773193
 30
0.0
 11
-31.257964
 21
31.336136
 31
0.0
  0
LINE
  5
1505
330
14DC
100
AcDbEntity
  8
0
100
AcDbLine
 10
-48.796881
 20
3.850006
 30
0.0
 11
-34.49988
 21
3.850006
 31
0.0
  0
ARC
  5
1506
330
14DC
100
AcDbEntity
  8
0
100
AcDbCircle
 10
-52.625015
 20
25.774902
 30
0.0
 40
5.0
100
AcDbArc
 50
91.5
 51
108.434952
  0
ARC
  5
1507
330
14DC
100
AcDbEntity
  8
0
100
AcDbCircle
 10
-54.5
 20
28.312195
 30
0.0
 40
2.0
100
AcDbArc
 50
108.434952
 51
180.0
  0
LINE
  5
1508
330
14DC
100
AcDbEntity
  8
0
100
AcDbLine
 10
-55.132458
 20
30.209549
 30
0.0
 11
-54.206158
 21
30.518326
 31
0.0
  0
LINE
  5
1509
330
14DC
100
AcDbEntity
  8
0
100
AcDbLine
 10
-29.0
 20
32.477127
 30
0.0
 11
-29.0
 21
23.0
 31
0.0
  0
LINE
  5
150A
330
14DC
100
AcDbEntity
  8
0
100
AcDbLine
 10
-25.0
 20
36.295914
 30
0.0
 11
-25.0
 21
23.0
 31
0.0
  0
LINE
  5
150B
330
14DC
100
AcDbEntity
  8
0
100
AcDbLine
 10
-4.5
 20
23.0
 30
0.0
 11
-30.5001
 21
23.0
 31
0.0
  0
ARC
  5
150C
330
14DC
100
AcDbEntity
  8
0
100
AcDbCircle
 10
-30.5001
 20
21.0
 30
0.0
 40
2.0
100
AcDbArc
 50
90.0
 51
180.0
  0
ARC
  5
150D
330
14DC
100
AcDbEntity
  8
0
100
AcDbCircle
 10
-28.5
 20
32.477127
 30
0.0
 40
0.5
100
AcDbArc
 50
91.499481
 51
180.0
  0
ARC
  5
150E
330
14DC
100
AcDbEntity
  8
0
100
AcDbCircle
 10
-24.700073
 20
29.011902
 30
0.0
 40
7.0
100
AcDbArc
 50
163.042007
 51
196.956497
  0
LINE
  5
150F
330
14DC
100
AcDbEntity
  8
0
100
AcDbLine
 10
-29.700073
 20
31.761902
 30
0.0
 11
-29.700073
 21
26.261902
 31
0.0
  0
ARC
  5
1510
330
14DC
100
AcDbEntity
  8
0
100
AcDbCircle
 10
-30.43927
 20
27.261902
 30
0.0
 40
1.0
100
AcDbArc
 50
196.956894
 51
270.0
  0
LINE
  5
1511
330
14DC
100
AcDbEntity
  8
0
100
AcDbLine
 10
-29.0
 20
26.261902
 30
0.0
 11
-30.43927
 21
26.261902
 31
0.0
  0
ARC
  5
1512
330
14DC
100
AcDbEntity
  8
0
100
AcDbCircle
 10
-30.43927
 20
30.761902
 30
0.0
 40
1.0
100
AcDbArc
 50
90.0
 51
163.041901
  0
LINE
  5
1513
330
14DC
100
AcDbEntity
  8
0
100
AcDbLine
 10
-29.0
 20
31.761902
 30
0.0
 11
-30.43927
 21
31.761902
 31
0.0
  0
LINE
  5
1514
330
14DC
100
AcDbEntity
  8
0
100
AcDbLine
 10
-28.513084
 20
32.976959
 30
0.0
 11
-25.0
 21
33.068909
 31
0.0
  0
ARC
  5
1515
330
14DC
100
AcDbEntity
  8
0
100
AcDbCircle
 10
-24.0
 20
36.295914
 30
0.0
 40
1.0
100
AcDbArc
 50
104.974396
 51
180.0
  0
LINE
  5
1516
330
14DC
100
AcDbEntity
  8
0
100
AcDbLine
 10
-24.2584
 20
37.261902
 30
0.0
 11
-23.0003
 21
37.598404
 31
0.0
  0
ARC
  5
1517
330
14DC
100
AcDbEntity
  8
0
100
AcDbCircle
 10
-31.500099
 20
-15.5
 30
0.0
 40
1.0
100
AcDbArc
 50
180.0
 51
270.0
  0
ARC
  5
1518
330
14DC
100
AcDbEntity
  8
0
100
AcDbCircle
 10
-25.0
 20
-22.0
 30
0.0
 40
1.0
100
AcDbArc
 50
180.0
 51
270.0
  0
ARC
  5
1519
330
14DC
100
AcDbEntity
  8
0
100
AcDbCircle
 10
-10.0
 20
-22.0
 30
0.0
 40
1.0
100
AcDbArc
 50
270.0
 51
0.0
  0
ARC
  5
151A
330
14DC
100
AcDbEntity
  8
0
100
AcDbCircle
 10
-5.5
 20
-20.0
 30
0.0
 40
3.5
100
AcDbArc
 50
90.0
 51
180.0
  0
LINE
  5
151B
330
14DC
100
AcDbEntity
  8
0
100
AcDbLine
 10
-26.0
 20
-22.0
 30
0.0
 11
-26.0
 21
-20.0
 31
0.0
  0
LINE
  5
151C
330
14DC
100
AcDbEntity
  8
0
100
AcDbLine
 10
-31.500099
 20
-16.5
 30
0.0
 11
-29.5
 21
-16.5
 31
0.0
  0
ARC
  5
151D
330
14DC
100
AcDbEntity
  8
0
100
AcDbCircle
 10
-29.5
 20
-20.0
 30
0.0
 40
3.5
100
AcDbArc
 50
0.0
 51
90.0
  0
ARC
  5
151E
330
14DC
100
AcDbEntity
  8
0
100
AcDbCircle
 10
-3.499901
 20
-15.5
 30
0.0
 40
1.0
100
AcDbArc
 50
270.0
 51
0.0
  0
LINE
  5
151F
330
14DC
100
AcDbEntity
  8
0
100
AcDbLine
 10
-3.499901
 20
-16.5
 30
0.0
 11
-5.5
 21
-16.5
 31
0.0
  0
LINE
  5
1520
330
14DC
100
AcDbEntity
  8
0
100
AcDbLine
 10
-9.0
 20
-22.0
 30
0.0
 11
-9.0
 21
-20.0
 31
0.0
  0
ARC
  5
1521
330
14DC
100
AcDbEntity
  8
0
100
AcDbCircle
 10
-31.500099
 20
15.5
 30
0.0
 40
1.0
100
AcDbArc
 50
90.0
 51
180.0
  0
ARC
  5
1522
330
14DC
100
AcDbEntity
  8
0
100
AcDbCircle
 10
-10.0
 20
22.0
 30
0.0
 40
1.0
100
AcDbArc
 50
0.0
 51
90.0
  0
ARC
  5
1523
330
14DC
100
AcDbEntity
  8
0
100
AcDbCircle
 10
-5.5
 20
20.0
 30
0.0
 40
3.5
100
AcDbArc
 50
180.0
 51
270.0
  0
ARC
  5
1524
330
14DC
100
AcDbEntity
  8
0
100
AcDbCircle
 10
-25.0
 20
22.0
 30
0.0
 40
1.0
100
AcDbArc
 50
90.0
 51
180.0
  0
LINE
  5
1525
330
14DC
100
AcDbEntity
  8
0
100
AcDbLine
 10
-26.0
 20
22.0
 30
0.0
 11
-26.0
 21
20.0
 31
0.0
  0
LINE
  5
1526
330
14DC
100
AcDbEntity
  8
0
100
AcDbLine
 10
-31.500099
 20
16.5
 30
0.0
 11
-29.5
 21
16.5
 31
0.0
  0
ARC
  5
1527
330
14DC
100
AcDbEntity
  8
0
100
AcDbCircle
 10
-29.5
 20
20.0
 30
0.0
 40
3.5
100
AcDbArc
 50
270.0
 51
0.0
  0
ARC
  5
1528
330
14DC
100
AcDbEntity
  8
0
100
AcDbCircle
 10
-3.499901
 20
15.5
 30
0.0
 40
1.0
100
AcDbArc
 50
0.0
 51
90.0
  0
LINE
  5
1529
330
14DC
100
AcDbEntity
  8
0
100
AcDbLine
 10
-3.499901
 20
16.5
 30
0.0
 11
-5.5
 21
16.5
 31
0.0
  0
LINE
  5
152A
330
14DC
100
AcDbEntity
  8
0
100
AcDbLine
 10
-9.0
 20
22.0
 30
0.0
 11
-9.0
 21
20.0
 31
0.0
  0
CIRCLE
  5
152B
330
14DC
100
AcDbEntity
  8
0
100
AcDbCircle
 10
-5.5
 20
-20.0
 30
0.0
 40
2.75
  0
CIRCLE
  5
152C
330
14DC
100
AcDbEntity
  8
0
100
AcDbCircle
 10
-29.5
 20
-20.0
 30
0.0
 40
2.75
  0
LINE
  5
152D
330
14DC
100
AcDbEntity
  8
0
100
AcDbLine
 10
-34.5
 20
6.0
 30
0.0
 11
-34.5
 21
-6.0
 31
0.0
  0
ARC
  5
152E
330
14DC
100
AcDbEntity
  8
0
100
AcDbCircle
 10
-33.0
 20
-7.5
 30
0.0
 40
0.5
100
AcDbArc
 50
0.0
 51
90.0
  0
ARC
  5
152F
330
14DC
100
AcDbEntity
  8
0
100
AcDbCircle
 10
-33.5
 20
-6.0
 30
0.0
 40
1.0
100
AcDbArc
 50
180.0
 51
270.0
  0
LINE
  5
1530
330
14DC
100
AcDbEntity
  8
0
100
AcDbLine
 10
-33.0
 20
-7.0
 30
0.0
 11
-33.5
 21
-7.0
 31
0.0
  0
ARC
  5
1531
330
14DC
100
AcDbEntity
  8
0
100
AcDbCircle
 10
-33.0
 20
7.5
 30
0.0
 40
0.5
100
AcDbArc
 50
270.0
 51
0.0
  0
ARC
  5
1532
330
14DC
100
AcDbEntity
  8
0
100
AcDbCircle
 10
-33.5
 20
6.0
 30
0.0
 40
1.0
100
AcDbArc
 50
90.0
 51
180.0
  0
LINE
  5
1533
330
14DC
100
AcDbEntity
  8
0
100
AcDbLine
 10
-33.0
 20
7.0
 30
0.0
 11
-33.5
 21
7.0
 31
0.0
  0
LINE
  5
1534
330
14DC
100
AcDbEntity
  8
0
100
AcDbLine
 10
-0.500004
 20
6.0
 30
0.0
 11
-0.500004
 21
-6.0
 31
0.0
  0
LINE
  5
1535
330
14DC
100
AcDbEntity
  8
0
100
AcDbLine
 10
-0.500004
 20
4.883698
 30
0.0
 11
-0.500004
 21
-4.883697
 31
0.0
  0
ARC
  5
1536
330
14DC
100
AcDbEntity
  8
0
100
AcDbCircle
 10
-2.000004
 20
-7.5
 30
0.0
 40
0.5
100
AcDbArc
 50
90.0
 51
180.0
  0
ARC
  5
1537
330
14DC
100
AcDbEntity
  8
0
100
AcDbCircle
 10
-1.500004
 20
-6.0
 30
0.0
 40
1.0
100
AcDbArc
 50
270.0
 51
0.0
  0
LINE
  5
1538
330
14DC
100
AcDbEntity
  8
0
100
AcDbLine
 10
-2.000004
 20
-7.0
 30
0.0
 11
-1.500004
 21
-7.0
 31
0.0
  0
ARC
  5
1539
330
14DC
100
AcDbEntity
  8
0
100
AcDbCircle
 10
-2.000004
 20
7.5
 30
0.0
 40
0.5
100
AcDbArc
 50
180.0
 51
270.0
  0
ARC
  5
153A
330
14DC
100
AcDbEntity
  8
0
100
AcDbCircle
 10
-1.500004
 20
6.0
 30
0.0
 40
1.0
100
AcDbArc
 50
0.0
 51
90.0
  0
LINE
  5
153B
330
14DC
100
AcDbEntity
  8
0
100
AcDbLine
 10
-2.000004
 20
7.0
 30
0.0
 11
-1.500004
 21
7.0
 31
0.0
  0
CIRCLE
  5
153C
330
14DC
100
AcDbEntity
  8
0
100
AcDbCircle
 10
-29.5
 20
20.0
 30
0.0
 40
2.75
  0
CIRCLE
  5
153D
330
14DC
100
AcDbEntity
  8
0
100
AcDbCircle
 10
-5.5
 20
20.0
 30
0.0
 40
2.75
  0
INSERT
  5
153E
330
14DC
100
AcDbEntity
  8
0
100
AcDbBlockReference
  2
A$C57c306b1
 10
-5.5
 20
20.0
 30
0.0
  0
INSERT
  5
153F
330
14DC
100
AcDbEntity
  8
0
100
AcDbBlockReference
  2
A$C57c306b1
 10
-29.5
 20
20.0093289677
 30
0.0
  0
INSERT
  5
1540
330
14DC
100
AcDbEntity
  8
0
100
AcDbBlockReference
  2
A$C57c306b1
 10
-5.5
 20
-19.9906710323
 30
0.0
  0
INSERT
  5
1541
330
14DC
100
AcDbEntity
  8
0
100
AcDbBlockReference
  2
A$C57c306b1
 10
-29.5
 20
-19.9906710323
 30
0.0
  0
ENDBLK
  5
1542
330
14DC
100
AcDbEntity
  8
0
100
AcDbBlockEnd
  0
ENDSEC
  0
SECTION
  2
ENTITIES
  0
ARC
  5
920
330
2
100
AcDbEntity
  8
0
100
AcDbCircle
 10
265.1359517264
 20
250.7367410866
 30
0.0
 40
1.0
100
AcDbArc
 50
180.0
 51
270.0
  0
LINE
  5
921
330
2
100
AcDbEntity
  8
0
100
AcDbLine
 10
268.1359517264
 20
315.7367410866
 30
0.0
 11
230.1359517264
 21
315.7367410866
 31
0.0
  0
LINE
  5
922
330
2
100
AcDbEntity
  8
0
100
AcDbLine
 10
287.8284417264
 20
311.7367410866
 30
0.0
 11
208.5842707264
 21
311.7367410866
 31
0.0
  0
LINE
  5
923
330
2
100
AcDbEntity
  8
0
100
AcDbLine
 10
207.4268147264
 20
249.7367410866
 30
0.0
 11
290.4261287264
 21
249.7367410866
 31
0.0
  0
LINE
  5
924
330
2
100
AcDbEntity
  8
0
100
AcDbLine
 10
206.6359517264
 20
240.7367260866
 30
0.0
 11
291.6359517264
 21
240.7367260866
 31
0.0
  0
LINE
  5
925
330
2
100
AcDbEntity
  8
CENTER
100
AcDbLine
 10
70.6359517264
 20
280.7367410866
 30
0.0
 11
297.5885161464
 21
280.7367410866
 31
0.0
  0
LINE
  5
927
330
2
100
AcDbEntity
  8
0
100
AcDbLine
 10
229.1359517264
 20
152.0003994777
 30
0.0
 11
269.1359517264
 21
152.0003994777
 31
0.0
  0
LINE
  5
928
330
2
100
AcDbEntity
  8
CENTER
100
AcDbLine
 10
222.1359517264
 20
118.0003994777
 30
0.0
 11
276.1359517264
 21
118.0003994777
 31
0.0
  0
LINE
  5
929
330
2
100
AcDbEntity
  8
0
100
AcDbLine
 10
229.1359517264
 20
58.0004004777
 30
0.0
 11
269.1359517264
 21
58.0004004777
 31
0.0
  0
CIRCLE
  5
92A
330
2
100
AcDbEntity
  8
0
100
AcDbCircle
 10
249.1359517264
 20
118.0003994777
 30
0.0
 40
20.0
  0
ARC
  5
92B
330
2
100
AcDbEntity
  8
0
100
AcDbCircle
 10
249.1359517264
 20
105.0003994777
 30
0.0
 40
42.5
100
AcDbArc
 50
19.749901
 51
160.250107
  0
LINE
  5
92C
330
2
100
AcDbEntity
  8
0
100
AcDbLine
 10
217.1359517264
 20
54.0004004777
 30
0.0
 11
281.1359517264
 21
54.0004004777
 31
0.0
  0
ARC
  5
92D
330
2
100
AcDbEntity
  8
0
100
AcDbCircle
 10
249.1359517264
 20
105.0003994777
 30
0.0
 40
42.5
100
AcDbArc
 50
199.749893
 51
340.250092
  0
LINE
  5
92E
330
2
100
AcDbEntity
  8
0
100
AcDbLine
 10
217.1359517264
 20
156.0003994777
 30
0.0
 11
281.1359517264
 21
156.0003994777
 31
0.0
  0
LINE
  5
939
330
2
100
AcDbEntity
  8
CENTER
100
AcDbLine
 10
70.6359567264
 20
95.7004004777
 30
0.0
 11
224.4359547264
 21
95.7004004777
 31
0.0
  0
LINE
  5
999
330
2
100
AcDbEntity
  8
0
100
AcDbLine
 10
204.6359587264
 20
57.7004004777
 30
0.0
 11
134.1359547264
 21
57.7004004777
 31
0.0
  0
LINE
  5
99A
330
2
100
AcDbEntity
  8
0
100
AcDbLine
 10
134.1359547264
 20
65.4514404777
 30
0.0
 11
206.1359517264
 21
65.4514404777
 31
0.0
  0
LINE
  5
99B
330
2
100
AcDbEntity
  8
0
100
AcDbLine
 10
134.1359547264
 20
125.9493664777
 30
0.0
 11
205.8859587264
 21
125.9493664777
 31
0.0
  0
LINE
  5
99C
330
2
100
AcDbEntity
  8
0
100
AcDbLine
 10
134.1359547264
 20
133.7003964777
 30
0.0
 11
207.0559497264
 21
133.7003964777
 31
0.0
  0
LINE
  5
99E
330
2
100
AcDbEntity
  8
0
100
AcDbLine
 10
134.1359547264
 20
57.7004204777
 30
0.0
 11
134.1359547264
 21
133.7003964777
 31
0.0
  0
LINE
  5
9B8
330
2
100
AcDbEntity
  8
CENTER
100
AcDbLine
 10
249.1359517264
 20
163.0003994777
 30
0.0
 11
249.1359517264
 21
47.0004004777
 31
0.0
  0
LINE
  5
9B9
330
2
100
AcDbEntity
  8
0
100
AcDbLine
 10
206.6359517264
 20
130.7003964777
 30
0.0
 11
206.6359517264
 21
79.3004014777
 31
0.0
  0
LINE
  5
9BA
330
2
100
AcDbEntity
  8
0
100
AcDbLine
 10
209.1359517264
 20
119.3616674777
 30
0.0
 11
209.1359517264
 21
90.6388624777
 31
0.0
  0
LINE
  5
9BC
330
2
100
AcDbEntity
  8
0
100
AcDbLine
 10
209.2132217264
 20
60.8912004777
 30
0.0
 11
206.6359517264
 21
79.3004014777
 31
0.0
  0
LINE
  5
9BD
330
2
100
AcDbEntity
  8
0
100
AcDbLine
 10
206.6359517264
 20
59.7004004777
 30
0.0
 11
206.6359517264
 21
65.7004104777
 31
0.0
  0
CIRCLE
  5
9BE
330
2
100
AcDbEntity
  8
0
100
AcDbCircle
 10
217.1359517264
 20
62.0004004777
 30
0.0
 40
3.25
  0
LINE
  5
9BF
330
2
100
AcDbEntity
  8
CENTER
100
AcDbLine
 10
217.1359517264
 20
56.1567114777
 30
0.0
 11
217.1359517264
 21
67.8440894777
 31
0.0
  0
ARC
  5
9C0
330
2
100
AcDbEntity
  8
0
100
AcDbCircle
 10
217.1359517264
 20
62.0004004777
 30
0.0
 40
8.0
100
AcDbArc
 50
0.0
 51
97.969818
  0
ARC
  5
9C1
330
2
100
AcDbEntity
  8
0
100
AcDbCircle
 10
217.1359517264
 20
62.0004004777
 30
0.0
 40
8.0
100
AcDbArc
 50
187.969604
 51
270.0
  0
LINE
  5
9C2
330
2
100
AcDbEntity
  8
CENTER
100
AcDbLine
 10
211.2922627264
 20
62.0004004777
 30
0.0
 11
222.9796407264
 21
62.0004004777
 31
0.0
  0
ARC
  5
9C3
330
2
100
AcDbEntity
  8
0
100
AcDbCircle
 10
204.6359587264
 20
59.7004004777
 30
0.0
 40
2.0
100
AcDbArc
 50
270.0
 51
0.0
  0
ARC
  5
9C4
330
2
100
AcDbEntity
  8
0
100
AcDbCircle
 10
229.1359517264
 20
62.0004004777
 30
0.0
 40
4.0
100
AcDbArc
 50
180.0
 51
270.0
  0
ARC
  5
9C5
330
2
100
AcDbEntity
  8
0
100
AcDbCircle
 10
215.4721637264
 20
73.8844994777
 30
0.0
 40
4.0
100
AcDbArc
 50
187.969696
 51
277.969757
  0
LINE
  5
9C6
330
2
100
AcDbEntity
  8
0
100
AcDbLine
 10
209.1864887264
 20
89.9324794777
 30
0.0
 11
211.5108287264
 21
73.3299094777
 31
0.0
  0
ARC
  5
9C7
330
2
100
AcDbEntity
  8
0
100
AcDbCircle
 10
211.6359817264
 20
65.7004194777
 30
0.0
 40
5.0
100
AcDbArc
 50
135.792801
 51
180.0
  0
LINE
  5
A08
330
2
100
AcDbEntity
  8
0
100
AcDbLine
 10
209.2132217264
 20
149.1095534777
 30
0.0
 11
206.6359517264
 21
130.7003964777
 31
0.0
  0
CIRCLE
  5
A09
330
2
100
AcDbEntity
  8
0
100
AcDbCircle
 10
217.1359517264
 20
148.0003994777
 30
0.0
 40
3.25
  0
LINE
  5
A0A
330
2
100
AcDbEntity
  8
CENTER
100
AcDbLine
 10
217.1359517264
 20
142.1567104777
 30
0.0
 11
217.1359517264
 21
153.8440884777
 31
0.0
  0
ARC
  5
A0B
330
2
100
AcDbEntity
  8
0
100
AcDbCircle
 10
217.1359517264
 20
148.0003994777
 30
0.0
 40
8.0
100
AcDbArc
 50
262.030403
 51
0.0
  0
ARC
  5
A0C
330
2
100
AcDbEntity
  8
0
100
AcDbCircle
 10
215.4721637264
 20
136.1162984777
 30
0.0
 40
4.0
100
AcDbArc
 50
82.030243
 51
172.030304
  0
LINE
  5
A0D
330
2
100
AcDbEntity
  8
0
100
AcDbLine
 10
211.5108287264
 20
136.6708944777
 30
0.0
 11
209.0526227264
 21
119.1120794777
 31
0.0
  0
ARC
  5
A0E
330
2
100
AcDbEntity
  8
0
100
AcDbCircle
 10
217.1359517264
 20
148.0003994777
 30
0.0
 40
8.0
100
AcDbArc
 50
90.0
 51
172.030502
  0
LINE
  5
A0F
330
2
100
AcDbEntity
  8
CENTER
100
AcDbLine
 10
211.2922627264
 20
148.0003994777
 30
0.0
 11
222.9796407264
 21
148.0003994777
 31
0.0
  0
ARC
  5
A10
330
2
100
AcDbEntity
  8
0
100
AcDbCircle
 10
229.1359517264
 20
148.0003994777
 30
0.0
 40
4.0
100
AcDbArc
 50
90.0
 51
180.0
  0
ARC
  5
A11
330
2
100
AcDbEntity
  8
HIDS
100
AcDbCircle
 10
249.1359517264
 20
118.0003994777
 30
0.0
 40
7.5
100
AcDbArc
 50
19.471201
 51
340.528809
  0
LINE
  5
A12
330
2
100
AcDbEntity
  8
HIDS
100
AcDbLine
 10
258.6359517264
 20
120.5003994777
 30
0.0
 11
258.6359517264
 21
115.5003994777
 31
0.0
  0
LINE
  5
A13
330
2
100
AcDbEntity
  8
HIDS
100
AcDbLine
 10
253.6359517264
 20
115.5003994777
 30
0.0
 11
253.6359517264
 21
120.5003994777
 31
0.0
  0
LINE
  5
A14
330
2
100
AcDbEntity
  8
HIDS
100
AcDbLine
 10
253.6359517264
 20
115.5003994777
 30
0.0
 11
258.6359517264
 21
115.5003994777
 31
0.0
  0
LINE
  5
A15
330
2
100
AcDbEntity
  8
HIDS
100
AcDbLine
 10
253.6359517264
 20
120.5003994777
 30
0.0
 11
258.6359517264
 21
120.5003994777
 31
0.0
  0
LINE
  5
A6A
330
2
100
AcDbEntity
  8
0
100
AcDbLine
 10
204.5043447264
 20
318.7367410866
 30
0.0
 11
134.1359517264
 21
318.7367410866
 31
0.0
  0
LINE
  5
A6B
330
2
100
AcDbEntity
  8
0
100
AcDbLine
 10
134.1359517264
 20
303.7367410866
 30
0.0
 11
210.0556297264
 21
303.7367410866
 31
0.0
  0
LINE
  5
A6C
330
2
100
AcDbEntity
  8
0
100
AcDbLine
 10
205.1223567264
 20
242.7367260866
 30
0.0
 11
134.1359517264
 21
242.7367260866
 31
0.0
  0
LINE
  5
A6D
330
2
100
AcDbEntity
  8
0
100
AcDbLine
 10
134.1359517264
 20
257.7367410866
 30
0.0
 11
206.1907917264
 21
257.7367410866
 31
0.0
  0
LINE
  5
A6F
330
2
100
AcDbEntity
  8
0
100
AcDbLine
 10
134.1359517264
 20
242.7367260866
 30
0.0
 11
134.1359517264
 21
318.7367410866
 31
0.0
  0
LINE
  5
A97
330
2
100
AcDbEntity
  8
CENTER
100
AcDbLine
 10
249.1359517264
 20
351.7367410866
 30
0.0
 11
249.1359517264
 21
233.7367260866
 31
0.0
  0
LINE
  5
A98
330
2
100
AcDbEntity
  8
0
100
AcDbLine
 10
264.1359517264
 20
250.7367410866
 30
0.0
 11
264.1359517264
 21
309.7716380866
 31
0.0
  0
LINE
  5
A99
330
2
100
AcDbEntity
  8
0
100
AcDbLine
 10
234.1359517264
 20
250.7367410866
 30
0.0
 11
234.1359517264
 21
309.7716380866
 31
0.0
  0
LINE
  5
A9A
330
2
100
AcDbEntity
  8
0
100
AcDbLine
 10
210.9105647264
 20
250.9179850866
 30
0.0
 11
210.9105647264
 21
301.7370160866
 31
0.0
  0
LINE
  5
A9B
330
2
100
AcDbEntity
  8
0
100
AcDbLine
 10
205.5885277264
 20
280.7367410866
 30
0.0
 11
206.6359517264
 21
240.7367260866
 31
0.0
  0
LINE
  5
A9C
330
2
100
AcDbEntity
  8
0
100
AcDbLine
 10
209.2132527264
 20
240.7367260866
 30
0.0
 11
209.2132527264
 21
248.4264230866
 31
0.0
  0
ARC
  5
A9D
330
2
100
AcDbEntity
  8
0
100
AcDbCircle
 10
205.1223567264
 20
241.2367260866
 30
0.0
 40
1.5
100
AcDbArc
 50
1.5
 51
90.0
  0
ARC
  5
A9E
330
2
100
AcDbEntity
  8
0
100
AcDbCircle
 10
207.4268147264
 20
248.7367260866
 30
0.0
 40
1.0
100
AcDbArc
 50
90.0
 51
181.499999
  0
LINE
  5
A9F
330
2
100
AcDbEntity
  8
HIDS
  6
sekkei_H
100
AcDbLine
 10
220.3859517264
 20
249.7367410866
 30
0.0
 11
220.3859517264
 21
240.7367260866
 31
0.0
  0
LINE
  5
AA0
330
2
100
AcDbEntity
  8
CENTER
100
AcDbLine
 10
217.1359517264
 20
237.2367260866
 30
0.0
 11
217.1359517264
 21
253.2367410866
 31
0.0
  0
LINE
  5
AA1
330
2
100
AcDbEntity
  8
HIDS
  6
sekkei_H
100
AcDbLine
 10
213.8859517264
 20
249.7367410866
 30
0.0
 11
213.8859517264
 21
240.7367260866
 31
0.0
  0
LINE
  5
AA2
330
2
100
AcDbEntity
  8
0
100
AcDbLine
 10
234.1359517264
 20
251.0567330866
 30
0.0
 11
264.1359517264
 21
251.0567330866
 31
0.0
  0
ARC
  5
AA3
330
2
100
AcDbEntity
  8
0
100
AcDbCircle
 10
233.1359517264
 20
250.7367410866
 30
0.0
 40
1.0
100
AcDbArc
 50
270.0
 51
0.0
  0
ARC
  5
AA4
330
2
100
AcDbEntity
  8
0
100
AcDbCircle
 10
230.1359517264
 20
314.7367410866
 30
0.0
 40
1.0
100
AcDbArc
 50
90.0
 51
180.0
  0
ARC
  5
AA5
330
2
100
AcDbEntity
  8
0
100
AcDbCircle
 10
204.5043447264
 20
316.7367410866
 30
0.0
 40
2.0
100
AcDbArc
 50
1.5
 51
90.0
  0
ARC
  5
AA6
330
2
100
AcDbEntity
  8
0
100
AcDbCircle
 10
208.5842707264
 20
309.7367410866
 30
0.0
 40
2.0
100
AcDbArc
 50
90.0
 51
178.5
  0
LINE
  5
AA7
330
2
100
AcDbEntity
  8
0
100
AcDbLine
 10
206.4265397264
 20
303.7394720866
 30
0.0
 11
206.5849567264
 21
309.7890940866
 31
0.0
  0
ARC
  5
AA8
330
2
100
AcDbEntity
  8
0
100
AcDbCircle
 10
208.5842707264
 20
313.7367410866
 30
0.0
 40
2.0
100
AcDbArc
 50
181.5
 51
270.0
  0
LINE
  5
AA9
330
2
100
AcDbEntity
  8
0
100
AcDbLine
 10
206.5036577264
 20
316.7890940866
 30
0.0
 11
206.5849567264
 21
313.6843880866
 31
0.0
  0
LINE
  5
AAA
330
2
100
AcDbEntity
  8
0
100
AcDbLine
 10
229.1359517264
 20
314.7367410866
 30
0.0
 11
229.1359517264
 21
313.7367410866
 31
0.0
  0
LINE
  5
AAB
330
2
100
AcDbEntity
  8
0
100
AcDbLine
 10
241.6359517264
 20
344.7367410866
 30
0.0
 11
241.6359517264
 21
317.7367410866
 31
0.0
  0
LINE
  5
AAC
330
2
100
AcDbEntity
  8
0
100
AcDbLine
 10
256.6359517264
 20
323.2367410866
 30
0.0
 11
256.6359517264
 21
317.7367410866
 31
0.0
  0
LINE
  5
AAD
330
2
100
AcDbEntity
  8
0
100
AcDbLine
 10
240.6359517264
 20
317.7367410866
 30
0.0
 11
257.6359517264
 21
317.7367410866
 31
0.0
  0
LINE
  5
AAE
330
2
100
AcDbEntity
  8
0
100
AcDbLine
 10
240.6359517264
 20
317.7367410866
 30
0.0
 11
240.6359517264
 21
315.7367410866
 31
0.0
  0
LINE
  5
AAF
330
2
100
AcDbEntity
  8
0
100
AcDbLine
 10
257.6359517264
 20
317.7367410866
 30
0.0
 11
257.6359517264
 21
315.7367410866
 31
0.0
  0
LINE
  5
AB0
330
2
100
AcDbEntity
  8
0
100
AcDbLine
 10
241.6359517264
 20
344.7367410866
 30
0.0
 11
258.6359517264
 21
344.7367410866
 31
0.0
  0
LINE
  5
AB1
330
2
100
AcDbEntity
  8
0
100
AcDbLine
 10
258.6359517264
 20
323.2367410866
 30
0.0
 11
258.6359517264
 21
344.7367410866
 31
0.0
  0
LINE
  5
AB2
330
2
100
AcDbEntity
  8
0
100
AcDbLine
 10
256.2069507264
 20
323.2367410866
 30
0.0
 11
256.2069507264
 21
344.7367410866
 31
0.0
  0
LINE
  5
AB3
330
2
100
AcDbEntity
  8
0
100
AcDbLine
 10
256.2069507264
 20
323.2367410866
 30
0.0
 11
258.6359517264
 21
323.2367410866
 31
0.0
  0
LINE
  5
AB4
330
2
100
AcDbEntity
  8
0
100
AcDbLine
 10
524.5848038011
 20
150.0003994777
 30
0.0
 11
551.4258078011
 21
150.0003994777
 31
0.0
  0
LINE
  5
ABB
330
2
100
AcDbEntity
  8
0
100
AcDbLine
 10
551.4258078011
 20
60.0003994777
 30
0.0
 11
524.5848038011
 21
60.0003994777
 31
0.0
  0
LINE
  5
ABC
330
2
100
AcDbEntity
  8
CENTER
100
AcDbLine
 10
565.0053058011
 20
118.0003994777
 30
0.0
 11
511.0053058011
 21
118.0003994777
 31
0.0
  0
LINE
  5
ABD
330
2
100
AcDbEntity
  8
0
100
AcDbLine
 10
570.0053058011
 20
156.0003994777
 30
0.0
 11
506.0053058011
 21
156.0003994777
 31
0.0
  0
LINE
  5
ABE
330
2
100
AcDbEntity
  8
0
100
AcDbLine
 10
570.0053058011
 20
54.0003994777
 30
0.0
 11
506.0053058011
 21
54.0003994777
 31
0.0
  0
CIRCLE
  5
ABF
330
2
100
AcDbEntity
  8
0
100
AcDbCircle
 10
538.0053058011
 20
118.0003994777
 30
0.0
 40
20.0
  0
LINE
  5
AC1
330
2
100
AcDbEntity
  8
HIDS
100
AcDbLine
 10
412.6281194095
 20
133.3332394777
 30
0.0
 11
391.5932224095
 21
133.7003894777
 31
0.0
  0
ARC
  5
AC2
330
2
100
AcDbEntity
  8
0
100
AcDbCircle
 10
391.5932224095
 20
-95.2995805223
 30
0.0
 40
250.0
100
AcDbArc
 50
84.826019
 51
95.173981
  0
LINE
  5
AC3
330
2
100
AcDbEntity
  8
0
100
AcDbLine
 10
364.0942214095
 20
130.7003964777
 30
0.0
 11
420.6245184095
 21
130.7003964777
 31
0.0
  0
LINE
  5
AC4
330
2
100
AcDbEntity
  8
0
100
AcDbLine
 10
420.6281194095
 20
150.0347014777
 30
0.0
 11
362.5583214095
 21
151.0480764777
 31
0.0
  0
LINE
  5
AC6
330
2
100
AcDbEntity
  8
0
100
AcDbLine
 10
370.5932224095
 20
57.7004004777
 30
0.0
 11
412.5932224095
 21
57.7004004777
 31
0.0
  0
LINE
  5
AC7
330
2
100
AcDbEntity
  8
0
100
AcDbLine
 10
363.5932224095
 20
79.3003994777
 30
0.0
 11
421.1557224095
 21
79.3003994777
 31
0.0
  0
LINE
  5
AC8
330
2
100
AcDbEntity
  8
0
100
AcDbLine
 10
420.6281194095
 20
59.9486304777
 30
0.0
 11
362.5583214095
 21
58.9348104777
 31
0.0
  0
LINE
  5
AC9
330
2
100
AcDbEntity
  8
CENTER
100
AcDbLine
 10
344.5932214095
 20
95.7004004777
 30
0.0
 11
436.5932224095
 21
95.7004004777
 31
0.0
  0
LINE
  5
ACA
330
2
100
AcDbEntity
  8
CENTER
100
AcDbLine
 10
344.5932214095
 20
118.0003994777
 30
0.0
 11
462.5932224095
 21
118.0003994777
 31
0.0
  0
LINE
  5
ACC
330
2
100
AcDbEntity
  8
0
100
AcDbLine
 10
291.6359517264
 20
130.7003964777
 30
0.0
 11
291.6359517264
 21
79.3004104777
 31
0.0
  0
LINE
  5
ACD
330
2
100
AcDbEntity
  8
0
100
AcDbLine
 10
289.1359517264
 20
119.3617964777
 30
0.0
 11
289.1359517264
 21
90.6392624777
 31
0.0
  0
CIRCLE
  5
AD1
330
2
100
AcDbEntity
  8
0
100
AcDbCircle
 10
281.1359517264
 20
62.0004004777
 30
0.0
 40
3.25
  0
LINE
  5
AD2
330
2
100
AcDbEntity
  8
CENTER
100
AcDbLine
 10
281.1359517264
 20
56.1567114777
 30
0.0
 11
281.1359517264
 21
67.8440894777
 31
0.0
  0
LINE
  5
AD3
330
2
100
AcDbEntity
  8
0
100
AcDbLine
 10
289.0586497264
 20
60.8912804777
 30
0.0
 11
291.6359517264
 21
79.3004104777
 31
0.0
  0
ARC
  5
AD4
330
2
100
AcDbEntity
  8
0
100
AcDbCircle
 10
281.1359517264
 20
62.0004004777
 30
0.0
 40
8.0
100
AcDbArc
 50
82.03035
 51
180.0
  0
LINE
  5
AD5
330
2
100
AcDbEntity
  8
CENTER
100
AcDbLine
 10
275.2922627264
 20
62.0004004777
 30
0.0
 11
286.9796407264
 21
62.0004004777
 31
0.0
  0
ARC
  5
AD6
330
2
100
AcDbEntity
  8
0
100
AcDbCircle
 10
281.1359517264
 20
62.0004004777
 30
0.0
 40
8.0
100
AcDbArc
 50
270.0
 51
352.030304
  0
ARC
  5
AD7
330
2
100
AcDbEntity
  8
0
100
AcDbCircle
 10
269.1359517264
 20
62.0004004777
 30
0.0
 40
4.0
100
AcDbArc
 50
270.0
 51
0.0
  0
ARC
  5
AD8
330
2
100
AcDbEntity
  8
0
100
AcDbCircle
 10
282.7997547264
 20
73.8844994777
 30
0.0
 40
4.0
100
AcDbArc
 50
262.030243
 51
352.030299
  0
LINE
  5
AD9
330
2
100
AcDbEntity
  8
0
100
AcDbLine
 10
289.1383617264
 20
90.3101344777
 30
0.0
 11
286.7610577264
 21
73.3299004777
 31
0.0
  0
CIRCLE
  5
ADC
330
2
100
AcDbEntity
  8
0
100
AcDbCircle
 10
281.1359517264
 20
148.0003994777
 30
0.0
 40
3.25
  0
LINE
  5
ADD
330
2
100
AcDbEntity
  8
CENTER
100
AcDbLine
 10
281.1359517264
 20
142.1567104777
 30
0.0
 11
281.1359517264
 21
153.8440884777
 31
0.0
  0
LINE
  5
ADE
330
2
100
AcDbEntity
  8
0
100
AcDbLine
 10
289.0586497264
 20
149.1095614777
 30
0.0
 11
291.6359517264
 21
130.7003964777
 31
0.0
  0
ARC
  5
ADF
330
2
100
AcDbEntity
  8
0
100
AcDbCircle
 10
281.1359517264
 20
148.0003994777
 30
0.0
 40
8.0
100
AcDbArc
 50
180.0
 51
277.969513
  0
ARC
  5
AE0
330
2
100
AcDbEntity
  8
0
100
AcDbCircle
 10
282.7997547264
 20
136.1162984777
 30
0.0
 40
4.0
100
AcDbArc
 50
7.969701
 51
97.969757
  0
LINE
  5
AE1
330
2
100
AcDbEntity
  8
0
100
AcDbLine
 10
286.7610577264
 20
136.6709014777
 30
0.0
 11
289.1602587264
 21
119.5338324777
 31
0.0
  0
LINE
  5
AE2
330
2
100
AcDbEntity
  8
CENTER
100
AcDbLine
 10
275.2922627264
 20
148.0003994777
 30
0.0
 11
286.9796407264
 21
148.0003994777
 31
0.0
  0
ARC
  5
AE3
330
2
100
AcDbEntity
  8
0
100
AcDbCircle
 10
281.1359517264
 20
148.0003994777
 30
0.0
 40
8.0
100
AcDbArc
 50
7.969647
 51
90.0
  0
ARC
  5
AE4
330
2
100
AcDbEntity
  8
0
100
AcDbCircle
 10
269.1359517264
 20
148.0003994777
 30
0.0
 40
4.0
100
AcDbArc
 50
0.0
 51
90.0
  0
LINE
  5
AE5
330
2
100
AcDbEntity
  8
CENTER
100
AcDbLine
 10
391.5932224095
 20
50.7004004777
 30
0.0
 11
391.5932224095
 21
161.7004194777
 31
0.0
  0
LINE
  5
AE6
330
2
100
AcDbEntity
  8
0
100
AcDbLine
 10
360.5932224095
 20
155.4622754777
 30
0.0
 11
360.5932224095
 21
76.3004204777
 31
0.0
  0
LINE
  5
AE7
330
2
100
AcDbEntity
  8
0
100
AcDbLine
 10
351.5932214095
 20
54.0004004777
 30
0.0
 11
351.5932214095
 21
156.0003994777
 31
0.0
  0
ARC
  5
AE8
330
2
100
AcDbEntity
  8
HIDS
100
AcDbCircle
 10
391.5932224095
 20
95.7004004777
 30
0.0
 40
38.0
100
AcDbArc
 50
129.356705
 51
230.643295
  0
LINE
  5
AE9
330
2
100
AcDbEntity
  8
0
100
AcDbLine
 10
360.5932224095
 20
76.3004204777
 30
0.0
 11
360.5932224095
 21
55.5004004777
 31
0.0
  0
LINE
  5
AEA
330
2
100
AcDbEntity
  8
HIDS
100
AcDbLine
 10
368.5932204095
 20
59.7004004777
 30
0.0
 11
368.5932204095
 21
63.9986664777
 31
0.0
  0
LINE
  5
AEB
330
2
100
AcDbEntity
  8
0
100
AcDbLine
 10
359.0585214095
 20
54.0004004777
 30
0.0
 11
351.5932214095
 21
54.0004004777
 31
0.0
  0
LINE
  5
AED
330
2
100
AcDbEntity
  8
HIDS
  6
sekkei_H
100
AcDbLine
 10
351.5932214095
 20
58.7504004777
 30
0.0
 11
360.5932224095
 21
58.7504004777
 31
0.0
  0
LINE
  5
AEE
330
2
100
AcDbEntity
  8
CENTER
100
AcDbLine
 10
348.0932214095
 20
62.0003994777
 30
0.0
 11
364.0932224095
 21
62.0003994777
 31
0.0
  0
ARC
  5
AEF
330
2
100
AcDbEntity
  8
0
100
AcDbCircle
 10
370.5932224095
 20
59.7004004777
 30
0.0
 40
2.0
100
AcDbArc
 50
199.21669
 51
270.0
  0
ARC
  5
AF0
330
2
100
AcDbEntity
  8
0
100
AcDbCircle
 10
364.2250214095
 20
55.9634704777
 30
0.0
 40
3.0
100
AcDbArc
 50
91.000488
 51
165.000397
  0
ARC
  5
AF1
330
2
100
AcDbEntity
  8
0
100
AcDbCircle
 10
362.5932224095
 20
56.9351304777
 30
0.0
 40
2.0
100
AcDbArc
 50
91.000641
 51
180.0
  0
LINE
  5
AF2
330
2
100
AcDbEntity
  8
0
100
AcDbLine
 10
360.9904214095
 20
55.4827604777
 30
0.0
 11
361.3272214095
 21
56.7398904777
 31
0.0
  0
ARC
  5
AF3
330
2
100
AcDbEntity
  8
HIDS
100
AcDbCircle
 10
370.5932224095
 20
59.7004004777
 30
0.0
 40
2.0
100
AcDbArc
 50
180.0
 51
199.21669
  0
ARC
  5
AF4
330
2
100
AcDbEntity
  8
0
100
AcDbCircle
 10
359.0585214095
 20
56.0004004777
 30
0.0
 40
2.0
100
AcDbArc
 50
270.0
 51
345.000092
  0
ARC
  5
AF5
330
2
100
AcDbEntity
  8
0
100
AcDbCircle
 10
359.0932224095
 20
55.5004004777
 30
0.0
 40
1.5
100
AcDbArc
 50
270.0
 51
0.0
  0
LINE
  5
AF6
330
2
100
AcDbEntity
  8
HIDS
  6
sekkei_H
100
AcDbLine
 10
351.5932214095
 20
65.2503994777
 30
0.0
 11
360.5932224095
 21
65.2503994777
 31
0.0
  0
ARC
  5
AF7
330
2
100
AcDbEntity
  8
0
100
AcDbCircle
 10
363.5932224095
 20
76.3004204777
 30
0.0
 40
3.0
100
AcDbArc
 50
90.0
 51
180.0
  0
ARC
  5
AF8
330
2
100
AcDbEntity
  8
HIDS
100
AcDbCircle
 10
365.5932204095
 20
63.9986664777
 30
0.0
 40
3.0
100
AcDbArc
 50
0.0
 51
50.643299
  0
LINE
  5
AF9
330
2
100
AcDbEntity
  8
0
100
AcDbLine
 10
368.8432204095
 20
151.2003964777
 30
0.0
 11
374.5932224095
 21
151.2003964777
 31
0.0
  0
LINE
  5
AFA
330
2
100
AcDbEntity
  8
0
100
AcDbLine
 10
368.8432204095
 20
151.9004014777
 30
0.0
 11
374.3432224095
 21
151.9004014777
 31
0.0
  0
ARC
  5
AFB
330
2
100
AcDbEntity
  8
0
100
AcDbCircle
 10
371.5932224095
 20
146.9004014777
 30
0.0
 40
7.0
100
AcDbArc
 50
73.043503
 51
106.958023
  0
LINE
  5
AFC
330
2
100
AcDbEntity
  8
HIDS
100
AcDbLine
 10
370.5583214095
 20
133.3332394777
 30
0.0
 11
391.5932224095
 21
133.7003894777
 31
0.0
  0
LINE
  5
AFF
330
2
100
AcDbEntity
  8
HIDS
  6
sekkei_H
100
AcDbLine
 10
351.5932214095
 20
144.7503994777
 30
0.0
 11
360.5932224095
 21
144.7503994777
 31
0.0
  0
ARC
  5
B00
330
2
100
AcDbEntity
  8
HIDS
100
AcDbCircle
 10
370.5932224095
 20
131.3335294777
 30
0.0
 40
2.0
100
AcDbArc
 50
90.999863
 51
180.0
  0
LINE
  5
B01
330
2
100
AcDbEntity
  8
HIDS
100
AcDbLine
 10
368.5932204095
 20
131.3335294777
 30
0.0
 11
368.5932204095
 21
127.4021334777
 31
0.0
  0
ARC
  5
B02
330
2
100
AcDbEntity
  8
HIDS
100
AcDbCircle
 10
365.5932204095
 20
127.4021334777
 30
0.0
 40
3.0
100
AcDbArc
 50
309.356701
 51
0.0
  0
LINE
  5
B03
330
2
100
AcDbEntity
  8
HIDS
100
AcDbLine
 10
368.5932204095
 20
150.7003964777
 30
0.0
 11
368.5932204095
 21
131.3335294777
 31
0.0
  0
LINE
  5
B07
330
2
100
AcDbEntity
  8
0
100
AcDbLine
 10
351.5932214095
 20
156.0003994777
 30
0.0
 11
359.4422214095
 21
156.0003994777
 31
0.0
  0
LINE
  5
B08
330
2
100
AcDbEntity
  8
HIDS
  6
sekkei_H
100
AcDbLine
 10
351.5932214095
 20
151.2503994777
 30
0.0
 11
360.5932224095
 21
151.2503994777
 31
0.0
  0
LINE
  5
B09
330
2
100
AcDbEntity
  8
CENTER
100
AcDbLine
 10
348.0932214095
 20
148.0003994777
 30
0.0
 11
364.0932224095
 21
148.0003994777
 31
0.0
  0
ARC
  5
B0A
330
2
100
AcDbEntity
  8
0
100
AcDbCircle
 10
364.2263204095
 20
154.0194354777
 30
0.0
 40
3.0
100
AcDbArc
 50
194.932602
 51
269.00061
  0
ARC
  5
B0B
330
2
100
AcDbEntity
  8
0
100
AcDbCircle
 10
362.5932224095
 20
153.0477784777
 30
0.0
 40
2.0
100
AcDbArc
 50
180.0
 51
269.00061
  0
LINE
  5
B0C
330
2
100
AcDbEntity
  8
0
100
AcDbLine
 10
360.8911214095
 20
154.8886214777
 30
0.0
 11
361.3309214095
 21
153.2472564777
 31
0.0
  0
ARC
  5
B0D
330
2
100
AcDbEntity
  8
0
100
AcDbCircle
 10
369.0932204095
 20
150.7003964777
 30
0.0
 40
0.5
100
AcDbArc
 50
90.0
 51
180.0
  0
ARC
  5
B0E
330
2
100
AcDbEntity
  8
0
100
AcDbCircle
 10
369.0932204095
 20
153.1838184777
 30
0.0
 40
0.5
100
AcDbArc
 50
95.173981
 51
180.0
  0
ARC
  5
B0F
330
2
100
AcDbEntity
  8
0
100
AcDbCircle
 10
369.8432224095
 20
152.6395984777
 30
0.0
 40
1.0
100
AcDbArc
 50
106.958153
 51
180.0
  0
LINE
  5
B10
330
2
100
AcDbEntity
  8
0
100
AcDbLine
 10
368.8432204095
 20
151.2003964777
 30
0.0
 11
368.8432204095
 21
152.6395984777
 31
0.0
  0
LINE
  5
B11
330
2
100
AcDbEntity
  8
0
100
AcDbLine
 10
368.5932204095
 20
150.7003964777
 30
0.0
 11
368.5932204095
 21
153.1838184777
 31
0.0
  0
ARC
  5
B12
330
2
100
AcDbEntity
  8
0
100
AcDbCircle
 10
359.4422214095
 20
154.5003994777
 30
0.0
 40
1.5
100
AcDbArc
 50
15.00007
 51
90.0
  0
ARC
  5
B13
330
2
100
AcDbEntity
  8
0
100
AcDbCircle
 10
391.5932224095
 20
146.7003964777
 30
0.0
 40
6.0
100
AcDbArc
 50
38.797073
 51
139.203384
  0
ARC
  5
B14
330
2
100
AcDbEntity
  8
0
100
AcDbCircle
 10
373.3432224095
 20
152.6395984777
 30
0.0
 40
1.0
100
AcDbArc
 50
0.0
 51
73.043098
  0
ARC
  5
B15
330
2
100
AcDbEntity
  8
0
100
AcDbCircle
 10
374.5932224095
 20
151.7003964777
 30
0.0
 40
0.5
100
AcDbArc
 50
270.0
 51
0.0
  0
ARC
  5
B16
330
2
100
AcDbEntity
  8
0
100
AcDbCircle
 10
375.5932224095
 20
153.6868624777
 30
0.0
 40
0.5
100
AcDbArc
 50
93.676804
 51
180.0
  0
LINE
  5
B17
330
2
100
AcDbEntity
  8
0
100
AcDbLine
 10
375.0932224095
 20
153.6868624777
 30
0.0
 11
375.0932224095
 21
151.7003964777
 31
0.0
  0
LINE
  5
B18
330
2
100
AcDbEntity
  8
0
100
AcDbLine
 10
374.3432224095
 20
151.2001984777
 30
0.0
 11
374.3432224095
 21
152.6395984777
 31
0.0
  0
LINE
  5
B19
330
2
100
AcDbEntity
  8
0
100
AcDbLine
 10
426.5932224095
 20
99.0003994777
 30
0.0
 11
426.5932224095
 21
137.0003994777
 31
0.0
  0
LINE
  5
B1A
330
2
100
AcDbEntity
  8
0
100
AcDbLine
 10
422.5932224095
 20
61.9483314777
 30
0.0
 11
422.5932224095
 21
148.0349994777
 31
0.0
  0
ARC
  5
B1B
330
2
100
AcDbEntity
  8
0
100
AcDbCircle
 10
391.5932224095
 20
95.7004004777
 30
0.0
 40
38.0
100
AcDbArc
 50
324.665501
 51
21.294262
  0
LINE
  5
B1C
330
2
100
AcDbEntity
  8
HIDS
100
AcDbLine
 10
414.5932224095
 20
59.8432694777
 30
0.0
 11
414.5932224095
 21
63.9986664777
 31
0.0
  0
ARC
  5
B1D
330
2
100
AcDbEntity
  8
0
100
AcDbCircle
 10
420.5932224095
 20
61.9483194777
 30
0.0
 40
2.0
100
AcDbArc
 50
271.000366
 51
0.0
  0
ARC
  5
B1E
330
2
100
AcDbEntity
  8
0
100
AcDbCircle
 10
412.5932224095
 20
59.7004004777
 30
0.0
 40
2.0
100
AcDbArc
 50
270.0
 51
0.0
  0
LINE
  5
B1F
330
2
100
AcDbEntity
  8
0
100
AcDbLine
 10
414.5932224095
 20
59.7004004777
 30
0.0
 11
414.5932224095
 21
59.8432694777
 31
0.0
  0
ARC
  5
B20
330
2
100
AcDbEntity
  8
0
100
AcDbCircle
 10
424.5932224095
 20
96.0004114777
 30
0.0
 40
2.0
100
AcDbArc
 50
90.0
 51
180.0
  0
ARC
  5
B21
330
2
100
AcDbEntity
  8
HIDS
100
AcDbCircle
 10
391.5932224095
 20
95.7004004777
 30
0.0
 40
38.0
100
AcDbArc
 50
309.356701
 51
324.665501
  0
ARC
  5
B22
330
2
100
AcDbEntity
  8
HIDS
100
AcDbCircle
 10
417.5932224095
 20
63.9986664777
 30
0.0
 40
3.0
100
AcDbArc
 50
129.356705
 51
180.0
  0
ARC
  5
B23
330
2
100
AcDbEntity
  8
0
100
AcDbCircle
 10
425.5932224095
 20
99.0003964777
 30
0.0
 40
1.0
100
AcDbArc
 50
270.0
 51
0.0
  0
LINE
  5
B24
330
2
100
AcDbEntity
  8
0
100
AcDbLine
 10
425.5932224095
 20
98.0003994777
 30
0.0
 11
424.5932224095
 21
98.0003994777
 31
0.0
  0
LINE
  5
B27
330
2
100
AcDbEntity
  8
0
100
AcDbLine
 10
434.0932224095
 20
120.5003994777
 30
0.0
 11
455.5932224095
 21
120.5003994777
 31
0.0
  0
LINE
  5
B28
330
2
100
AcDbEntity
  8
0
100
AcDbLine
 10
434.0932224095
 20
115.5003994777
 30
0.0
 11
455.5932224095
 21
115.5003994777
 31
0.0
  0
LINE
  5
B29
330
2
100
AcDbEntity
  8
0
100
AcDbLine
 10
428.5932224095
 20
110.5003994777
 30
0.0
 11
455.5932224095
 21
110.5003994777
 31
0.0
  0
LINE
  5
B2A
330
2
100
AcDbEntity
  8
0
100
AcDbLine
 10
428.5932224095
 20
125.5003994777
 30
0.0
 11
455.5932224095
 21
125.5003994777
 31
0.0
  0
ARC
  5
B2C
330
2
100
AcDbEntity
  8
0
100
AcDbCircle
 10
424.5932224095
 20
140.0003994777
 30
0.0
 40
2.0
100
AcDbArc
 50
180.0
 51
270.0
  0
ARC
  5
B2D
330
2
100
AcDbEntity
  8
HIDS
100
AcDbCircle
 10
391.5932224095
 20
95.7004004777
 30
0.0
 40
38.0
100
AcDbArc
 50
21.294262
 51
50.643299
  0
LINE
  5
B2E
330
2
100
AcDbEntity
  8
HIDS
100
AcDbLine
 10
414.5932224095
 20
131.3335294777
 30
0.0
 11
414.5932224095
 21
127.4021334777
 31
0.0
  0
ARC
  5
B2F
330
2
100
AcDbEntity
  8
HIDS
100
AcDbCircle
 10
417.5932224095
 20
127.4021334777
 30
0.0
 40
3.0
100
AcDbArc
 50
180.0
 51
230.643295
  0
LINE
  5
B30
330
2
100
AcDbEntity
  8
HIDS
100
AcDbLine
 10
414.5932224095
 20
150.1400163566
 30
0.0
 11
414.5932224095
 21
131.3335294777
 31
0.0
  0
ARC
  5
B31
330
2
100
AcDbEntity
  8
HIDS
100
AcDbCircle
 10
412.5932224095
 20
131.3335294777
 30
0.0
 40
2.0
100
AcDbArc
 50
0.0
 51
89.000137
  0
LINE
  5
B35
330
2
100
AcDbEntity
  8
0
100
AcDbLine
 10
434.0932224095
 20
120.5003994777
 30
0.0
 11
434.0932224095
 21
115.5003994777
 31
0.0
  0
ARC
  5
B36
330
2
100
AcDbEntity
  8
0
100
AcDbCircle
 10
434.0932224095
 20
118.0004074777
 30
0.0
 40
2.5
100
AcDbArc
 50
90.0
 51
180.0
  0
ARC
  5
B37
330
2
100
AcDbEntity
  8
0
100
AcDbCircle
 10
434.0932224095
 20
118.0003994777
 30
0.0
 40
2.5
100
AcDbArc
 50
180.0
 51
270.0
  0
LINE
  5
B38
330
2
100
AcDbEntity
  8
0
100
AcDbLine
 10
426.5932224095
 20
109.5003994777
 30
0.0
 11
428.5932224095
 21
109.5003994777
 31
0.0
  0
LINE
  5
B39
330
2
100
AcDbEntity
  8
0
100
AcDbLine
 10
426.5932224095
 20
126.5003994777
 30
0.0
 11
428.5932224095
 21
126.5003994777
 31
0.0
  0
LINE
  5
B3A
330
2
100
AcDbEntity
  8
0
100
AcDbLine
 10
428.5932224095
 20
126.5003994777
 30
0.0
 11
428.5932224095
 21
109.5003994777
 31
0.0
  0
ARC
  5
B3B
330
2
100
AcDbEntity
  8
0
100
AcDbCircle
 10
425.5932224095
 20
137.0003994777
 30
0.0
 40
1.0
100
AcDbArc
 50
0.0
 51
90.0
  0
LINE
  5
B3C
330
2
100
AcDbEntity
  8
0
100
AcDbLine
 10
425.5932224095
 20
138.0003994777
 30
0.0
 11
424.5932224095
 21
138.0003994777
 31
0.0
  0
LINE
  5
B3D
330
2
100
AcDbEntity
  8
0
100
AcDbLine
 10
414.5932224095
 20
150.1400104777
 30
0.0
 11
414.5932224095
 21
153.1838184777
 31
0.0
  0
ARC
  5
B3E
330
2
100
AcDbEntity
  8
0
100
AcDbCircle
 10
414.0932224095
 20
150.7003964777
 30
0.0
 40
0.5
100
AcDbArc
 50
0.0
 51
90.0
  0
ARC
  5
B3F
330
2
100
AcDbEntity
  8
0
100
AcDbCircle
 10
414.0932224095
 20
153.1838184777
 30
0.0
 40
0.5
100
AcDbArc
 50
0.0
 51
84.826019
  0
ARC
  5
B40
330
2
100
AcDbEntity
  8
0
100
AcDbCircle
 10
413.3432224095
 20
152.6395984777
 30
0.0
 40
1.0
100
AcDbArc
 50
0.0
 51
73.041847
  0
LINE
  5
B41
330
2
100
AcDbEntity
  8
0
100
AcDbLine
 10
414.3432224095
 20
151.2003964777
 30
0.0
 11
414.3432224095
 21
152.6395984777
 31
0.0
  0
ARC
  5
B42
330
2
100
AcDbEntity
  8
0
100
AcDbCircle
 10
420.5932224095
 20
148.0349914777
 30
0.0
 40
2.0
100
AcDbArc
 50
0.0
 51
89.000359
  0
ARC
  5
B43
330
2
100
AcDbEntity
  8
0
100
AcDbCircle
 10
409.8432224095
 20
152.6395984777
 30
0.0
 40
1.0
100
AcDbArc
 50
106.956902
 51
180.0
  0
ARC
  5
B44
330
2
100
AcDbEntity
  8
0
100
AcDbCircle
 10
408.5932224095
 20
151.7003964777
 30
0.0
 40
0.5
100
AcDbArc
 50
180.0
 51
270.0
  0
LINE
  5
B45
330
2
100
AcDbEntity
  8
0
100
AcDbLine
 10
408.0932224095
 20
153.6868624777
 30
0.0
 11
408.0932224095
 21
151.7003964777
 31
0.0
  0
LINE
  5
B46
330
2
100
AcDbEntity
  8
0
100
AcDbLine
 10
408.8432224095
 20
151.2001984777
 30
0.0
 11
408.8432224095
 21
152.6395984777
 31
0.0
  0
ARC
  5
B47
330
2
100
AcDbEntity
  8
0
100
AcDbCircle
 10
407.5932224095
 20
153.6868624777
 30
0.0
 40
0.5
100
AcDbArc
 50
0.0
 51
86.323196
  0
LINE
  5
B48
330
2
100
AcDbEntity
  8
0
100
AcDbLine
 10
414.3432224095
 20
151.2003964777
 30
0.0
 11
408.5932224095
 21
151.2003964777
 31
0.0
  0
ARC
  5
B49
330
2
100
AcDbEntity
  8
0
100
AcDbCircle
 10
411.5932224095
 20
146.9004014777
 30
0.0
 40
7.0
100
AcDbArc
 50
73.041977
 51
106.956497
  0
LINE
  5
B4A
330
2
100
AcDbEntity
  8
0
100
AcDbLine
 10
414.3432224095
 20
151.9004014777
 30
0.0
 11
408.8432224095
 21
151.9004014777
 31
0.0
  0
LINE
  5
B4C
330
2
100
AcDbEntity
  8
0
100
AcDbLine
 10
455.5932224095
 20
110.5003994777
 30
0.0
 11
455.5932224095
 21
125.5003994777
 31
0.0
  0
LINE
  5
B4D
330
2
100
AcDbEntity
  8
CENTER
100
AcDbLine
 10
538.0053058011
 20
163.0003994777
 30
0.0
 11
538.0053058011
 21
47.0003994777
 31
0.0
  0
LINE
  5
B4E
330
2
100
AcDbEntity
  8
0
100
AcDbLine
 10
495.5053058011
 20
130.7003964777
 30
0.0
 11
495.5053058011
 21
79.3004104777
 31
0.0
  0
LINE
  5
B4F
330
2
100
AcDbEntity
  8
CENTER
100
AcDbLine
 10
500.1616168011
 20
62.0004004777
 30
0.0
 11
511.8489948011
 21
62.0004004777
 31
0.0
  0
LINE
  5
B50
330
2
100
AcDbEntity
  8
0
100
AcDbLine
 10
521.7125048011
 20
60.9077394777
 30
0.0
 11
495.5053058011
 21
79.3004104777
 31
0.0
  0
LINE
  5
B51
330
2
100
AcDbEntity
  8
CENTER
100
AcDbLine
 10
506.0053058011
 20
56.1567114777
 30
0.0
 11
506.0053058011
 21
67.8440894777
 31
0.0
  0
CIRCLE
  5
B52
330
2
100
AcDbEntity
  8
0
100
AcDbCircle
 10
506.0053058011
 20
62.0003994777
 30
0.0
 40
3.25
  0
LINE
  5
B53
330
2
100
AcDbEntity
  8
0
100
AcDbLine
 10
498.0826068011
 20
60.8912784777
 30
0.0
 11
495.5053058011
 21
79.3004104777
 31
0.0
  0
ARC
  5
B54
330
2
100
AcDbEntity
  8
0
100
AcDbCircle
 10
506.0053058011
 20
62.0003994777
 30
0.0
 40
8.0
100
AcDbArc
 50
187.969696
 51
270.0
  0
ARC
  5
B55
330
2
100
AcDbEntity
  8
0
100
AcDbCircle
 10
524.5848038011
 20
65.0003994777
 30
0.0
 40
5.0
100
AcDbArc
 50
234.938095
 51
270.0
  0
LINE
  5
B8B
330
2
100
AcDbEntity
  8
CENTER
100
AcDbLine
 10
500.1616168011
 20
148.0003994777
 30
0.0
 11
511.8489948011
 21
148.0003994777
 31
0.0
  0
LINE
  5
B8C
330
2
100
AcDbEntity
  8
0
100
AcDbLine
 10
521.7125048011
 20
149.0930584777
 30
0.0
 11
495.5053058011
 21
130.7003964777
 31
0.0
  0
LINE
  5
B8D
330
2
100
AcDbEntity
  8
CENTER
100
AcDbLine
 10
506.0053058011
 20
142.1567104777
 30
0.0
 11
506.0053058011
 21
153.8440884777
 31
0.0
  0
CIRCLE
  5
B8E
330
2
100
AcDbEntity
  8
0
100
AcDbCircle
 10
506.0053058011
 20
148.0003994777
 30
0.0
 40
3.25
  0
LINE
  5
B8F
330
2
100
AcDbEntity
  8
0
100
AcDbLine
 10
498.0826068011
 20
149.1095614777
 30
0.0
 11
495.5053058011
 21
130.7003964777
 31
0.0
  0
ARC
  5
B90
330
2
100
AcDbEntity
  8
0
100
AcDbCircle
 10
506.0053058011
 20
148.0003994777
 30
0.0
 40
8.0
100
AcDbArc
 50
90.0
 51
172.030304
  0
LINE
  5
B91
330
2
100
AcDbEntity
  8
0
100
AcDbLine
 10
533.5053058011
 20
120.5003994777
 30
0.0
 11
528.5053058011
 21
120.5003994777
 31
0.0
  0
LINE
  5
B92
330
2
100
AcDbEntity
  8
0
100
AcDbLine
 10
533.5053058011
 20
115.5003994777
 30
0.0
 11
528.5053058011
 21
115.5003994777
 31
0.0
  0
LINE
  5
B93
330
2
100
AcDbEntity
  8
0
100
AcDbLine
 10
528.5053058011
 20
120.5003994777
 30
0.0
 11
528.5053058011
 21
115.5003994777
 31
0.0
  0
LINE
  5
B94
330
2
100
AcDbEntity
  8
0
100
AcDbLine
 10
533.5053058011
 20
115.5003994777
 30
0.0
 11
533.5053058011
 21
120.5003994777
 31
0.0
  0
ARC
  5
B95
330
2
100
AcDbEntity
  8
0
100
AcDbCircle
 10
538.0053058011
 20
118.0003994777
 30
0.0
 40
7.5
100
AcDbArc
 50
199.471207
 51
160.528793
  0
ARC
  5
B96
330
2
100
AcDbEntity
  8
0
100
AcDbCircle
 10
524.5848038011
 20
145.0004074777
 30
0.0
 40
5.0
100
AcDbArc
 50
90.0
 51
125.062103
  0
TEXT
  5
B97
330
2
100
AcDbEntity
  8
TITLE
100
AcDbText
 10
352.0488626693
 20
266.3579955637
 30
0.0
 40
5.0
  1
HFV-15L-10~240-S15
100
AcDbText
  0
TEXT
  5
B98
330
2
100
AcDbEntity
  8
TITLE
100
AcDbText
 10
352.0488626693
 20
274.3579955637
 30
0.0
 40
5.0
  1
HFV-15L-10~120-T40
100
AcDbText
  0
TEXT
  5
B99
330
2
100
AcDbEntity
  8
TITLE
100
AcDbText
 10
352.0488626693
 20
290.3579955637
 30
0.0
 40
5.0
  1
HFV-15L-10~240-T15
100
AcDbText
  0
TEXT
  5
B9A
330
2
100
AcDbEntity
  8
TITLE
100
AcDbText
 10
352.0488626693
 20
282.3579955637
 30
0.0
 40
5.0
  1
HFV-15L-10~240-T25
100
AcDbText
  0
TEXT
  5
B9B
330
2
100
AcDbEntity
  8
TITLE
100
AcDbText
 10
352.0488626693
 20
258.3579955637
 30
0.0
 40
5.0
  1
HFV-15L-10~240-S25
100
AcDbText
  0
LINE
  5
B9C
330
2
100
AcDbEntity
  8
0
100
AcDbLine
 10
289.8277547264
 20
309.7890940866
 30
0.0
 11
291.6359517264
 21
240.7367260866
 31
0.0
  0
LINE
  5
B9D
330
2
100
AcDbEntity
  8
CENTER
100
AcDbLine
 10
281.1359517264
 20
237.2367260866
 30
0.0
 11
281.1359517264
 21
253.2367410866
 31
0.0
  0
LINE
  5
B9E
330
2
100
AcDbEntity
  8
HIDS
  6
sekkei_H
100
AcDbLine
 10
277.8859517264
 20
249.7367410866
 30
0.0
 11
277.8859517264
 21
240.7367260866
 31
0.0
  0
ARC
  5
B9F
330
2
100
AcDbEntity
  8
0
100
AcDbCircle
 10
290.4261287264
 20
248.7367260866
 30
0.0
 40
1.0
100
AcDbArc
 50
1.5
 51
90.0
  0
LINE
  5
BA0
330
2
100
AcDbEntity
  8
HIDS
  6
sekkei_H
100
AcDbLine
 10
284.3859517264
 20
249.7367410866
 30
0.0
 11
284.3859517264
 21
240.7367260866
 31
0.0
  0
LINE
  5
BA1
330
2
100
AcDbEntity
  8
0
100
AcDbLine
 10
289.0586507264
 20
240.7367260866
 30
0.0
 11
289.0586507264
 21
248.4264230866
 31
0.0
  0
LINE
  5
BA2
330
2
100
AcDbEntity
  8
0
100
AcDbLine
 10
269.1359517264
 20
314.7367410866
 30
0.0
 11
269.1359517264
 21
313.7367410866
 31
0.0
  0
ARC
  5
BA3
330
2
100
AcDbEntity
  8
0
100
AcDbCircle
 10
268.1359667264
 20
314.7367410866
 30
0.0
 40
1.0
100
AcDbArc
 50
0.0
 51
90.0
  0
ARC
  5
BA4
330
2
100
AcDbEntity
  8
0
100
AcDbCircle
 10
287.8284417264
 20
309.7367410866
 30
0.0
 40
2.0
100
AcDbArc
 50
1.5
 51
90.0
  0
LINE
  5
BA5
330
2
100
AcDbEntity
  8
0
100
AcDbLine
 10
702.6539878011
 20
143.1504014777
 30
0.0
 11
687.5051838011
 21
143.1504014777
 31
0.0
  0
LINE
  5
BA6
330
2
100
AcDbEntity
  8
0
100
AcDbLine
 10
701.8021808011
 20
150.8503984777
 30
0.0
 11
687.5051838011
 21
150.8503984777
 31
0.0
  0
LINE
  5
BA7
330
2
100
AcDbEntity
  8
0
100
AcDbLine
 10
706.5063428011
 20
125.7040604777
 30
0.0
 11
678.0044508011
 21
126.4504054777
 31
0.0
  0
LINE
  5
BA8
330
2
100
AcDbEntity
  8
0
100
AcDbLine
 10
682.0053058011
 20
115.4241894777
 30
0.0
 11
709.5053058011
 21
114.7040894777
 31
0.0
  0
LINE
  5
BA9
330
2
100
AcDbEntity
  8
0
100
AcDbLine
 10
682.0053058011
 20
109.4766034777
 30
0.0
 11
709.5053058011
 21
110.1967044777
 31
0.0
  0
LINE
  5
BAA
330
2
100
AcDbEntity
  8
0
100
AcDbLine
 10
706.5063428011
 20
65.6967594777
 30
0.0
 11
678.0044508011
 21
64.9504094777
 31
0.0
  0
LINE
  5
BAB
330
2
100
AcDbEntity
  8
CENTER
100
AcDbLine
 10
716.5053058011
 20
95.7004004777
 30
0.0
 11
564.2802998011
 21
95.7004004777
 31
0.0
  0
LINE
  5
BAC
330
2
100
AcDbEntity
  8
0
100
AcDbLine
 10
653.0053058011
 20
133.7003964777
 30
0.0
 11
580.0853078011
 21
133.7003964777
 31
0.0
  0
LINE
  5
BAD
330
2
100
AcDbEntity
  8
0
100
AcDbLine
 10
653.0053058011
 20
125.9493664777
 30
0.0
 11
581.2553058011
 21
125.9493664777
 31
0.0
  0
LINE
  5
BAE
330
2
100
AcDbEntity
  8
0
100
AcDbLine
 10
582.5053058011
 20
57.7003994777
 30
0.0
 11
653.0053058011
 21
57.7003994777
 31
0.0
  0
LINE
  5
BAF
330
2
100
AcDbEntity
  8
0
100
AcDbLine
 10
653.0053058011
 20
65.4514404777
 30
0.0
 11
581.0053058011
 21
65.4514404777
 31
0.0
  0
LINE
  5
BB0
330
2
100
AcDbEntity
  8
0
100
AcDbLine
 10
580.5053058011
 20
130.7003964777
 30
0.0
 11
580.5053058011
 21
65.7004104777
 31
0.0
  0
ARC
  5
BB1
330
2
100
AcDbEntity
  8
0
100
AcDbCircle
 10
582.5053058011
 20
59.7003994777
 30
0.0
 40
2.0
100
AcDbArc
 50
180.0
 51
270.0
  0
LINE
  5
BB2
330
2
100
AcDbEntity
  8
0
100
AcDbLine
 10
566.9585988011
 20
69.7930594777
 30
0.0
 11
554.2981068011
 21
60.9077394777
 31
0.0
  0
LINE
  5
BB3
330
2
100
AcDbEntity
  8
CENTER
100
AcDbLine
 10
570.0053058011
 20
56.1567114777
 30
0.0
 11
570.0053058011
 21
67.8440894777
 31
0.0
  0
LINE
  5
BB4
330
2
100
AcDbEntity
  8
0
100
AcDbLine
 10
577.9280048011
 20
60.8912004777
 30
0.0
 11
579.0893968011
 21
69.1867004777
 31
0.0
  0
LINE
  5
BB5
330
2
100
AcDbEntity
  8
0
100
AcDbLine
 10
580.5053058011
 20
59.7003994777
 30
0.0
 11
580.5053058011
 21
65.7004104777
 31
0.0
  0
CIRCLE
  5
BB6
330
2
100
AcDbEntity
  8
0
100
AcDbCircle
 10
570.0053058011
 20
62.0003994777
 30
0.0
 40
3.25
  0
LINE
  5
BB7
330
2
100
AcDbEntity
  8
CENTER
100
AcDbLine
 10
564.1616168011
 20
62.0004004777
 30
0.0
 11
575.8489948011
 21
62.0004004777
 31
0.0
  0
ARC
  5
BB8
330
2
100
AcDbEntity
  8
0
100
AcDbCircle
 10
551.4258078011
 20
65.0003994777
 30
0.0
 40
5.0
100
AcDbArc
 50
270.0
 51
305.06189
  0
ARC
  5
BB9
330
2
100
AcDbEntity
  8
0
100
AcDbCircle
 10
570.0053058011
 20
62.0003994777
 30
0.0
 40
8.0
100
AcDbArc
 50
270.0
 51
352.030396
  0
ARC
  5
BC4
330
2
100
AcDbEntity
  8
0
100
AcDbCircle
 10
575.5053058011
 20
65.7004194777
 30
0.0
 40
5.0
100
AcDbArc
 50
0.0
 51
90.0
  0
ARC
  5
BC5
330
2
100
AcDbEntity
  8
0
100
AcDbCircle
 10
569.8308978011
 20
65.7004104777
 30
0.0
 40
5.0
100
AcDbArc
 50
90.0
 51
125.062103
  0
LINE
  5
BC6
330
2
100
AcDbEntity
  8
0
100
AcDbLine
 10
569.8308978011
 20
70.7003984777
 30
0.0
 11
575.5053058011
 21
70.7003984777
 31
0.0
  0
LINE
  5
BC7
330
2
100
AcDbEntity
  8
0
100
AcDbLine
 10
554.2981068011
 20
149.0930584777
 30
0.0
 11
580.5053058011
 21
130.7003964777
 31
0.0
  0
LINE
  5
BC8
330
2
100
AcDbEntity
  8
CENTER
100
AcDbLine
 10
570.0053058011
 20
142.1567104777
 30
0.0
 11
570.0053058011
 21
153.8440884777
 31
0.0
  0
LINE
  5
BC9
330
2
100
AcDbEntity
  8
0
100
AcDbLine
 10
577.9280048011
 20
149.1095464777
 30
0.0
 11
580.5053058011
 21
130.7003964777
 31
0.0
  0
CIRCLE
  5
BCA
330
2
100
AcDbEntity
  8
0
100
AcDbCircle
 10
570.0053058011
 20
148.0003994777
 30
0.0
 40
3.25
  0
LINE
  5
BCB
330
2
100
AcDbEntity
  8
CENTER
100
AcDbLine
 10
564.1616168011
 20
148.0003994777
 30
0.0
 11
575.8489948011
 21
148.0003994777
 31
0.0
  0
ARC
  5
BCC
330
2
100
AcDbEntity
  8
0
100
AcDbCircle
 10
551.4258988011
 20
145.0003994777
 30
0.0
 40
5.0
100
AcDbArc
 50
54.938221
 51
90.0
  0
ARC
  5
BCD
330
2
100
AcDbEntity
  8
0
100
AcDbCircle
 10
570.0053058011
 20
148.0003994777
 30
0.0
 40
8.0
100
AcDbArc
 50
7.969498
 51
90.0
  0
LINE
  5
BCE
330
2
100
AcDbEntity
  8
0
100
AcDbLine
 10
682.0053058011
 20
117.0416824777
 30
0.0
 11
682.0053058011
 21
103.6353794777
 31
0.0
  0
LINE
  5
BCF
330
2
100
AcDbEntity
  8
0
100
AcDbLine
 10
678.0053058011
 20
126.2393374777
 30
0.0
 11
678.0053058011
 21
58.7003894777
 31
0.0
  0
LINE
  5
BD0
330
2
100
AcDbEntity
  8
0
100
AcDbLine
 10
653.0053058011
 20
57.7004194777
 30
0.0
 11
653.0053058011
 21
133.7003964777
 31
0.0
  0
LINE
  5
BD1
330
2
100
AcDbEntity
  8
0
100
AcDbLine
 10
682.0053058011
 20
59.2922124777
 30
0.0
 11
682.0053058011
 21
65.0551424777
 31
0.0
  0
LINE
  5
BD2
330
2
100
AcDbEntity
  8
0
100
AcDbLine
 10
682.7053788011
 20
59.4503994777
 30
0.0
 11
682.7053788011
 21
64.9503984777
 31
0.0
  0
ARC
  5
BD3
330
2
100
AcDbEntity
  8
0
100
AcDbCircle
 10
677.7053788011
 20
62.2003984777
 30
0.0
 40
7.0
100
AcDbArc
 50
343.042
 51
16.956499
  0
ARC
  5
BD4
330
2
100
AcDbEntity
  8
0
100
AcDbCircle
 10
661.6053118011
 20
61.7003984777
 30
0.0
 40
8.999999
100
AcDbArc
 50
343.399
 51
16.6015
  0
LINE
  5
BD5
330
2
100
AcDbEntity
  8
0
100
AcDbLine
 10
667.0053058011
 20
65.2003984777
 30
0.0
 11
667.0053058011
 21
58.5539894777
 31
0.0
  0
LINE
  5
BD6
330
2
100
AcDbEntity
  8
0
100
AcDbLine
 10
667.0053058011
 20
65.3184694777
 30
0.0
 11
667.0053058011
 21
58.2003994777
 31
0.0
  0
LINE
  5
BD7
330
2
100
AcDbEntity
  8
0
100
AcDbLine
 10
668.0053058011
 20
65.2003984777
 30
0.0
 11
668.0053058011
 21
58.2003994777
 31
0.0
  0
ARC
  5
BD8
330
2
100
AcDbEntity
  8
0
100
AcDbCircle
 10
668.9843098011
 20
59.5003894777
 30
0.0
 40
1.3
100
AcDbArc
 50
270.0
 51
343.399109
  0
LINE
  5
BD9
330
2
100
AcDbEntity
  8
0
100
AcDbLine
 10
676.0056108011
 20
58.1018714777
 30
0.0
 11
653.0053058011
 21
57.7003994777
 31
0.0
  0
ARC
  5
BDA
330
2
100
AcDbEntity
  8
0
100
AcDbCircle
 10
666.5053058011
 20
58.4361194777
 30
0.0
 40
0.5
100
AcDbArc
 50
271.0
 51
0.0
  0
LINE
  5
BDB
330
2
100
AcDbEntity
  8
0
100
AcDbLine
 10
667.0053058011
 20
58.2003994777
 30
0.0
 11
668.9843098011
 21
58.2003994777
 31
0.0
  0
LINE
  5
BDC
330
2
100
AcDbEntity
  8
0
100
AcDbLine
 10
681.5183978011
 20
58.7923834777
 30
0.0
 11
678.0053058011
 21
58.7003894777
 31
0.0
  0
ARC
  5
BDD
330
2
100
AcDbEntity
  8
0
100
AcDbCircle
 10
677.0053058011
 20
59.4044414777
 30
0.0
 40
1.0
100
AcDbArc
 50
284.975616
 51
0.0
  0
ARC
  5
BDE
330
2
100
AcDbEntity
  8
0
100
AcDbCircle
 10
683.4445758011
 20
60.4503994777
 30
0.0
 40
1.0
100
AcDbArc
 50
270.0
 51
343.041901
  0
ARC
  5
BDF
330
2
100
AcDbEntity
  8
0
100
AcDbCircle
 10
681.5053058011
 20
59.2922124777
 30
0.0
 40
0.5
100
AcDbArc
 50
271.500008
 51
0.0
  0
LINE
  5
BE0
330
2
100
AcDbEntity
  8
0
100
AcDbLine
 10
682.0053058011
 20
59.4503994777
 30
0.0
 11
683.4445758011
 21
59.4503994777
 31
0.0
  0
LINE
  5
BE1
330
2
100
AcDbEntity
  8
0
100
AcDbLine
 10
677.2636978011
 20
58.4384054777
 30
0.0
 11
676.0056108011
 21
58.1018714777
 31
0.0
  0
ARC
  5
BE2
330
2
100
AcDbEntity
  8
0
100
AcDbCircle
 10
668.9843098011
 20
63.9003784777
 30
0.0
 40
1.3
100
AcDbArc
 50
16.601601
 51
90.0
  0
LINE
  5
BE3
330
2
100
AcDbEntity
  8
0
100
AcDbLine
 10
676.0056108011
 20
66.2003984777
 30
0.0
 11
668.0053058011
 21
66.2003984777
 31
0.0
  0
ARC
  5
BE4
330
2
100
AcDbEntity
  8
0
100
AcDbCircle
 10
668.0053058011
 20
65.2003984777
 30
0.0
 40
1.0
100
AcDbArc
 50
90.0
 51
180.0
  0
LINE
  5
BE5
330
2
100
AcDbEntity
  8
0
100
AcDbLine
 10
667.0053058011
 20
65.2003984777
 30
0.0
 11
668.9843098011
 21
65.2003984777
 31
0.0
  0
LINE
  5
BE6
330
2
100
AcDbEntity
  8
0
100
AcDbLine
 10
653.0053058011
 20
65.4514284777
 30
0.0
 11
667.0053058011
 21
65.4514284777
 31
0.0
  0
LINE
  5
BE7
330
2
100
AcDbEntity
  8
0
100
AcDbLine
 10
682.0053058011
 20
103.6353794777
 30
0.0
 11
678.0053058011
 21
103.6353794777
 31
0.0
  0
ARC
  5
BE8
330
2
100
AcDbEntity
  8
0
100
AcDbCircle
 10
677.0053058011
 20
67.5029694777
 30
0.0
 40
1.0
100
AcDbArc
 50
284.975616
 51
0.0
  0
ARC
  5
BE9
330
2
100
AcDbEntity
  8
0
100
AcDbCircle
 10
677.0053058011
 20
67.5029694777
 30
0.0
 40
1.0
100
AcDbArc
 50
284.975616
 51
0.0
  0
ARC
  5
BEA
330
2
100
AcDbEntity
  8
0
100
AcDbCircle
 10
683.4445758011
 20
63.9503984777
 30
0.0
 40
1.0
100
AcDbArc
 50
16.9569
 51
90.0
  0
LINE
  5
BEB
330
2
100
AcDbEntity
  8
0
100
AcDbLine
 10
682.0053058011
 20
64.9503984777
 30
0.0
 11
683.4445758011
 21
64.9503984777
 31
0.0
  0
LINE
  5
BEC
330
2
100
AcDbEntity
  8
0
100
AcDbLine
 10
677.2636978011
 20
66.5369334777
 30
0.0
 11
676.0056108011
 21
66.2003984777
 31
0.0
  0
LINE
  5
BED
330
2
100
AcDbEntity
  8
0
100
AcDbLine
 10
687.5051838011
 20
151.7003964777
 30
0.0
 11
687.5051838011
 21
147.2003964777
 31
0.0
  0
LINE
  5
BEE
330
2
100
AcDbEntity
  8
0
100
AcDbLine
 10
685.5051838011
 20
147.2003964777
 30
0.0
 11
685.5051838011
 21
153.7787204777
 31
0.0
  0
LINE
  5
BEF
330
2
100
AcDbEntity
  8
CENTER
100
AcDbLine
 10
670.5053058011
 20
157.7259174777
 30
0.0
 11
670.5051838011
 21
139.9270964777
 31
0.0
  0
LINE
  5
BF0
330
2
100
AcDbEntity
  8
0
100
AcDbLine
 10
653.5051838011
 20
151.7003964777
 30
0.0
 11
653.5051838011
 21
147.2003964777
 31
0.0
  0
LINE
  5
BF1
330
2
100
AcDbEntity
  8
0
100
AcDbLine
 10
655.5051838011
 20
147.2003964777
 30
0.0
 11
655.5051838011
 21
153.7787204777
 31
0.0
  0
ARC
  5
BF2
330
2
100
AcDbEntity
  8
0
100
AcDbCircle
 10
668.9843098011
 20
131.9004094777
 30
0.0
 40
1.3
100
AcDbArc
 50
16.600901
 51
90.0
  0
ARC
  5
BF3
330
2
100
AcDbEntity
  8
0
100
AcDbCircle
 10
668.9843098011
 20
127.5004224777
 30
0.0
 40
1.3
100
AcDbArc
 50
270.0
 51
343.398399
  0
LINE
  5
BF4
330
2
100
AcDbEntity
  8
0
100
AcDbLine
 10
667.5053058011
 20
125.2003964777
 30
0.0
 11
676.0056108011
 21
125.2003964777
 31
0.0
  0
LINE
  5
BF5
330
2
100
AcDbEntity
  8
0
100
AcDbLine
 10
685.5051838011
 20
134.2003964777
 30
0.0
 11
668.0053058011
 21
134.2003964777
 31
0.0
  0
LINE
  5
BF6
330
2
100
AcDbEntity
  8
0
100
AcDbLine
 10
687.5051838011
 20
147.2003964777
 30
0.0
 11
653.5051838011
 21
147.2003964777
 31
0.0
  0
LINE
  5
BF7
330
2
100
AcDbEntity
  8
0
100
AcDbLine
 10
687.5051838011
 20
146.2003964777
 30
0.0
 11
653.5051838011
 21
146.2003964777
 31
0.0
  0
LINE
  5
BF8
330
2
100
AcDbEntity
  8
0
100
AcDbLine
 10
667.0053058011
 20
133.2003964777
 30
0.0
 11
668.9843098011
 21
133.2003964777
 31
0.0
  0
ARC
  5
BF9
330
2
100
AcDbEntity
  8
0
100
AcDbCircle
 10
668.0053058011
 20
133.2003964777
 30
0.0
 40
1.0
100
AcDbArc
 50
90.0
 51
180.0
  0
ARC
  5
BFA
330
2
100
AcDbEntity
  8
0
100
AcDbCircle
 10
667.5053058011
 20
125.7003964777
 30
0.0
 40
0.5
100
AcDbArc
 50
180.0
 51
270.0
  0
LINE
  5
BFB
330
2
100
AcDbEntity
  8
0
100
AcDbLine
 10
667.0053058011
 20
126.2003964777
 30
0.0
 11
668.9843098011
 21
126.2003964777
 31
0.0
  0
LINE
  5
BFC
330
2
100
AcDbEntity
  8
0
100
AcDbLine
 10
667.0053058011
 20
125.7003964777
 30
0.0
 11
667.0053058011
 21
133.2003964777
 31
0.0
  0
LINE
  5
BFD
330
2
100
AcDbEntity
  8
0
100
AcDbLine
 10
668.0053058011
 20
126.2003964777
 30
0.0
 11
668.0053058011
 21
133.2003964777
 31
0.0
  0
LINE
  5
BFE
330
2
100
AcDbEntity
  8
0
100
AcDbLine
 10
654.0051838011
 20
147.2003964777
 30
0.0
 11
654.0051838011
 21
146.2003964777
 31
0.0
  0
LINE
  5
BFF
330
2
100
AcDbEntity
  8
0
100
AcDbLine
 10
655.0051838011
 20
140.7003964777
 30
0.0
 11
654.5051838011
 21
140.7003964777
 31
0.0
  0
ARC
  5
C00
330
2
100
AcDbEntity
  8
0
100
AcDbCircle
 10
655.0051838011
 20
140.2003964777
 30
0.0
 40
0.5
100
AcDbArc
 50
0.0
 51
90.0
  0
ARC
  5
C01
330
2
100
AcDbEntity
  8
0
100
AcDbCircle
 10
654.5051838011
 20
141.7003964777
 30
0.0
 40
1.0
100
AcDbArc
 50
180.0
 51
270.0
  0
LINE
  5
C02
330
2
100
AcDbEntity
  8
0
100
AcDbLine
 10
653.5051838011
 20
146.2003964777
 30
0.0
 11
653.5051838011
 21
141.7003964777
 31
0.0
  0
LINE
  5
C03
330
2
100
AcDbEntity
  8
0
100
AcDbLine
 10
654.5315198011
 20
133.7403824777
 30
0.0
 11
653.0053058011
 21
133.7003964777
 31
0.0
  0
ARC
  5
C04
330
2
100
AcDbEntity
  8
0
100
AcDbCircle
 10
654.5053058011
 20
134.7400084777
 30
0.0
 40
1.0
100
AcDbArc
 50
271.500099
 51
0.0
  0
LINE
  5
C05
330
2
100
AcDbEntity
  8
0
100
AcDbLine
 10
655.5051838011
 20
134.7400084777
 30
0.0
 11
655.5051838011
 21
146.2003964777
 31
0.0
  0
LINE
  5
C06
330
2
100
AcDbEntity
  8
0
100
AcDbLine
 10
653.0053058011
 20
125.9493664777
 30
0.0
 11
667.0053058011
 21
125.9493664777
 31
0.0
  0
ARC
  5
C07
330
2
100
AcDbEntity
  8
0
100
AcDbCircle
 10
679.0053058011
 20
126.2393374777
 30
0.0
 40
1.0
100
AcDbArc
 50
91.5
 51
180.0
  0
LINE
  5
C08
330
2
100
AcDbEntity
  8
0
100
AcDbLine
 10
682.0053058011
 20
117.0416824777
 30
0.0
 11
678.0053058011
 21
117.0416824777
 31
0.0
  0
ARC
  5
C09
330
2
100
AcDbEntity
  8
0
100
AcDbCircle
 10
677.0053058011
 20
123.8978304777
 30
0.0
 40
1.0
100
AcDbArc
 50
0.0
 51
75.024384
  0
LINE
  5
C0A
330
2
100
AcDbEntity
  8
0
100
AcDbLine
 10
686.0051838011
 20
140.7003964777
 30
0.0
 11
686.5051838011
 21
140.7003964777
 31
0.0
  0
ARC
  5
C0B
330
2
100
AcDbEntity
  8
0
100
AcDbCircle
 10
686.5051838011
 20
141.7003964777
 30
0.0
 40
1.0
100
AcDbArc
 50
270.0
 51
0.0
  0
LINE
  5
C0C
330
2
100
AcDbEntity
  8
0
100
AcDbLine
 10
687.5051838011
 20
146.2003964777
 30
0.0
 11
687.5051838011
 21
141.7003964777
 31
0.0
  0
LINE
  5
C0D
330
2
100
AcDbEntity
  8
0
100
AcDbLine
 10
685.0051838011
 20
147.2003964777
 30
0.0
 11
685.0051838011
 21
146.2003964777
 31
0.0
  0
LINE
  5
C0E
330
2
100
AcDbEntity
  8
0
100
AcDbLine
 10
685.5051838011
 20
129.3581954777
 30
0.0
 11
685.5051838011
 21
146.2003964777
 31
0.0
  0
ARC
  5
C0F
330
2
100
AcDbEntity
  8
0
100
AcDbCircle
 10
686.0051838011
 20
140.2003964777
 30
0.0
 40
0.5
100
AcDbArc
 50
90.0
 51
180.0
  0
ARC
  5
C10
330
2
100
AcDbEntity
  8
0
100
AcDbCircle
 10
683.4445758011
 20
114.2003964777
 30
0.0
 40
1.0
100
AcDbArc
 50
16.9569
 51
90.0
  0
ARC
  5
C11
330
2
100
AcDbEntity
  8
0
100
AcDbCircle
 10
683.4445758011
 20
110.7003964777
 30
0.0
 40
1.0
100
AcDbArc
 50
270.0
 51
343.041901
  0
ARC
  5
C12
330
2
100
AcDbEntity
  8
0
100
AcDbCircle
 10
677.7053788011
 20
112.4503964777
 30
0.0
 40
7.0
100
AcDbArc
 50
343.042
 51
16.956499
  0
LINE
  5
C13
330
2
100
AcDbEntity
  8
0
100
AcDbLine
 10
682.7053788011
 20
109.7003964777
 30
0.0
 11
682.7053788011
 21
115.2003964777
 31
0.0
  0
LINE
  5
C14
330
2
100
AcDbEntity
  8
0
100
AcDbLine
 10
678.9791218011
 20
127.2389934777
 30
0.0
 11
683.5575208011
 21
127.3588824777
 31
0.0
  0
LINE
  5
C15
330
2
100
AcDbEntity
  8
0
100
AcDbLine
 10
682.0053058011
 20
109.7003964777
 30
0.0
 11
683.4445758011
 21
109.7003964777
 31
0.0
  0
LINE
  5
C16
330
2
100
AcDbEntity
  8
0
100
AcDbLine
 10
682.0053058011
 20
115.2003964777
 30
0.0
 11
683.4445758011
 21
115.2003964777
 31
0.0
  0
ARC
  5
C17
330
2
100
AcDbEntity
  8
0
100
AcDbCircle
 10
683.5051838011
 20
129.3581954777
 30
0.0
 40
2.0
100
AcDbArc
 50
271.5
 51
0.0
  0
ARC
  5
C18
330
2
100
AcDbEntity
  8
0
100
AcDbCircle
 10
661.6053118011
 20
129.7003964777
 30
0.0
 40
8.999999
100
AcDbArc
 50
343.3985
 51
16.601
  0
LINE
  5
C19
330
2
100
AcDbEntity
  8
0
100
AcDbLine
 10
677.2636978011
 20
124.8638644777
 30
0.0
 11
676.0056108011
 21
125.2003964777
 31
0.0
  0
ARC
  5
C1A
330
2
100
AcDbEntity
  8
0
100
AcDbCircle
 10
670.5051838011
 20
-95.2995805223
 30
0.0
 40
250.0
100
AcDbArc
 50
86.668304
 51
93.331696
  0
ARC
  5
C1B
330
2
100
AcDbEntity
  8
0
100
AcDbCircle
 10
660.2551838011
 20
152.6395984777
 30
0.0
 40
1.0
100
AcDbArc
 50
0.0
 51
73.041801
  0
LINE
  5
C1C
330
2
100
AcDbEntity
  8
0
100
AcDbLine
 10
662.0051838011
 20
151.7003964777
 30
0.0
 11
662.0051838011
 21
154.0721314777
 31
0.0
  0
ARC
  5
C1D
330
2
100
AcDbEntity
  8
0
100
AcDbCircle
 10
661.5051838011
 20
151.7003964777
 30
0.0
 40
0.5
100
AcDbArc
 50
270.0
 51
0.0
  0
LINE
  5
C1E
330
2
100
AcDbEntity
  8
0
100
AcDbLine
 10
661.2551838011
 20
151.2003964777
 30
0.0
 11
661.2551838011
 21
152.6395984777
 31
0.0
  0
ARC
  5
C1F
330
2
100
AcDbEntity
  8
0
100
AcDbCircle
 10
662.5051838011
 20
154.0721314777
 30
0.0
 40
0.5
100
AcDbArc
 50
91.837456
 51
180.0
  0
LINE
  5
C20
330
2
100
AcDbEntity
  8
0
100
AcDbLine
 10
655.0051838011
 20
152.7003964777
 30
0.0
 11
654.5051838011
 21
152.7003964777
 31
0.0
  0
ARC
  5
C21
330
2
100
AcDbEntity
  8
0
100
AcDbCircle
 10
655.0051838011
 20
153.2003964777
 30
0.0
 40
0.5
100
AcDbArc
 50
270.0
 51
0.0
  0
ARC
  5
C22
330
2
100
AcDbEntity
  8
0
100
AcDbCircle
 10
656.0051838011
 20
153.7787204777
 30
0.0
 40
0.5
100
AcDbArc
 50
93.331696
 51
180.0
  0
ARC
  5
C23
330
2
100
AcDbEntity
  8
0
100
AcDbCircle
 10
656.0051838011
 20
150.7003964777
 30
0.0
 40
0.5
100
AcDbArc
 50
90.0
 51
180.0
  0
LINE
  5
C24
330
2
100
AcDbEntity
  8
0
100
AcDbLine
 10
655.7551838011
 20
151.2001984777
 30
0.0
 11
655.7551838011
 21
152.6395984777
 31
0.0
  0
ARC
  5
C25
330
2
100
AcDbEntity
  8
0
100
AcDbCircle
 10
656.7551838011
 20
152.6395984777
 30
0.0
 40
1.0
100
AcDbArc
 50
106.956902
 51
180.0
  0
ARC
  5
C26
330
2
100
AcDbEntity
  8
0
100
AcDbCircle
 10
654.5051838011
 20
151.7003964777
 30
0.0
 40
1.0
100
AcDbArc
 50
90.0
 51
180.0
  0
LINE
  5
C27
330
2
100
AcDbEntity
  8
0
100
AcDbLine
 10
661.5051838011
 20
151.2003964777
 30
0.0
 11
656.0051838011
 21
151.2003964777
 31
0.0
  0
LINE
  5
C28
330
2
100
AcDbEntity
  8
0
100
AcDbLine
 10
661.2551838011
 20
151.9004014777
 30
0.0
 11
655.7551838011
 21
151.9004014777
 31
0.0
  0
ARC
  5
C29
330
2
100
AcDbEntity
  8
0
100
AcDbCircle
 10
658.5051838011
 20
146.9004014777
 30
0.0
 40
7.0
100
AcDbArc
 50
73.042
 51
106.956512
  0
ARC
  5
C2A
330
2
100
AcDbEntity
  8
0
100
AcDbCircle
 10
678.5054278011
 20
154.0721314777
 30
0.0
 40
0.5
100
AcDbArc
 50
0.0
 51
88.162544
  0
LINE
  5
C2B
330
2
100
AcDbEntity
  8
0
100
AcDbLine
 10
686.0051838011
 20
152.7003964777
 30
0.0
 11
686.5051838011
 21
152.7003964777
 31
0.0
  0
ARC
  5
C2C
330
2
100
AcDbEntity
  8
0
100
AcDbCircle
 10
686.5051838011
 20
151.7003964777
 30
0.0
 40
1.0
100
AcDbArc
 50
0.0
 51
90.0
  0
ARC
  5
C2D
330
2
100
AcDbEntity
  8
0
100
AcDbCircle
 10
685.0051838011
 20
153.7787204777
 30
0.0
 40
0.5
100
AcDbArc
 50
0.0
 51
86.668304
  0
ARC
  5
C2E
330
2
100
AcDbEntity
  8
0
100
AcDbCircle
 10
685.0054278011
 20
150.7003964777
 30
0.0
 40
0.5
100
AcDbArc
 50
0.0
 51
90.0
  0
LINE
  5
C2F
330
2
100
AcDbEntity
  8
0
100
AcDbLine
 10
685.2551838011
 20
151.2003964777
 30
0.0
 11
685.2551838011
 21
152.6395984777
 31
0.0
  0
ARC
  5
C30
330
2
100
AcDbEntity
  8
0
100
AcDbCircle
 10
684.2551838011
 20
152.6395984777
 30
0.0
 40
1.0
100
AcDbArc
 50
0.0
 51
73.041801
  0
ARC
  5
C31
330
2
100
AcDbEntity
  8
0
100
AcDbCircle
 10
686.0051838011
 20
153.2003964777
 30
0.0
 40
0.5
100
AcDbArc
 50
180.0
 51
270.0
  0
ARC
  5
C32
330
2
100
AcDbEntity
  8
0
100
AcDbCircle
 10
679.5054278011
 20
151.7003964777
 30
0.0
 40
0.5
100
AcDbArc
 50
180.0
 51
270.0
  0
LINE
  5
C33
330
2
100
AcDbEntity
  8
0
100
AcDbLine
 10
679.0054278011
 20
151.7003964777
 30
0.0
 11
679.0054278011
 21
154.0721314777
 31
0.0
  0
LINE
  5
C34
330
2
100
AcDbEntity
  8
0
100
AcDbLine
 10
679.7551838011
 20
151.2001984777
 30
0.0
 11
679.7551838011
 21
152.6395984777
 31
0.0
  0
ARC
  5
C35
330
2
100
AcDbEntity
  8
0
100
AcDbCircle
 10
680.7551838011
 20
152.6395984777
 30
0.0
 40
1.0
100
AcDbArc
 50
106.956902
 51
180.0
  0
LINE
  5
C36
330
2
100
AcDbEntity
  8
0
100
AcDbLine
 10
679.5054278011
 20
151.2003964777
 30
0.0
 11
685.0054278011
 21
151.2003964777
 31
0.0
  0
LINE
  5
C37
330
2
100
AcDbEntity
  8
0
100
AcDbLine
 10
685.2551838011
 20
151.9004014777
 30
0.0
 11
679.7551838011
 21
151.9004014777
 31
0.0
  0
ARC
  5
C38
330
2
100
AcDbEntity
  8
0
100
AcDbCircle
 10
682.5051838011
 20
146.9004014777
 30
0.0
 40
7.0
100
AcDbArc
 50
73.042
 51
106.956512
  0
LINE
  5
C39
330
2
100
AcDbEntity
  8
0
100
AcDbLine
 10
709.5053058011
 20
123.2193954777
 30
0.0
 11
709.5053058011
 21
68.1323284777
 31
0.0
  0
LINE
  5
C3A
330
2
100
AcDbEntity
  8
0
100
AcDbLine
 10
708.1821248011
 20
66.2994314777
 30
0.0
 11
706.5063428011
 21
65.6967594777
 31
0.0
  0
ARC
  5
C3B
330
2
100
AcDbEntity
  8
0
100
AcDbCircle
 10
707.5053058011
 20
68.1814244777
 30
0.0
 40
2.0
100
AcDbArc
 50
289.780289
 51
0.0
  0
LINE
  5
C3C
330
2
100
AcDbEntity
  8
HOJO
100
AcDbLine
 10
702.5379898011
 20
148.0153004777
 30
0.0
 11
701.7258868011
 21
145.5403014777
 31
0.0
  0
LINE
  5
C3D
330
2
100
AcDbEntity
  8
HOJO
100
AcDbLine
 10
701.7258868011
 20
145.5403014777
 30
0.0
 11
702.6539878011
 21
143.1504014777
 31
0.0
  0
ARC
  5
C3E
330
2
100
AcDbEntity
  8
0
100
AcDbCircle
 10
707.5053058011
 20
123.2193954777
 30
0.0
 40
2.0
100
AcDbArc
 50
0.0
 51
70.219711
  0
LINE
  5
C3F
330
2
100
AcDbEntity
  8
0
100
AcDbLine
 10
708.1821248011
 20
125.1013844777
 30
0.0
 11
706.5063428011
 21
125.7040604777
 31
0.0
  0
LINE
  5
C40
330
2
100
AcDbEntity
  8
HOJO
100
AcDbLine
 10
701.8021808011
 20
150.8503984777
 30
0.0
 11
702.5379898011
 21
148.0153004777
 31
0.0
  0
ARC
  5
12D7
330
2
100
AcDbEntity
  8
0
100
AcDbCircle
 10
271.1359517264
 20
313.7367410866
 30
0.0
 40
2.0
100
AcDbArc
 50
180.0
 51
270.0
  0
ARC
  5
12D8
330
2
100
AcDbEntity
  8
0
100
AcDbCircle
 10
227.1359517264
 20
313.7367410866
 30
0.0
 40
2.0
100
AcDbArc
 50
270.0
 51
0.0
  0
INSERT
  5
14C4
330
2
100
AcDbEntity
  8
0
100
AcDbBlockReference
  2
A$C6643dda2
 10
134.1359547264
 20
95.7004004777
 30
0.0
  0
INSERT
  5
1548
330
2
100
AcDbEntity
  8
0
100
AcDbBlockReference
  2
A$C46bf166a
 10
134.1359517264
 20
280.7367410866
 30
0.0
  0
ENDSEC
  0
SECTION
  2
OBJECTS
  0
DICTIONARY
  5
7
330
0
100
AcDbDictionary
281
     1
  3
ACAD_CIP_PREVIOUS_PRODUCT_INFO
350
13CF
  3
ACAD_COLOR
350
1305
  3
ACAD_DETAILVIEWSTYLE
350
13CB
  3
ACAD_GROUP
350
75
  3
ACAD_LAYOUT
350
61
  3
ACAD_MATERIAL
350
12DB
  3
ACAD_MLEADERSTYLE
350
132A
  3
ACAD_MLINESTYLE
350
76
  3
ACAD_PLOTSETTINGS
350
77
  3
ACAD_PLOTSTYLENAME
350
6
  3
ACAD_SCALELIST
350
1308
  3
ACAD_SECTIONVIEWSTYLE
350
13C9
  3
ACAD_TABLESTYLE
350
1306
  3
ACAD_VISUALSTYLE
350
12F4
  3
AcadDim
350
480
  3
ACDB_RECOMPOSE_DATA
350
164D
  3
AcDbVariableDictionary
350
102
  3
DWGPROPS
350
164E
  0
DICTIONARY
  5
1359
330
6E
100
AcDbDictionary
280
     1
281
     1
  0
DICTIONARY
  5
14BD
330
66
100
AcDbDictionary
280
     1
281
     1
  3
ACAD_LAYERSTATES
360
14BE
  0
DICTIONARY
  5
132F
330
5E
100
AcDbDictionary
280
     1
281
     1
  3
ADSK_XREC_LAYER_RECONCILED
360
1330
  0
DICTIONARY
  5
1331
330
3E
100
AcDbDictionary
280
     1
281
     1
  3
ADSK_XREC_LAYER_RECONCILED
360
1332
  0
DICTIONARY
  5
1337
330
2B5
100
AcDbDictionary
280
     1
281
     1
  3
ADSK_XREC_LAYER_RECONCILED
360
1338
  0
DICTIONARY
  5
1339
330
2BA
100
AcDbDictionary
280
     1
281
     1
  3
ADSK_XREC_LAYER_RECONCILED
360
133A
  0
DICTIONARY
  5
133D
330
3FA
100
AcDbDictionary
280
     1
281
     1
  3
ADSK_XREC_LAYER_RECONCILED
360
133E
  0
DICTIONARY
  5
14C6
330
14C5
100
AcDbDictionary
280
     1
281
     1
  3
ACAD_SORTENTS
360
14C7
  0
XRECORD
  5
13CF
102
{ACAD_REACTORS
330
7
102
}
330
7
100
AcDbXrecord
280
     1
300
ACD
300
2020
300
87224ACD_2020_0F
  0
DICTIONARY
  5
1305
102
{ACAD_REACTORS
330
7
102
}
330
7
100
AcDbDictionary
281
     1
  0
DICTIONARY
  5
13CB
102
{ACAD_REACTORS
330
7
102
}
330
7
100
AcDbDictionary
281
     1
  3
Imperial24
350
13CC
  0
DICTIONARY
  5
75
102
{ACAD_REACTORS
330
7
102
}
330
7
100
AcDbDictionary
281
     1
  0
DICTIONARY
  5
61
102
{ACAD_REACTORS
330
7
102
}
330
7
100
AcDbDictionary
281
     1
  3
Model
350
60
  3
レイアウト1
350
1647
  0
DICTIONARY
  5
12DB
102
{ACAD_REACTORS
330
7
102
}
330
7
100
AcDbDictionary
281
     1
  3
ByBlock
350
12E4
  3
ByLayer
350
12DC
  3
Global
350
12EC
  0
DICTIONARY
  5
132A
102
{ACAD_REACTORS
330
7
102
}
330
7
100
AcDbDictionary
281
     1
  3
Standard
350
132B
  0
DICTIONARY
  5
76
102
{ACAD_REACTORS
330
7
102
}
330
7
100
AcDbDictionary
281
     1
  3
STANDARD
350
78
  0
DICTIONARY
  5
77
102
{ACAD_REACTORS
330
7
102
}
330
7
100
AcDbDictionary
281
     1
  0
ACDBDICTIONARYWDFLT
  5
6
102
{ACAD_REACTORS
330
7
102
}
330
7
100
AcDbDictionary
281
     1
  3
Normal
350
5
100
AcDbDictionaryWithDefault
340
5
  0
DICTIONARY
  5
1308
102
{ACAD_REACTORS
330
7
102
}
330
7
100
AcDbDictionary
281
     1
  3
A0
350
1309
  3
A1
350
130A
  3
A2
350
130B
  3
A3
350
130C
  3
A4
350
130D
  3
A5
350
130E
  3
A6
350
130F
  3
A7
350
1310
  3
A8
350
1311
  3
A9
350
1312
  3
B0
350
1313
  3
B1
350
1314
  3
B2
350
1315
  3
B3
350
1316
  3
B4
350
1317
  3
B5
350
1318
  3
B6
350
1319
  3
B7
350
131A
  3
B8
350
131B
  3
B9
350
131C
  3
C0
350
131D
  3
C1
350
131E
  3
C2
350
131F
  3
C3
350
1320
  3
C4
350
1321
  3
C5
350
1322
  3
C6
350
1323
  3
C7
350
1324
  3
C8
350
1325
  3
C9
350
1326
  3
D0
350
1327
  3
D1
350
1328
  3
D2
350
1329
  0
DICTIONARY
  5
13C9
102
{ACAD_REACTORS
330
7
102
}
330
7
100
AcDbDictionary
281
     1
  3
Imperial24
350
13CA
  0
DICTIONARY
  5
1306
102
{ACAD_REACTORS
330
7
102
}
330
7
100
AcDbDictionary
281
     1
  3
Standard
350
1307
  0
DICTIONARY
  5
12F4
102
{ACAD_REACTORS
330
7
102
}
330
7
100
AcDbDictionary
281
     1
  3
2dWireframe
350
12FA
  3
3D Hidden
350
12FC
  3
3dWireframe
350
12FB
  3
Basic
350
12F9
  3
Brighten
350
1300
  3
ColorChange
350
1304
  3
Conceptual
350
12FD
  3
Dim
350
12FF
  3
EdgeColorOff
350
13C8
  3
Facepattern
350
1303
  3
Flat
350
12F5
  3
FlatWithEdges
350
12F6
  3
Gouraud
350
12F7
  3
GouraudWithEdges
350
12F8
  3
Hidden
350
13C0
  3
JitterOff
350
13C6
  3
Linepattern
350
1302
  3
OverhangOff
350
13C7
  3
Realistic
350
12FE
  3
Shaded
350
13C5
  3
Shaded with edges
350
13C4
  3
Shades of Gray
350
13C1
  3
Sketchy
350
13C2
  3
Thicken
350
1301
  3
Wireframe
350
13BF
  3
X-Ray
350
13C3
  0
XRECORD
  5
480
102
{ACAD_REACTORS
330
7
102
}
330
7
100
AcDbXrecord
280
     1
 90
   990106
  3

 60
     0
 61
     0
 62
     1
 63
     3
 64
     1
 65
     0
 66
     0
 67
     3
 68
     1
 69
     0
 70
     0
 71
     0
 72
     0
 40
0.0
170
     2
340
0
  0
XRECORD
  5
164D
102
{ACAD_REACTORS
330
7
102
}
330
7
100
AcDbXrecord
280
     1
 90
        1
330
1307
  0
DICTIONARY
  5
102
102
{ACAD_REACTORS
330
7
102
}
330
7
100
AcDbDictionary
281
     1
  3
CANNOSCALE
350
1341
  3
CMLEADERSTYLE
350
1340
  3
CTABLESTYLE
350
133F
  3
CVIEWDETAILSTYLE
350
1431
  3
CVIEWSECTIONSTYLE
350
1432
  3
DIMASSOC
350
103
  3
INDEXCTL
350
1380
  3
SORTENTS
350
137F
  3
XCLIPFRAME
350
164B
  0
XRECORD
  5
164E
102
{ACAD_REACTORS
330
7
102
}
330
7
100
AcDbXrecord
280
     1
  1
DWGPROPS COOKIE
  2

  3

  4

  6

  7

  8
ykitaga
  9

300
=
301
=
302
=
303
=
304
=
305
=
306
=
307
=
308
=
309
=
 40
0.0641030093
 41
2453759.695104167
 42
2460516.499016204
  1

 90
        0
  0
DICTIONARY
  5
14BE
102
{ACAD_REACTORS
330
14BD
102
}
330
14BD
100
AcDbDictionary
281
     1
  0
XRECORD
  5
1330
102
{ACAD_REACTORS
330
132F
102
}
330
132F
100
AcDbXrecord
280
     1
290
     1
  0
XRECORD
  5
1332
102
{ACAD_REACTORS
330
1331
102
}
330
1331
100
AcDbXrecord
280
     1
290
     1
  0
XRECORD
  5
1338
102
{ACAD_REACTORS
330
1337
102
}
330
1337
100
AcDbXrecord
280
     1
290
     1
  0
XRECORD
  5
133A
102
{ACAD_REACTORS
330
1339
102
}
330
1339
100
AcDbXrecord
280
     1
290
     1
  0
XRECORD
  5
133E
102
{ACAD_REACTORS
330
133D
102
}
330
133D
100
AcDbXrecord
280
     1
290
     1
  0
SORTENTSTABLE
  5
14C7
102
{ACAD_REACTORS
330
14C6
102
}
330
14C6
100
AcDbSortentsTable
330
14C5
  0
ACDBDETAILVIEWSTYLE
  5
13CC
102
{ACAD_XDICTIONARY
360
169F
102
}
102
{ACAD_REACTORS
330
13CB
102
}
330
13CB
100
AcDbModelDocViewStyle
 70
     0
  3
Imperial24
290
     0
100
AcDbDetailViewStyle
 70
     0
 71
     0
 90
        3
 71
     1
340
16
 40
0.24
340
0
 40
0.24
300

 40
0.36
280
     3
 71
     2
340
8
 90
       25
 71
     3
340
16
 40
0.24
 90
        1
 40
0.75
 90
        1
300
%<\AcVar ViewType \f "%tc1">% %<\AcVar ViewDetailId>%\PSCALE %<\AcVar ViewScale \f "%sn">%
 71
     4
340
8
 90
       25
340
8
 90
       25
280
     0
  0
LAYOUT
  5
60
102
{ACAD_XDICTIONARY
360
164F
102
}
102
{ACAD_REACTORS
330
61
102
}
330
61
100
AcDbPlotSettings
  1

  2
Canon LBP-1420
  4
A4
  6

 40
5.873749733
 41
5.8737478256
 42
5.8737487793
 43
5.8737487793
 44
209.9733276367
 45
296.925994873
 46
0.0
 47
5.37
 48
0.0
 49
0.0
140
0.0
141
0.0
142
1.0
143
0.088099941
 70
 11956
 72
     1
 73
     1
 74
     1
  7
Sekkei.ctb
 75
     0
147
11.3507453947
148
-88.9740150773
149
-101.3630682339
100
AcDbLayout
  1
Model
 70
     1
 71
     0
 10
0.0
 20
0.0
 11
12.0
 21
9.0
 12
0.0
 22
0.0
 32
0.0
 14
0.0
 24
0.0
 34
0.0
 15
0.0
 25
0.0
 35
0.0
146
0.0
 13
0.0
 23
0.0
 33
0.0
 16
1.0
 26
0.0
 36
0.0
 17
0.0
 27
1.0
 37
0.0
 76
     0
330
2
331
12D9
  0
LAYOUT
  5
1647
102
{ACAD_XDICTIONARY
360
16A1
102
}
102
{ACAD_REACTORS
330
61
102
}
330
61
100
AcDbPlotSettings
  1

  2
LBP8610
  4

  6

 40
0.0
 41
0.0
 42
0.0
 43
0.0
 44
0.0
 45
0.0
 46
0.0
 47
0.0
 48
0.0
 49
0.0
140
0.0
141
0.0
142
1.0
143
1.0
 70
   688
 72
     0
 73
     0
 74
     5
  7

 75
    16
147
1.0
148
0.0
149
0.0
100
AcDbLayout
  1
レイアウト1
 70
     1
 71
     1
 10
0.0
 20
0.0
 11
12.0
 21
9.0
 12
0.0
 22
0.0
 32
0.0
 14
0.0
 24
0.0
 34
0.0
 15
0.0
 25
0.0
 35
0.0
146
0.0
 13
0.0
 23
0.0
 33
0.0
 16
1.0
 26
0.0
 36
0.0
 17
0.0
 27
1.0
 37
0.0
 76
     0
330
1646
  0
MATERIAL
  5
12E4
102
{ACAD_XDICTIONARY
360
12E5
102
}
102
{ACAD_REACTORS
330
12DB
102
}
330
12DB
100
AcDbMaterial
  1
ByBlock
 72
     0
 43
0.0208333333
 43
0.0
 43
0.0
 43
0.0
 43
0.0
 43
0.0208333333
 43
0.0
 43
0.0
 43
0.0
 43
0.0
 43
1.0
 43
0.0
 43
0.0
 43
0.0
 43
0.0
 43
1.0
 77
     0
 47
0.0208333333
 47
0.0
 47
0.0
 47
0.0
 47
0.0
 47
0.0208333333
 47
0.0
 47
0.0
 47
0.0
 47
0.0
 47
1.0
 47
0.0
 47
0.0
 47
0.0
 47
0.0
 47
1.0
171
     0
 49
0.0208333333
 49
0.0
 49
0.0
 49
0.0
 49
0.0
 49
0.0208333333
 49
0.0
 49
0.0
 49
0.0
 49
0.0
 49
1.0
 49
0.0
 49
0.0
 49
0.0
 49
0.0
 49
1.0
175
     0
142
0.0208333333
142
0.0
142
0.0
142
0.0
142
0.0
142
0.0208333333
142
0.0
142
0.0
142
0.0
142
0.0
142
1.0
142
0.0
142
0.0
142
0.0
142
0.0
142
1.0
179
     0
144
0.0208333333
144
0.0
144
0.0
144
0.0
144
0.0
144
0.0208333333
144
0.0
144
0.0
144
0.0
144
0.0
144
1.0
144
0.0
144
0.0
144
0.0
144
0.0
144
1.0
147
0.0208333333
147
0.0
147
0.0
147
0.0
147
0.0
147
0.0208333333
147
0.0
147
0.0
147
0.0
147
0.0
147
1.0
147
0.0
147
0.0
147
0.0
147
0.0
147
1.0
  0
MATERIAL
  5
12DC
102
{ACAD_XDICTIONARY
360
12DD
102
}
102
{ACAD_REACTORS
330
12DB
102
}
330
12DB
100
AcDbMaterial
  1
ByLayer
 72
     0
 43
0.0208333333
 43
0.0
 43
0.0
 43
0.0
 43
0.0
 43
0.0208333333
 43
0.0
 43
0.0
 43
0.0
 43
0.0
 43
1.0
 43
0.0
 43
0.0
 43
0.0
 43
0.0
 43
1.0
 77
     0
 47
0.0208333333
 47
0.0
 47
0.0
 47
0.0
 47
0.0
 47
0.0208333333
 47
0.0
 47
0.0
 47
0.0
 47
0.0
 47
1.0
 47
0.0
 47
0.0
 47
0.0
 47
0.0
 47
1.0
171
     0
 49
0.0208333333
 49
0.0
 49
0.0
 49
0.0
 49
0.0
 49
0.0208333333
 49
0.0
 49
0.0
 49
0.0
 49
0.0
 49
1.0
 49
0.0
 49
0.0
 49
0.0
 49
0.0
 49
1.0
175
     0
142
0.0208333333
142
0.0
142
0.0
142
0.0
142
0.0
142
0.0208333333
142
0.0
142
0.0
142
0.0
142
0.0
142
1.0
142
0.0
142
0.0
142
0.0
142
0.0
142
1.0
179
     0
144
0.0208333333
144
0.0
144
0.0
144
0.0
144
0.0
144
0.0208333333
144
0.0
144
0.0
144
0.0
144
0.0
144
1.0
144
0.0
144
0.0
144
0.0
144
0.0
144
1.0
147
0.0208333333
147
0.0
147
0.0
147
0.0
147
0.0
147
0.0208333333
147
0.0
147
0.0
147
0.0
147
0.0
147
1.0
147
0.0
147
0.0
147
0.0
147
0.0
147
1.0
  0
MATERIAL
  5
12EC
102
{ACAD_XDICTIONARY
360
12ED
102
}
102
{ACAD_REACTORS
330
12DB
102
}
330
12DB
100
AcDbMaterial
  1
Global
 72
     0
 43
0.0208333333
 43
0.0
 43
0.0
 43
0.0
 43
0.0
 43
0.0208333333
 43
0.0
 43
0.0
 43
0.0
 43
0.0
 43
1.0
 43
0.0
 43
0.0
 43
0.0
 43
0.0
 43
1.0
 77
     0
 47
0.0208333333
 47
0.0
 47
0.0
 47
0.0
 47
0.0
 47
0.0208333333
 47
0.0
 47
0.0
 47
0.0
 47
0.0
 47
1.0
 47
0.0
 47
0.0
 47
0.0
 47
0.0
 47
1.0
171
     0
 49
0.0208333333
 49
0.0
 49
0.0
 49
0.0
 49
0.0
 49
0.0208333333
 49
0.0
 49
0.0
 49
0.0
 49
0.0
 49
1.0
 49
0.0
 49
0.0
 49
0.0
 49
0.0
 49
1.0
175
     0
142
0.0208333333
142
0.0
142
0.0
142
0.0
142
0.0
142
0.0208333333
142
0.0
142
0.0
142
0.0
142
0.0
142
1.0
142
0.0
142
0.0
142
0.0
142
0.0
142
1.0
179
     0
144
0.0208333333
144
0.0
144
0.0
144
0.0
144
0.0
144
0.0208333333
144
0.0
144
0.0
144
0.0
144
0.0
144
1.0
144
0.0
144
0.0
144
0.0
144
0.0
144
1.0
147
0.0208333333
147
0.0
147
0.0
147
0.0
147
0.0
147
0.0208333333
147
0.0
147
0.0
147
0.0
147
0.0
147
1.0
147
0.0
147
0.0
147
0.0
147
0.0
147
1.0
  0
MLEADERSTYLE
  5
132B
102
{ACAD_REACTORS
330
132A
102
}
330
132A
100
AcDbMLeaderStyle
170
     2
171
     1
172
     0
 90
        2
 40
0.0
 41
0.0
173
     1
 91
-1056964608
340
6A
 92
       -2
290
     1
 42
0.09
291
     1
 43
0.36
  3
Standard
 44
0.18
300

342
16
174
     1
178
     6
175
     1
176
     0
 93
-1056964608
 45
0.18
292
     0
297
     0
 46
0.18
 94
-1056964608
 47
1.0
 49
1.0
140
1.0
293
     1
141
0.0
294
     1
177
     0
142
1.0
295
     0
296
     0
143
0.125
1001
ACAD_MLEADERVER
1070
     2
  0
MLINESTYLE
  5
78
102
{ACAD_REACTORS
330
76
102
}
330
76
100
AcDbMlineStyle
  2
STANDARD
 70
     0
  3

 62
     0
 51
90.0
 52
90.0
 71
     2
 49
0.5
 62
   256
  6
BYLAYER
 49
-0.5
 62
   256
  6
BYLAYER
  0
ACDBPLACEHOLDER
  5
5
102
{ACAD_REACTORS
330
6
102
}
330
6
  0
SCALE
  5
1309
102
{ACAD_REACTORS
330
1308
102
}
330
1308
100
AcDbScale
 70
     0
300
1:1
140
1.0
141
1.0
290
     1
  0
SCALE
  5
130A
102
{ACAD_REACTORS
330
1308
102
}
330
1308
100
AcDbScale
 70
     0
300
1:2
140
1.0
141
2.0
290
     0
  0
SCALE
  5
130B
102
{ACAD_REACTORS
330
1308
102
}
330
1308
100
AcDbScale
 70
     0
300
1:4
140
1.0
141
4.0
290
     0
  0
SCALE
  5
130C
102
{ACAD_REACTORS
330
1308
102
}
330
1308
100
AcDbScale
 70
     0
300
1:5
140
1.0
141
5.0
290
     0
  0
SCALE
  5
130D
102
{ACAD_REACTORS
330
1308
102
}
330
1308
100
AcDbScale
 70
     0
300
1:8
140
1.0
141
8.0
290
     0
  0
SCALE
  5
130E
102
{ACAD_REACTORS
330
1308
102
}
330
1308
100
AcDbScale
 70
     0
300
1:10
140
1.0
141
10.0
290
     0
  0
SCALE
  5
130F
102
{ACAD_REACTORS
330
1308
102
}
330
1308
100
AcDbScale
 70
     0
300
1:16
140
1.0
141
16.0
290
     0
  0
SCALE
  5
1310
102
{ACAD_REACTORS
330
1308
102
}
330
1308
100
AcDbScale
 70
     0
300
1:20
140
1.0
141
20.0
290
     0
  0
SCALE
  5
1311
102
{ACAD_REACTORS
330
1308
102
}
330
1308
100
AcDbScale
 70
     0
300
1:30
140
1.0
141
30.0
290
     0
  0
SCALE
  5
1312
102
{ACAD_REACTORS
330
1308
102
}
330
1308
100
AcDbScale
 70
     0
300
1:40
140
1.0
141
40.0
290
     0
  0
SCALE
  5
1313
102
{ACAD_REACTORS
330
1308
102
}
330
1308
100
AcDbScale
 70
     0
300
1:50
140
1.0
141
50.0
290
     0
  0
SCALE
  5
1314
102
{ACAD_REACTORS
330
1308
102
}
330
1308
100
AcDbScale
 70
     0
300
1:100
140
1.0
141
100.0
290
     0
  0
SCALE
  5
1315
102
{ACAD_REACTORS
330
1308
102
}
330
1308
100
AcDbScale
 70
     0
300
2:1
140
2.0
141
1.0
290
     0
  0
SCALE
  5
1316
102
{ACAD_REACTORS
330
1308
102
}
330
1308
100
AcDbScale
 70
     0
300
4:1
140
4.0
141
1.0
290
     0
  0
SCALE
  5
1317
102
{ACAD_REACTORS
330
1308
102
}
330
1308
100
AcDbScale
 70
     0
300
8:1
140
8.0
141
1.0
290
     0
  0
SCALE
  5
1318
102
{ACAD_REACTORS
330
1308
102
}
330
1308
100
AcDbScale
 70
     0
300
10:1
140
10.0
141
1.0
290
     0
  0
SCALE
  5
1319
102
{ACAD_REACTORS
330
1308
102
}
330
1308
100
AcDbScale
 70
     0
300
100:1
140
100.0
141
1.0
290
     0
  0
SCALE
  5
131A
102
{ACAD_REACTORS
330
1308
102
}
330
1308
100
AcDbScale
 70
     0
300
1/128" = 1'-0"
140
0.0078125
141
12.0
290
     0
  0
SCALE
  5
131B
102
{ACAD_REACTORS
330
1308
102
}
330
1308
100
AcDbScale
 70
     0
300
1/64" = 1'-0"
140
0.015625
141
12.0
290
     0
  0
SCALE
  5
131C
102
{ACAD_REACTORS
330
1308
102
}
330
1308
100
AcDbScale
 70
     0
300
1/32" = 1'-0"
140
0.03125
141
12.0
290
     0
  0
SCALE
  5
131D
102
{ACAD_REACTORS
330
1308
102
}
330
1308
100
AcDbScale
 70
     0
300
1/16" = 1'-0"
140
0.0625
141
12.0
290
     0
  0
SCALE
  5
131E
102
{ACAD_REACTORS
330
1308
102
}
330
1308
100
AcDbScale
 70
     0
300
3/32" = 1'-0"
140
0.09375
141
12.0
290
     0
  0
SCALE
  5
131F
102
{ACAD_REACTORS
330
1308
102
}
330
1308
100
AcDbScale
 70
     0
300
1/8" = 1'-0"
140
0.125
141
12.0
290
     0
  0
SCALE
  5
1320
102
{ACAD_REACTORS
330
1308
102
}
330
1308
100
AcDbScale
 70
     0
300
3/16" = 1'-0"
140
0.1875
141
12.0
290
     0
  0
SCALE
  5
1321
102
{ACAD_REACTORS
330
1308
102
}
330
1308
100
AcDbScale
 70
     0
300
1/4" = 1'-0"
140
0.25
141
12.0
290
     0
  0
SCALE
  5
1322
102
{ACAD_REACTORS
330
1308
102
}
330
1308
100
AcDbScale
 70
     0
300
3/8" = 1'-0"
140
0.375
141
12.0
290
     0
  0
SCALE
  5
1323
102
{ACAD_REACTORS
330
1308
102
}
330
1308
100
AcDbScale
 70
     0
300
1/2" = 1'-0"
140
0.5
141
12.0
290
     0
  0
SCALE
  5
1324
102
{ACAD_REACTORS
330
1308
102
}
330
1308
100
AcDbScale
 70
     0
300
3/4" = 1'-0"
140
0.75
141
12.0
290
     0
  0
SCALE
  5
1325
102
{ACAD_REACTORS
330
1308
102
}
330
1308
100
AcDbScale
 70
     0
300
1" = 1'-0"
140
1.0
141
12.0
290
     0
  0
SCALE
  5
1326
102
{ACAD_REACTORS
330
1308
102
}
330
1308
100
AcDbScale
 70
     0
300
1-1/2" = 1'-0"
140
1.5
141
12.0
290
     0
  0
SCALE
  5
1327
102
{ACAD_REACTORS
330
1308
102
}
330
1308
100
AcDbScale
 70
     0
300
3" = 1'-0"
140
3.0
141
12.0
290
     0
  0
SCALE
  5
1328
102
{ACAD_REACTORS
330
1308
102
}
330
1308
100
AcDbScale
 70
     0
300
6" = 1'-0"
140
6.0
141
12.0
290
     0
  0
SCALE
  5
1329
102
{ACAD_REACTORS
330
1308
102
}
330
1308
100
AcDbScale
 70
     0
300
1'-0" = 1'-0"
140
12.0
141
12.0
290
     0
  0
ACDBSECTIONVIEWSTYLE
  5
13CA
102
{ACAD_XDICTIONARY
360
169D
102
}
102
{ACAD_REACTORS
330
13C9
102
}
330
13C9
100
AcDbModelDocViewStyle
 70
     0
  3
Imperial24
290
     0
100
AcDbSectionViewStyle
 70
     0
 71
     0
 90
       78
 71
     1
340
16
 40
0.24
340
0
340
0
 40
0.24
300
I, O, Q, S, X, Z
 40
0.48
 90
        3
 40
0.18
 90
        1
 71
     2
340
8
 90
       25
340
8
 90
       50
 40
0.24
 40
0.0
 40
0.24
 71
     3
340
16
 40
0.24
 90
        1
 40
0.75
 90
        1
300
%<\AcVar ViewType \f "%tc1">% %<\AcVar ViewSectionStartId>%-%<\AcVar ViewSectionEndId>%\PSCALE %<\AcVar ViewScale \f "%sn">%
 71
     4
300
ANSI31
 40
1.0
 90
        0
290
     0
290
     0
 90
        6
 40
0.0
 40
1.5707963268
 40
0.2617993878
 40
1.308996939
 40
-0.2617993878
 40
1.8325957146
  0
TABLESTYLE
  5
1307
102
{ACAD_XDICTIONARY
360
1342
102
}
102
{ACAD_REACTORS
330
1306
102
}
330
1306
100
AcDbTableStyle
  3
Standard
 70
     0
 71
     0
 40
0.06
 41
0.06
280
     0
281
     0
  7
STANDARD
140
0.18
170
     2
 62
     0
 63
     7
283
     0
274
    -2
284
     1
 64
     0
275
    -2
285
     1
 65
     0
276
    -2
286
     1
 66
     0
277
    -2
287
     1
 67
     0
278
    -2
288
     1
 68
     0
279
    -2
289
     1
 69
     0
  7
STANDARD
140
0.25
170
     5
 62
     0
 63
     7
283
     0
274
    -2
284
     1
 64
     0
275
    -2
285
     1
 65
     0
276
    -2
286
     1
 66
     0
277
    -2
287
     1
 67
     0
278
    -2
288
     1
 68
     0
279
    -2
289
     1
 69
     0
  7
STANDARD
140
0.18
170
     5
 62
     0
 63
     7
283
     0
274
    -2
284
     1
 64
     0
275
    -2
285
     1
 65
     0
276
    -2
286
     1
 66
     0
277
    -2
287
     1
 67
     0
278
    -2
288
     1
 68
     0
279
    -2
289
     1
 69
     0
  0
VISUALSTYLE
  5
12FA
102
{ACAD_XDICTIONARY
360
1672
102
}
102
{ACAD_REACTORS
330
12F4
102
}
330
12F4
100
AcDbVisualStyle
  2
2dWireframe
 70
     4
 71
     0
 72
     2
 73
     0
 90
        0
 40
-0.6
 41
-30.0
 62
     5
 63
     7
 74
     1
 91
        4
 64
     7
 65
   257
 75
     1
175
     1
 42
1.0
 92
        0
 66
   257
 43
1.0
 76
     1
 77
     6
 78
     2
 67
     7
 79
     5
170
     0
171
     0
290
     0
174
     0
 93
        1
 44
0.0
173
     0
291
     0
 45
0.0
1001
ACAD
1000
AcDbSavedByObjectVersion
1070
     0
  0
VISUALSTYLE
  5
12FC
102
{ACAD_XDICTIONARY
360
1676
102
}
102
{ACAD_REACTORS
330
12F4
102
}
330
12F4
100
AcDbVisualStyle
  2
3D Hidden
 70
     6
 71
     1
 72
     2
 73
     2
 90
        0
 40
-0.6
 41
-30.0
 62
     5
 63
     7
 74
     2
 91
        2
 64
     7
 65
   257
 75
     2
175
     1
 42
40.0
 92
        0
 66
   257
 43
1.0
 76
     1
 77
     6
 78
     2
 67
     7
 79
     3
170
     0
171
     0
290
     0
174
     0
 93
        1
 44
0.0
173
     0
291
     0
 45
0.0
1001
ACAD
1000
AcDbSavedByObjectVersion
1070
     0
  0
VISUALSTYLE
  5
12FB
102
{ACAD_XDICTIONARY
360
1674
102
}
102
{ACAD_REACTORS
330
12F4
102
}
330
12F4
100
AcDbVisualStyle
  2
3dWireframe
 70
     5
 71
     0
 72
     2
 73
     0
 90
        0
 40
-0.6
 41
-30.0
 62
     5
 63
     7
 74
     1
 91
        4
 64
     7
 65
   257
 75
     1
175
     1
 42
1.0
 92
        0
 66
   257
 43
1.0
 76
     1
 77
     6
 78
     2
 67
     7
 79
     5
170
     0
171
     0
290
     0
174
     0
 93
        1
 44
0.0
173
     0
291
     0
 45
0.0
1001
ACAD
1000
AcDbSavedByObjectVersion
1070
     0
  0
VISUALSTYLE
  5
12F9
102
{ACAD_XDICTIONARY
360
1670
102
}
102
{ACAD_REACTORS
330
12F4
102
}
330
12F4
100
AcDbVisualStyle
  2
Basic
 70
     7
 71
     1
 72
     0
 73
     1
 90
        0
 40
-0.6
 41
-30.0
 62
     5
 63
     7
 74
     0
 91
        4
 64
     7
 65
   257
 75
     1
175
     1
 42
1.0
 92
        8
 66
     7
 43
1.0
 76
     1
 77
     6
 78
     2
 67
     7
 79
     5
170
     0
171
     0
290
     0
174
     0
 93
        1
 44
0.0
173
     0
291
     1
 45
0.0
1001
ACAD
1000
AcDbSavedByObjectVersion
1070
     0
  0
VISUALSTYLE
  5
1300
102
{ACAD_XDICTIONARY
360
167E
102
}
102
{ACAD_REACTORS
330
12F4
102
}
330
12F4
100
AcDbVisualStyle
  2
Brighten
 70
    12
 71
     2
 72
     2
 73
     0
 90
        0
 40
-0.6
 41
-30.0
 62
     5
 63
     7
 74
     1
 91
        4
 64
     7
 65
   257
 75
     1
175
     1
 42
1.0
 92
        8
 66
     7
 43
1.0
 76
     1
 77
     6
 78
     2
 67
     7
 79
     5
170
     0
171
     0
290
     0
174
     0
 93
        1
 44
50.0
173
     0
291
     1
 45
0.0
1001
ACAD
1000
AcDbSavedByObjectVersion
1070
     0
  0
VISUALSTYLE
  5
1304
102
{ACAD_XDICTIONARY
360
1686
102
}
102
{ACAD_REACTORS
330
12F4
102
}
330
12F4
100
AcDbVisualStyle
  2
ColorChange
 70
    16
 71
     2
 72
     2
 73
     3
 90
        0
 40
-0.6
 41
-30.0
 62
     5
 63
     8
 74
     1
 91
        4
 64
     7
 65
   257
 75
     1
175
     1
 42
1.0
 92
        8
 66
     8
 43
1.0
 76
     1
 77
     6
 78
     2
 67
     7
 79
     5
170
     0
171
     0
290
     0
174
     0
 93
        1
 44
0.0
173
     0
291
     1
 45
0.0
1001
ACAD
1000
AcDbSavedByObjectVersion
1070
     0
  0
VISUALSTYLE
  5
12FD
102
{ACAD_XDICTIONARY
360
1678
102
}
102
{ACAD_REACTORS
330
12F4
102
}
330
12F4
100
AcDbVisualStyle
  2
Conceptual
 70
     9
 71
     3
 72
     2
 73
     0
 90
        0
 40
-0.6
 41
-30.0
 62
     5
 63
     7
 74
     2
 91
        2
 64
     7
 65
   257
 75
     1
175
     1
 42
40.0
 92
        8
 66
     7
 43
1.0
 76
     1
 77
     6
 78
     2
 67
     7
 79
     3
170
     0
171
     0
290
     0
174
     0
 93
        1
 44
0.0
173
     0
291
     0
 45
0.0
1001
ACAD
1000
AcDbSavedByObjectVersion
1070
     0
  0
VISUALSTYLE
  5
12FF
102
{ACAD_XDICTIONARY
360
167C
102
}
102
{ACAD_REACTORS
330
12F4
102
}
330
12F4
100
AcDbVisualStyle
  2
Dim
 70
    11
 71
     2
 72
     2
 73
     0
 90
        0
 40
-0.6
 41
-30.0
 62
     5
 63
     7
 74
     1
 91
        4
 64
     7
 65
   257
 75
     1
175
     1
 42
1.0
 92
        8
 66
     7
 43
1.0
 76
     1
 77
     6
 78
     2
 67
     7
 79
     5
170
     0
171
     0
290
     0
174
     0
 93
        1
 44
-50.0
173
     0
291
     1
 45
0.0
1001
ACAD
1000
AcDbSavedByObjectVersion
1070
     0
  0
VISUALSTYLE
  5
13C8
102
{ACAD_XDICTIONARY
360
169B
102
}
102
{ACAD_REACTORS
330
12F4
102
}
330
12F4
100
AcDbVisualStyle
  2
EdgeColorOff
 70
    22
 71
     2
 72
     2
 73
     0
 90
        0
 40
-0.6
 41
-30.0
 62
     5
 63
     7
 74
     1
 91
        4
 64
     7
 65
   257
 75
     1
175
     1
 42
1.0
 92
        8
 66
     7
 43
1.0
 76
     1
 77
     6
 78
     2
 67
     7
 79
     5
170
     0
171
     0
290
     0
174
     0
 93
        1
 44
0.0
173
     0
291
     1
 45
0.0
1001
ACAD
1000
AcDbSavedByObjectVersion
1070
     0
  0
VISUALSTYLE
  5
1303
102
{ACAD_XDICTIONARY
360
1684
102
}
102
{ACAD_REACTORS
330
12F4
102
}
330
12F4
100
AcDbVisualStyle
  2
Facepattern
 70
    15
 71
     2
 72
     2
 73
     0
 90
        0
 40
-0.6
 41
-30.0
 62
     5
 63
     7
 74
     1
 91
        4
 64
     7
 65
   257
 75
     1
175
     1
 42
1.0
 92
        8
 66
     7
 43
1.0
 76
     1
 77
     6
 78
     2
 67
     7
 79
     5
170
     0
171
     0
290
     0
174
     0
 93
        1
 44
0.0
173
     0
291
     1
 45
0.0
1001
ACAD
1000
AcDbSavedByObjectVersion
1070
     0
  0
VISUALSTYLE
  5
12F5
102
{ACAD_XDICTIONARY
360
1668
102
}
102
{ACAD_REACTORS
330
12F4
102
}
330
12F4
100
AcDbVisualStyle
  2
Flat
 70
     0
 71
     2
 72
     1
 73
     1
 90
        2
 40
-0.6
 41
30.0
 62
     5
 63
     7
 74
     0
 91
        4
 64
     7
 65
   257
 75
     1
175
     1
 42
1.0
 92
        8
 66
     7
 43
1.0
 76
     1
 77
     6
 78
     2
 67
     7
 79
     5
170
     0
171
     0
290
     0
174
     0
 93
       13
 44
0.0
173
     0
291
     1
 45
0.0
1001
ACAD
1000
AcDbSavedByObjectVersion
1070
     0
  0
VISUALSTYLE
  5
12F6
102
{ACAD_XDICTIONARY
360
166A
102
}
102
{ACAD_REACTORS
330
12F4
102
}
330
12F4
100
AcDbVisualStyle
  2
FlatWithEdges
 70
     1
 71
     2
 72
     1
 73
     1
 90
        2
 40
-0.6
 41
30.0
 62
     5
 63
     7
 74
     1
 91
        4
 64
     7
 65
   257
 75
     1
175
     1
 42
1.0
 92
        0
 66
   257
 43
1.0
 76
     1
 77
     6
 78
     2
 67
     7
 79
     5
170
     0
171
     0
290
     0
174
     0
 93
       13
 44
0.0
173
     0
291
     1
 45
0.0
1001
ACAD
1000
AcDbSavedByObjectVersion
1070
     0
  0
VISUALSTYLE
  5
12F7
102
{ACAD_XDICTIONARY
360
166C
102
}
102
{ACAD_REACTORS
330
12F4
102
}
330
12F4
100
AcDbVisualStyle
  2
Gouraud
 70
     2
 71
     2
 72
     2
 73
     1
 90
        2
 40
-0.6
 41
30.0
 62
     5
 63
     7
 74
     0
 91
        4
 64
     7
 65
   257
 75
     1
175
     1
 42
1.0
 92
        0
 66
     7
 43
1.0
 76
     1
 77
     6
 78
     2
 67
     7
 79
     5
170
     0
171
     0
290
     0
174
     0
 93
       13
 44
0.0
173
     0
291
     1
 45
0.0
1001
ACAD
1000
AcDbSavedByObjectVersion
1070
     0
  0
VISUALSTYLE
  5
12F8
102
{ACAD_XDICTIONARY
360
166E
102
}
102
{ACAD_REACTORS
330
12F4
102
}
330
12F4
100
AcDbVisualStyle
  2
GouraudWithEdges
 70
     3
 71
     2
 72
     2
 73
     1
 90
        2
 40
-0.6
 41
30.0
 62
     5
 63
     7
 74
     1
 91
        4
 64
     7
 65
   257
 75
     1
175
     1
 42
1.0
 92
        0
 66
   257
 43
1.0
 76
     1
 77
     6
 78
     2
 67
     7
 79
     5
170
     0
171
     0
290
     0
174
     0
 93
       13
 44
0.0
173
     0
291
     1
 45
0.0
1001
ACAD
1000
AcDbSavedByObjectVersion
1070
     0
  0
VISUALSTYLE
  5
13C0
102
{ACAD_XDICTIONARY
360
168B
102
}
102
{ACAD_REACTORS
330
12F4
102
}
330
12F4
100
AcDbVisualStyle
  2
Hidden
 70
     6
 71
     1
 72
     2
 73
     2
 90
        0
 40
-0.6
 41
-30.0
 62
     5
 63
     7
 74
     2
 91
        2
 64
     7
 65
   257
 75
     2
175
     1
 42
40.0
 92
        0
 66
   257
 43
1.0
 76
     1
 77
     6
 78
     2
 67
     7
 79
     3
170
     0
171
     0
290
     0
174
     0
 93
        1
 44
0.0
173
     0
291
     0
 45
0.0
1001
ACAD
1000
AcDbSavedByObjectVersion
1070
     0
  0
VISUALSTYLE
  5
13C6
102
{ACAD_XDICTIONARY
360
1697
102
}
102
{ACAD_REACTORS
330
12F4
102
}
330
12F4
100
AcDbVisualStyle
  2
JitterOff
 70
    20
 71
     2
 72
     2
 73
     0
 90
        0
 40
-0.6
 41
-30.0
 62
     5
 63
     7
 74
     1
 91
        4
 64
     7
 65
   257
 75
     1
175
     1
 42
1.0
 92
       10
 66
     7
 43
1.0
 76
     1
 77
     6
 78
     2
 67
     7
 79
     5
170
     0
171
     0
290
     0
174
     0
 93
        1
 44
0.0
173
     0
291
     1
 45
0.0
1001
ACAD
1000
AcDbSavedByObjectVersion
1070
     0
  0
VISUALSTYLE
  5
1302
102
{ACAD_XDICTIONARY
360
1682
102
}
102
{ACAD_REACTORS
330
12F4
102
}
330
12F4
100
AcDbVisualStyle
  2
Linepattern
 70
    14
 71
     2
 72
     2
 73
     0
 90
        0
 40
-0.6
 41
-30.0
 62
     5
 63
     7
 74
     1
 91
        4
 64
     7
 65
   257
 75
     7
175
     7
 42
1.0
 92
        8
 66
     7
 43
1.0
 76
     1
 77
     6
 78
     2
 67
     7
 79
     5
170
     0
171
     0
290
     0
174
     0
 93
        1
 44
0.0
173
     0
291
     1
 45
0.0
1001
ACAD
1000
AcDbSavedByObjectVersion
1070
     0
  0
VISUALSTYLE
  5
13C7
102
{ACAD_XDICTIONARY
360
1699
102
}
102
{ACAD_REACTORS
330
12F4
102
}
330
12F4
100
AcDbVisualStyle
  2
OverhangOff
 70
    21
 71
     2
 72
     2
 73
     0
 90
        0
 40
-0.6
 41
-30.0
 62
     5
 63
     7
 74
     1
 91
        4
 64
     7
 65
   257
 75
     1
175
     1
 42
1.0
 92
        9
 66
     7
 43
1.0
 76
     1
 77
     6
 78
     2
 67
     7
 79
     5
170
     0
171
     0
290
     0
174
     0
 93
        1
 44
0.0
173
     0
291
     1
 45
0.0
1001
ACAD
1000
AcDbSavedByObjectVersion
1070
     0
  0
VISUALSTYLE
  5
12FE
102
{ACAD_XDICTIONARY
360
167A
102
}
102
{ACAD_REACTORS
330
12F4
102
}
330
12F4
100
AcDbVisualStyle
  2
Realistic
 70
     8
 71
     2
 72
     2
 73
     0
 90
        0
 40
-0.6
 41
-30.0
 62
     5
 63
     7
 74
     1
 91
        0
 64
     7
 65
   257
 75
     1
175
     1
 42
1.0
 92
        8
 66
     8
 43
1.0
 76
     1
 77
     6
 78
     2
 67
     7
 79
     5
170
     0
171
     0
290
     0
174
     0
 93
       13
 44
0.0
173
     0
291
     0
 45
0.0
1001
ACAD
1000
AcDbSavedByObjectVersion
1070
     0
  0
VISUALSTYLE
  5
13C5
102
{ACAD_XDICTIONARY
360
1695
102
}
102
{ACAD_REACTORS
330
12F4
102
}
330
12F4
100
AcDbVisualStyle
  2
Shaded
 70
    27
 71
     2
 72
     2
 73
     1
 90
        2
 40
-0.6
 41
30.0
 62
     5
 63
     7
 74
     0
 91
        4
 64
     7
 65
   257
 75
     1
175
     1
 42
1.0
 92
        8
 66
   257
 43
1.0
 76
     1
 77
     6
 78
     2
 67
     8
 79
     3
170
     0
171
     0
290
     0
174
     0
 93
        5
 44
0.0
173
     0
291
     0
 45
0.0
1001
ACAD
1000
AcDbSavedByObjectVersion
1070
     0
  0
VISUALSTYLE
  5
13C4
102
{ACAD_XDICTIONARY
360
1693
102
}
102
{ACAD_REACTORS
330
12F4
102
}
330
12F4
100
AcDbVisualStyle
  2
Shaded with edges
 70
    26
 71
     2
 72
     2
 73
     1
 90
        2
 40
-0.6
 41
30.0
 62
     5
 63
     7
 74
     1
 91
        2
 64
     7
 65
   257
 75
     2
175
     1
 42
1.0
 92
        8
 66
   257
 43
1.0
 76
     1
 77
     6
 78
     2
 67
     7
 79
     3
170
     0
171
     0
290
     0
174
     0
 93
        5
 44
0.0
173
     0
291
     0
 45
0.0
1001
ACAD
1000
AcDbSavedByObjectVersion
1070
     0
  0
VISUALSTYLE
  5
13C1
102
{ACAD_XDICTIONARY
360
168D
102
}
102
{ACAD_REACTORS
330
12F4
102
}
330
12F4
100
AcDbVisualStyle
  2
Shades of Gray
 70
    23
 71
     2
 72
     2
 73
     3
 90
        0
 40
-0.6
 41
-30.0
 62
     5
 63
     7
 74
     2
 91
        2
 64
     7
 65
     7
 75
     1
175
     1
 42
40.0
 92
        8
 66
     7
 43
1.0
 76
     1
 77
     6
 78
     2
 67
     7
 79
     3
170
     0
171
     0
290
     0
174
     0
 93
        1
 44
0.0
173
     0
291
     0
 45
0.0
1001
ACAD
1000
AcDbSavedByObjectVersion
1070
     0
  0
VISUALSTYLE
  5
13C2
102
{ACAD_XDICTIONARY
360
168F
102
}
102
{ACAD_REACTORS
330
12F4
102
}
330
12F4
100
AcDbVisualStyle
  2
Sketchy
 70
    24
 71
     1
 72
     2
 73
     2
 90
        0
 40
-0.6
 41
-30.0
 62
     5
 63
     7
 74
     2
 91
        2
 64
     7
 65
     7
 75
     1
175
     1
 42
40.0
 92
       11
 66
     7
 43
1.0
 76
     1
 77
     6
 78
     2
 67
     7
 79
     6
170
     0
171
     0
290
     0
174
     0
 93
        1
 44
0.0
173
     0
291
     0
 45
0.0
1001
ACAD
1000
AcDbSavedByObjectVersion
1070
     0
  0
VISUALSTYLE
  5
1301
102
{ACAD_XDICTIONARY
360
1680
102
}
102
{ACAD_REACTORS
330
12F4
102
}
330
12F4
100
AcDbVisualStyle
  2
Thicken
 70
    13
 71
     2
 72
     2
 73
     0
 90
        0
 40
-0.6
 41
-30.0
 62
     5
 63
     7
 74
     1
 91
        4
 64
     7
 65
   257
 75
     1
175
     1
 42
1.0
 92
       12
 66
     7
 43
1.0
 76
     1
 77
     6
 78
     2
 67
     7
 79
     5
170
     0
171
     0
290
     0
174
     0
 93
        1
 44
0.0
173
     0
291
     1
 45
0.0
1001
ACAD
1000
AcDbSavedByObjectVersion
1070
     0
  0
VISUALSTYLE
  5
13BF
102
{ACAD_XDICTIONARY
360
1689
102
}
102
{ACAD_REACTORS
330
12F4
102
}
330
12F4
100
AcDbVisualStyle
  2
Wireframe
 70
     5
 71
     0
 72
     2
 73
     0
 90
        0
 40
-0.6
 41
-30.0
 62
     5
 63
     7
 74
     1
 91
        4
 64
     7
 65
   257
 75
     1
175
     1
 42
1.0
 92
        0
 66
   257
 43
1.0
 76
     1
 77
     6
 78
     2
 67
     7
 79
     3
170
     0
171
     0
290
     0
174
     0
 93
        1
 44
0.0
173
     0
291
     0
 45
0.0
1001
ACAD
1000
AcDbSavedByObjectVersion
1070
     0
  0
VISUALSTYLE
  5
13C3
102
{ACAD_XDICTIONARY
360
1691
102
}
102
{ACAD_REACTORS
330
12F4
102
}
330
12F4
100
AcDbVisualStyle
  2
X-Ray
 70
    25
 71
     2
 72
     2
 73
     1
 90
        1
 40
0.5
 41
-30.0
 62
     5
 63
     7
 74
     1
 91
        0
 64
     7
 65
   257
 75
     1
175
     1
 42
1.0
 92
        8
 66
     7
 43
1.0
 76
     1
 77
     6
 78
     2
 67
     7
 79
     3
170
     0
171
     0
290
     0
174
     0
 93
       13
 44
0.0
173
     0
291
     0
 45
0.0
1001
ACAD
1000
AcDbSavedByObjectVersion
1070
     0
  0
DICTIONARYVAR
  5
1341
102
{ACAD_REACTORS
330
102
102
}
330
102
100
DictionaryVariables
280
     0
  1
1:1
  0
DICTIONARYVAR
  5
1340
102
{ACAD_REACTORS
330
102
102
}
330
102
100
DictionaryVariables
280
     0
  1
STANDARD
  0
DICTIONARYVAR
  5
133F
102
{ACAD_REACTORS
330
102
102
}
330
102
100
DictionaryVariables
280
     0
  1
STANDARD
  0
DICTIONARYVAR
  5
1431
102
{ACAD_REACTORS
330
102
102
}
330
102
100
DictionaryVariables
280
     0
  1
Imperial24
  0
DICTIONARYVAR
  5
1432
102
{ACAD_REACTORS
330
102
102
}
330
102
100
DictionaryVariables
280
     0
  1
Imperial24
  0
DICTIONARYVAR
  5
103
102
{ACAD_REACTORS
330
102
102
}
330
102
100
DictionaryVariables
280
     0
  1
1
  0
DICTIONARYVAR
  5
1380
102
{ACAD_REACTORS
330
102
102
}
330
102
100
DictionaryVariables
280
     0
  1
0
  0
DICTIONARYVAR
  5
137F
102
{ACAD_REACTORS
330
102
102
}
330
102
100
DictionaryVariables
280
     0
  1
127
  0
DICTIONARYVAR
  5
164B
102
{ACAD_REACTORS
330
102
102
}
330
102
100
DictionaryVariables
280
     0
  1
2
  0
DICTIONARY
  5
169F
330
13CC
100
AcDbDictionary
280
     1
281
     1
  3
ACAD_XREC_ROUNDTRIP
360
16A0
  0
DICTIONARY
  5
164F
330
60
100
AcDbDictionary
280
     1
281
     1
  3
ACAD_XREC_ROUNDTRIP
360
1650
  0
DICTIONARY
  5
16A1
330
1647
100
AcDbDictionary
280
     1
281
     1
  3
ACAD_XREC_ROUNDTRIP
360
16A2
  0
DICTIONARY
  5
12E5
330
12E4
100
AcDbDictionary
280
     1
281
     1
  3
ACAD_XREC_ROUNDTRIP
360
1666
  3
BUMPTILE
360
12E7
  3
DIFFUSETILE
360
12E6
  3
OPACITYTILE
360
12EA
  3
REFLECTIONTILE
360
12E9
  3
REFRACTIONTILE
360
12EB
  3
SPECULARTILE
360
12E8
  0
DICTIONARY
  5
12DD
330
12DC
100
AcDbDictionary
280
     1
281
     1
  3
ACAD_XREC_ROUNDTRIP
360
1665
  3
BUMPTILE
360
12DF
  3
DIFFUSETILE
360
12DE
  3
OPACITYTILE
360
12E2
  3
REFLECTIONTILE
360
12E1
  3
REFRACTIONTILE
360
12E3
  3
SPECULARTILE
360
12E0
  0
DICTIONARY
  5
12ED
330
12EC
100
AcDbDictionary
280
     1
281
     1
  3
ACAD_XREC_ROUNDTRIP
360
1667
  3
BUMPTILE
360
12EF
  3
DIFFUSETILE
360
12EE
  3
OPACITYTILE
360
12F2
  3
REFLECTIONTILE
360
12F1
  3
REFRACTIONTILE
360
12F3
  3
SPECULARTILE
360
12F0
  0
DICTIONARY
  5
169D
330
13CA
100
AcDbDictionary
280
     1
281
     1
  3
ACAD_XREC_ROUNDTRIP
360
169E
  0
DICTIONARY
  5
1342
330
1307
100
AcDbDictionary
280
     1
281
     1
  3
ACAD_ROUNDTRIP_2008_TABLESTYLE_CELLSTYLEMAP
360
164C
  3
ACAD_XREC_ROUNDTRIP
360
1688
  0
DICTIONARY
  5
1672
330
12FA
100
AcDbDictionary
280
     1
281
     1
  3
ACAD_XREC_ROUNDTRIP
360
1673
  0
DICTIONARY
  5
1676
330
12FC
100
AcDbDictionary
280
     1
281
     1
  3
ACAD_XREC_ROUNDTRIP
360
1677
  0
DICTIONARY
  5
1674
330
12FB
100
AcDbDictionary
280
     1
281
     1
  3
ACAD_XREC_ROUNDTRIP
360
1675
  0
DICTIONARY
  5
1670
330
12F9
100
AcDbDictionary
280
     1
281
     1
  3
ACAD_XREC_ROUNDTRIP
360
1671
  0
DICTIONARY
  5
167E
330
1300
100
AcDbDictionary
280
     1
281
     1
  3
ACAD_XREC_ROUNDTRIP
360
167F
  0
DICTIONARY
  5
1686
330
1304
100
AcDbDictionary
280
     1
281
     1
  3
ACAD_XREC_ROUNDTRIP
360
1687
  0
DICTIONARY
  5
1678
330
12FD
100
AcDbDictionary
280
     1
281
     1
  3
ACAD_XREC_ROUNDTRIP
360
1679
  0
DICTIONARY
  5
167C
330
12FF
100
AcDbDictionary
280
     1
281
     1
  3
ACAD_XREC_ROUNDTRIP
360
167D
  0
DICTIONARY
  5
169B
330
13C8
100
AcDbDictionary
280
     1
281
     1
  3
ACAD_XREC_ROUNDTRIP
360
169C
  0
DICTIONARY
  5
1684
330
1303
100
AcDbDictionary
280
     1
281
     1
  3
ACAD_XREC_ROUNDTRIP
360
1685
  0
DICTIONARY
  5
1668
330
12F5
100
AcDbDictionary
280
     1
281
     1
  3
ACAD_XREC_ROUNDTRIP
360
1669
  0
DICTIONARY
  5
166A
330
12F6
100
AcDbDictionary
280
     1
281
     1
  3
ACAD_XREC_ROUNDTRIP
360
166B
  0
DICTIONARY
  5
166C
330
12F7
100
AcDbDictionary
280
     1
281
     1
  3
ACAD_XREC_ROUNDTRIP
360
166D
  0
DICTIONARY
  5
166E
330
12F8
100
AcDbDictionary
280
     1
281
     1
  3
ACAD_XREC_ROUNDTRIP
360
166F
  0
DICTIONARY
  5
168B
330
13C0
100
AcDbDictionary
280
     1
281
     1
  3
ACAD_XREC_ROUNDTRIP
360
168C
  0
DICTIONARY
  5
1697
330
13C6
100
AcDbDictionary
280
     1
281
     1
  3
ACAD_XREC_ROUNDTRIP
360
1698
  0
DICTIONARY
  5
1682
330
1302
100
AcDbDictionary
280
     1
281
     1
  3
ACAD_XREC_ROUNDTRIP
360
1683
  0
DICTIONARY
  5
1699
330
13C7
100
AcDbDictionary
280
     1
281
     1
  3
ACAD_XREC_ROUNDTRIP
360
169A
  0
DICTIONARY
  5
167A
330
12FE
100
AcDbDictionary
280
     1
281
     1
  3
ACAD_XREC_ROUNDTRIP
360
167B
  0
DICTIONARY
  5
1695
330
13C5
100
AcDbDictionary
280
     1
281
     1
  3
ACAD_XREC_ROUNDTRIP
360
1696
  0
DICTIONARY
  5
1693
330
13C4
100
AcDbDictionary
280
     1
281
     1
  3
ACAD_XREC_ROUNDTRIP
360
1694
  0
DICTIONARY
  5
168D
330
13C1
100
AcDbDictionary
280
     1
281
     1
  3
ACAD_XREC_ROUNDTRIP
360
168E
  0
DICTIONARY
  5
168F
330
13C2
100
AcDbDictionary
280
     1
281
     1
  3
ACAD_XREC_ROUNDTRIP
360
1690
  0
DICTIONARY
  5
1680
330
1301
100
AcDbDictionary
280
     1
281
     1
  3
ACAD_XREC_ROUNDTRIP
360
1681
  0
DICTIONARY
  5
1689
330
13BF
100
AcDbDictionary
280
     1
281
     1
  3
ACAD_XREC_ROUNDTRIP
360
168A
  0
DICTIONARY
  5
1691
330
13C3
100
AcDbDictionary
280
     1
281
     1
  3
ACAD_XREC_ROUNDTRIP
360
1692
  0
XRECORD
  5
16A0
102
{ACAD_REACTORS
330
169F
102
}
330
169F
100
AcDbXrecord
280
     1
102
DISPLAYNAME
  1
Imperial24
102
FLAGS
 90
        0
  0
XRECORD
  5
1650
102
{ACAD_REACTORS
330
164F
102
}
330
164F
100
AcDbXrecord
280
     1
102
SHADEPLOT
 70
     0
102
SHADEPLOTRESLEVEL
 70
     2
102
SHADEPLOTCUSTOMDPI
 70
   300
  0
XRECORD
  5
16A2
102
{ACAD_REACTORS
330
16A1
102
}
330
16A1
100
AcDbXrecord
280
     1
102
SHADEPLOT
 70
     0
102
SHADEPLOTRESLEVEL
 70
     2
102
SHADEPLOTCUSTOMDPI
 70
   300
  0
XRECORD
  5
1666
102
{ACAD_REACTORS
330
12E5
102
}
330
12E5
100
AcDbXrecord
280
     1
102
MATERIAL
148
0.0
149
0.0
149
0.0
 93
        0
 94
      127
282
     0
 72
     0
 77
     0
171
     0
175
     0
179
     0
273
     0
  0
XRECORD
  5
12E7
102
{ACAD_REACTORS
330
12E5
102
}
330
12E5
100
AcDbXrecord
280
     1
270
     1
271
     1
  0
XRECORD
  5
12E6
102
{ACAD_REACTORS
330
12E5
102
}
330
12E5
100
AcDbXrecord
280
     1
270
     1
271
     1
  0
XRECORD
  5
12EA
102
{ACAD_REACTORS
330
12E5
102
}
330
12E5
100
AcDbXrecord
280
     1
270
     1
271
     1
  0
XRECORD
  5
12E9
102
{ACAD_REACTORS
330
12E5
102
}
330
12E5
100
AcDbXrecord
280
     1
270
     1
271
     1
  0
XRECORD
  5
12EB
102
{ACAD_REACTORS
330
12E5
102
}
330
12E5
100
AcDbXrecord
280
     1
270
     1
271
     1
  0
XRECORD
  5
12E8
102
{ACAD_REACTORS
330
12E5
102
}
330
12E5
100
AcDbXrecord
280
     1
270
     1
271
     1
  0
XRECORD
  5
1665
102
{ACAD_REACTORS
330
12DD
102
}
330
12DD
100
AcDbXrecord
280
     1
102
MATERIAL
148
0.0
149
0.0
149
0.0
 93
        0
 94
      127
282
     0
 72
     0
 77
     0
171
     0
175
     0
179
     0
273
     0
  0
XRECORD
  5
12DF
102
{ACAD_REACTORS
330
12DD
102
}
330
12DD
100
AcDbXrecord
280
     1
270
     1
271
     1
  0
XRECORD
  5
12DE
102
{ACAD_REACTORS
330
12DD
102
}
330
12DD
100
AcDbXrecord
280
     1
270
     1
271
     1
  0
XRECORD
  5
12E2
102
{ACAD_REACTORS
330
12DD
102
}
330
12DD
100
AcDbXrecord
280
     1
270
     1
271
     1
  0
XRECORD
  5
12E1
102
{ACAD_REACTORS
330
12DD
102
}
330
12DD
100
AcDbXrecord
280
     1
270
     1
271
     1
  0
XRECORD
  5
12E3
102
{ACAD_REACTORS
330
12DD
102
}
330
12DD
100
AcDbXrecord
280
     1
270
     1
271
     1
  0
XRECORD
  5
12E0
102
{ACAD_REACTORS
330
12DD
102
}
330
12DD
100
AcDbXrecord
280
     1
270
     1
271
     1
  0
XRECORD
  5
1667
102
{ACAD_REACTORS
330
12ED
102
}
330
12ED
100
AcDbXrecord
280
     1
102
MATERIAL
148
0.0
149
0.0
149
0.0
 93
        0
 94
      127
282
     0
 72
     0
 77
     0
171
     0
175
     0
179
     0
273
     0
  0
XRECORD
  5
12EF
102
{ACAD_REACTORS
330
12ED
102
}
330
12ED
100
AcDbXrecord
280
     1
270
     1
271
     1
  0
XRECORD
  5
12EE
102
{ACAD_REACTORS
330
12ED
102
}
330
12ED
100
AcDbXrecord
280
     1
270
     1
271
     1
  0
XRECORD
  5
12F2
102
{ACAD_REACTORS
330
12ED
102
}
330
12ED
100
AcDbXrecord
280
     1
270
     1
271
     1
  0
XRECORD
  5
12F1
102
{ACAD_REACTORS
330
12ED
102
}
330
12ED
100
AcDbXrecord
280
     1
270
     1
271
     1
  0
XRECORD
  5
12F3
102
{ACAD_REACTORS
330
12ED
102
}
330
12ED
100
AcDbXrecord
280
     1
270
     1
271
     1
  0
XRECORD
  5
12F0
102
{ACAD_REACTORS
330
12ED
102
}
330
12ED
100
AcDbXrecord
280
     1
270
     1
271
     1
  0
XRECORD
  5
169E
102
{ACAD_REACTORS
330
169D
102
}
330
169D
100
AcDbXrecord
280
     1
102
DISPLAYNAME
  1
Imperial24
102
FLAGS
 90
        0
  0
CELLSTYLEMAP
  5
164C
102
{ACAD_REACTORS
330
1342
102
}
330
1342
100
AcDbCellStyleMap
 90
        3
300
CELLSTYLE
  1
TABLEFORMAT_BEGIN
 90
        5
170
     1
 91
        0
 92
    32768
 62
   257
 93
        1
300
CONTENTFORMAT
  1
CONTENTFORMAT_BEGIN
 90
        0
 91
        0
 92
      512
 93
        0
300

 40
0.0
140
1.0
 94
        5
 62
     0
340
16
144
0.25
309
CONTENTFORMAT_END
171
     1
301
MARGIN
  1
CELLMARGIN_BEGIN
 40
0.06
 40
0.06
 40
0.06
 40
0.06
 40
0.18
 40
0.18
309
CELLMARGIN_END
 94
        6
 95
        1
302
GRIDFORMAT
  1
GRIDFORMAT_BEGIN
 90
        0
 91
        1
 62
     0
 92
       -2
340
0
 93
        0
 40
0.045
309
GRIDFORMAT_END
 95
        2
302
GRIDFORMAT
  1
GRIDFORMAT_BEGIN
 90
        0
 91
        1
 62
     0
 92
       -2
340
0
 93
        0
 40
0.045
309
GRIDFORMAT_END
 95
        4
302
GRIDFORMAT
  1
GRIDFORMAT_BEGIN
 90
        0
 91
        1
 62
     0
 92
       -2
340
0
 93
        0
 40
0.045
309
GRIDFORMAT_END
 95
        8
302
GRIDFORMAT
  1
GRIDFORMAT_BEGIN
 90
        0
 91
        1
 62
     0
 92
       -2
340
0
 93
        0
 40
0.045
309
GRIDFORMAT_END
 95
       16
302
GRIDFORMAT
  1
GRIDFORMAT_BEGIN
 90
        0
 91
        1
 62
     0
 92
       -2
340
0
 93
        0
 40
0.045
309
GRIDFORMAT_END
 95
       32
302
GRIDFORMAT
  1
GRIDFORMAT_BEGIN
 90
        0
 91
        1
 62
     0
 92
       -2
340
0
 93
        0
 40
0.045
309
GRIDFORMAT_END
309
TABLEFORMAT_END
  1
CELLSTYLE_BEGIN
 90
        1
 91
        1
300
_TITLE
309
CELLSTYLE_END
300
CELLSTYLE
  1
TABLEFORMAT_BEGIN
 90
        5
170
     1
 91
        0
 92
        0
 62
   257
 93
        1
300
CONTENTFORMAT
  1
CONTENTFORMAT_BEGIN
 90
        0
 91
        0
 92
      512
 93
        0
300

 40
0.0
140
1.0
 94
        5
 62
     0
340
16
144
0.18
309
CONTENTFORMAT_END
171
     1
301
MARGIN
  1
CELLMARGIN_BEGIN
 40
0.06
 40
0.06
 40
0.06
 40
0.06
 40
0.18
 40
0.18
309
CELLMARGIN_END
 94
        6
 95
        1
302
GRIDFORMAT
  1
GRIDFORMAT_BEGIN
 90
        0
 91
        1
 62
     0
 92
       -2
340
0
 93
        0
 40
0.045
309
GRIDFORMAT_END
 95
        2
302
GRIDFORMAT
  1
GRIDFORMAT_BEGIN
 90
        0
 91
        1
 62
     0
 92
       -2
340
0
 93
        0
 40
0.045
309
GRIDFORMAT_END
 95
        4
302
GRIDFORMAT
  1
GRIDFORMAT_BEGIN
 90
        0
 91
        1
 62
     0
 92
       -2
340
0
 93
        0
 40
0.045
309
GRIDFORMAT_END
 95
        8
302
GRIDFORMAT
  1
GRIDFORMAT_BEGIN
 90
        0
 91
        1
 62
     0
 92
       -2
340
0
 93
        0
 40
0.045
309
GRIDFORMAT_END
 95
       16
302
GRIDFORMAT
  1
GRIDFORMAT_BEGIN
 90
        0
 91
        1
 62
     0
 92
       -2
340
0
 93
        0
 40
0.045
309
GRIDFORMAT_END
 95
       32
302
GRIDFORMAT
  1
GRIDFORMAT_BEGIN
 90
        0
 91
        1
 62
     0
 92
       -2
340
0
 93
        0
 40
0.045
309
GRIDFORMAT_END
309
TABLEFORMAT_END
  1
CELLSTYLE_BEGIN
 90
        2
 91
        1
300
_HEADER
309
CELLSTYLE_END
300
CELLSTYLE
  1
TABLEFORMAT_BEGIN
 90
        5
170
     1
 91
        0
 92
        0
 62
   257
 93
        1
300
CONTENTFORMAT
  1
CONTENTFORMAT_BEGIN
 90
        0
 91
        0
 92
      512
 93
        0
300

 40
0.0
140
1.0
 94
        2
 62
     0
340
16
144
0.18
309
CONTENTFORMAT_END
171
     1
301
MARGIN
  1
CELLMARGIN_BEGIN
 40
0.06
 40
0.06
 40
0.06
 40
0.06
 40
0.18
 40
0.18
309
CELLMARGIN_END
 94
        6
 95
        1
302
GRIDFORMAT
  1
GRIDFORMAT_BEGIN
 90
        0
 91
        1
 62
     0
 92
       -2
340
0
 93
        0
 40
0.045
309
GRIDFORMAT_END
 95
        2
302
GRIDFORMAT
  1
GRIDFORMAT_BEGIN
 90
        0
 91
        1
 62
     0
 92
       -2
340
0
 93
        0
 40
0.045
309
GRIDFORMAT_END
 95
        4
302
GRIDFORMAT
  1
GRIDFORMAT_BEGIN
 90
        0
 91
        1
 62
     0
 92
       -2
340
0
 93
        0
 40
0.045
309
GRIDFORMAT_END
 95
        8
302
GRIDFORMAT
  1
GRIDFORMAT_BEGIN
 90
        0
 91
        1
 62
     0
 92
       -2
340
0
 93
        0
 40
0.045
309
GRIDFORMAT_END
 95
       16
302
GRIDFORMAT
  1
GRIDFORMAT_BEGIN
 90
        0
 91
        1
 62
     0
 92
       -2
340
0
 93
        0
 40
0.045
309
GRIDFORMAT_END
 95
       32
302
GRIDFORMAT
  1
GRIDFORMAT_BEGIN
 90
        0
 91
        1
 62
     0
 92
       -2
340
0
 93
        0
 40
0.045
309
GRIDFORMAT_END
309
TABLEFORMAT_END
  1
CELLSTYLE_BEGIN
 90
        3
 91
        2
300
_DATA
309
CELLSTYLE_END
  0
XRECORD
  5
1688
102
{ACAD_REACTORS
330
1342
102
}
330
1342
100
AcDbXrecord
280
     1
102
ACAD_ROUNDTRIP_PRE2007_TABLESTYLE
 90
      512
 91
        0
  1

 92
      512
 93
        0
  2

 94
      512
 95
        0
  3

  0
XRECORD
  5
1673
102
{ACAD_REACTORS
330
1672
102
}
330
1672
100
AcDbXrecord
280
     1
102
RTVSPost2010Prop28
280
     1
102
RTVSPost2010PropOp28
 70
     1
102
RTVSPost2010Prop29
280
     1
102
RTVSPost2010PropOp29
 70
     1
102
RTVSPost2010Prop30
280
     0
102
RTVSPost2010PropOp30
 70
     1
102
RTVSPost2010Prop31
280
     0
102
RTVSPost2010PropOp31
 70
     1
102
RTVSPost2010Prop32
280
     0
102
RTVSPost2010PropOp32
 70
     1
102
RTVSPost2010Prop33
280
     0
102
RTVSPost2010PropOp33
 70
     1
102
RTVSPost2010Prop34
280
     0
102
RTVSPost2010PropOp34
 70
     1
102
RTVSPost2010Prop35
280
     0
102
RTVSPost2010PropOp35
 70
     1
102
RTVSPost2010Prop36
280
     0
102
RTVSPost2010PropOp36
 70
     1
102
RTVSPost2010Prop37
 90
       50
102
RTVSPost2010PropOp37
 70
     1
102
RTVSPost2010Prop38
140
0.0
102
RTVSPost2010PropOp38
 70
     1
102
RTVSPost2010Prop39
140
1.0
102
RTVSPost2010PropOp39
 70
     1
102
RTVSPost2010Prop40
 90
        0
102
RTVSPost2010PropOp40
 70
     1
102
RTVSPost2010Prop41ColorIndex
 90
       18
102
RTVSPost2010Prop41ColorRGB
 90
        0
102
RTVSPost2010PropOp41
 70
     1
102
RTVSPost2010Prop42
 90
       50
102
RTVSPost2010PropOp42
 70
     1
102
RTVSPost2010Prop43
 90
        3
102
RTVSPost2010PropOp43
 70
     1
102
RTVSPost2010Prop44ColorIndex
 90
        5
102
RTVSPost2010Prop44ColorRGB
 90
      255
102
RTVSPost2010PropOp44
 70
     1
102
RTVSPost2010Prop45
280
     0
102
RTVSPost2010PropOp45
 70
     1
102
RTVSPost2010Prop46
 90
       50
102
RTVSPost2010PropOp46
 70
     1
102
RTVSPost2010Prop47
 90
       50
102
RTVSPost2010PropOp47
 70
     1
102
RTVSPost2010Prop48
 90
       50
102
RTVSPost2010PropOp48
 70
     1
102
RTVSPost2010Prop49
280
     0
102
RTVSPost2010PropOp49
 70
     1
102
RTVSPost2010Prop50
 90
       50
102
RTVSPost2010PropOp50
 70
     1
102
RTVSPost2010Prop51ColorIndex
 90
      256
102
RTVSPost2010Prop51ColorRGB
 90
-16777216
102
RTVSPost2010PropOp51
 70
     0
102
RTVSPost2010Prop52
140
1.0
102
RTVSPost2010PropOp52
 70
     0
102
RTVSPost2010Prop53
 90
        2
102
RTVSPost2010PropOp53
 70
     1
102
RTVSPost2010Prop54
  1
strokes_ogs.tif
102
RTVSPost2010PropOp54
 70
     1
102
RTVSPost2010Prop55
280
     0
102
RTVSPost2010PropOp55
 70
     1
102
RTVSPost2010Prop56
140
1.0
102
RTVSPost2010PropOp56
 70
     1
102
RTVSPost2010Prop57
140
1.0
102
RTVSPost2010PropOp57
 70
     1
102
RTVSPropertyOp0
 70
     1
102
RTVSPropertyOp1
 70
     1
102
RTVSPropertyOp2
 70
     1
102
RTVSPropertyOp3
 70
     1
102
RTVSPropertyOp4
 70
     1
102
RTVSPropertyOp5
 70
     1
102
RTVSPropertyOp6
 70
     1
102
RTVSPropertyOp7
 70
     1
102
RTVSPropertyOp8
 70
     1
102
RTVSPropertyOp9
 70
     1
102
RTVSPropertyOp10
 70
     1
102
RTVSPropertyOp11
 70
     1
102
RTVSPropertyOp12
 70
     1
102
RTVSPropertyOp13
 70
     1
102
RTVSPropertyOp14
 70
     1
102
RTVSPropertyOp15
 70
     1
102
RTVSPropertyOp16
 70
     1
102
RTVSPropertyOp17
 70
     1
102
RTVSPropertyOp18
 70
     1
102
RTVSPropertyOp19
 70
     1
102
RTVSPropertyOp20
 70
     1
102
RTVSPropertyOp21
 70
     1
102
RTVSPropertyOp22
 70
     1
102
RTVSPropertyOp23
 70
     1
102
RTVSPropertyOp24
 70
     1
102
RTVSPropertyOp25
 70
     1
102
RTVSPropertyOp26
 70
     1
102
RTVSPropertyOp27
 70
     1
102
RTVSPropertyOp28
 70
     1
102
RTVSPropertyOp29
 70
     1
102
RTVSPropertyOp30
 70
     1
102
RTVSPropertyOp31
 70
     1
102
RTVSPropertyOp32
 70
     1
102
RTVSPropertyOp33
 70
     1
102
RTVSPropertyOp34
 70
     1
102
RTVSPropertyOp35
 70
     1
102
RTVSPropertyOp36
 70
     1
102
RTVSPropertyOp37
 70
     1
102
RTVSPropertyOp38
 70
     1
102
RTVSPropertyOp39
 70
     1
102
RTVSPropertyOp40
 70
     1
102
RTVSPropertyOp41
 70
     1
102
RTVSPropertyOp42
 70
     1
102
RTVSPropertyOp43
 70
     1
102
RTVSPropertyOp44
 70
     1
102
RTVSPropertyOp45
 70
     1
102
RTVSPropertyOp46
 70
     1
102
RTVSPropertyOp47
 70
     1
102
RTVSPropertyOp48
 70
     1
102
RTVSPropertyOp49
 70
     1
102
RTVSPropertyOp50
 70
     1
102
RTVSPropertyOp51
 70
     0
102
RTVSPropertyOp52
 70
     0
102
RTVSPropertyOp53
 70
     1
102
RTVSPropertyOp54
 70
     1
102
RTVSPropertyOp55
 70
     1
102
RTVSPropertyOp56
 70
     1
102
RTVSPropertyOp57
 70
     1
102
RTVSPropertyOp58
 70
     1
102
RTVSPropertyOp59
 70
     1
102
RTVSPropertyOp60
 70
     1
102
RTVSPropertyOp61
 70
     1
102
RTVSPropertyOp62
 70
     1
  0
XRECORD
  5
1677
102
{ACAD_REACTORS
330
1676
102
}
330
1676
100
AcDbXrecord
280
     1
102
RTVSPost2010Prop28
280
     0
102
RTVSPost2010PropOp28
 70
     1
102
RTVSPost2010Prop29
280
     1
102
RTVSPost2010PropOp29
 70
     1
102
RTVSPost2010Prop30
280
     1
102
RTVSPost2010PropOp30
 70
     1
102
RTVSPost2010Prop31
280
     0
102
RTVSPost2010PropOp31
 70
     1
102
RTVSPost2010Prop32
280
     0
102
RTVSPost2010PropOp32
 70
     1
102
RTVSPost2010Prop33
280
     0
102
RTVSPost2010PropOp33
 70
     1
102
RTVSPost2010Prop34
280
     0
102
RTVSPost2010PropOp34
 70
     1
102
RTVSPost2010Prop35
280
     0
102
RTVSPost2010PropOp35
 70
     1
102
RTVSPost2010Prop36
280
     0
102
RTVSPost2010PropOp36
 70
     1
102
RTVSPost2010Prop37
 90
       50
102
RTVSPost2010PropOp37
 70
     1
102
RTVSPost2010Prop38
140
0.0
102
RTVSPost2010PropOp38
 70
     1
102
RTVSPost2010Prop39
140
1.0
102
RTVSPost2010PropOp39
 70
     1
102
RTVSPost2010Prop40
 90
        0
102
RTVSPost2010PropOp40
 70
     1
102
RTVSPost2010Prop41ColorIndex
 90
       18
102
RTVSPost2010Prop41ColorRGB
 90
        0
102
RTVSPost2010PropOp41
 70
     1
102
RTVSPost2010Prop42
 90
       50
102
RTVSPost2010PropOp42
 70
     1
102
RTVSPost2010Prop43
 90
        3
102
RTVSPost2010PropOp43
 70
     1
102
RTVSPost2010Prop44ColorIndex
 90
        5
102
RTVSPost2010Prop44ColorRGB
 90
      255
102
RTVSPost2010PropOp44
 70
     1
102
RTVSPost2010Prop45
280
     0
102
RTVSPost2010PropOp45
 70
     1
102
RTVSPost2010Prop46
 90
       50
102
RTVSPost2010PropOp46
 70
     1
102
RTVSPost2010Prop47
 90
       50
102
RTVSPost2010PropOp47
 70
     1
102
RTVSPost2010Prop48
 90
       50
102
RTVSPost2010PropOp48
 70
     1
102
RTVSPost2010Prop49
280
     0
102
RTVSPost2010PropOp49
 70
     1
102
RTVSPost2010Prop50
 90
       50
102
RTVSPost2010PropOp50
 70
     1
102
RTVSPost2010Prop51ColorIndex
 90
      256
102
RTVSPost2010Prop51ColorRGB
 90
-16777216
102
RTVSPost2010PropOp51
 70
     0
102
RTVSPost2010Prop52
140
1.0
102
RTVSPost2010PropOp52
 70
     0
102
RTVSPost2010Prop53
 90
        2
102
RTVSPost2010PropOp53
 70
     1
102
RTVSPost2010Prop54
  1
strokes_ogs.tif
102
RTVSPost2010PropOp54
 70
     1
102
RTVSPost2010Prop55
280
     0
102
RTVSPost2010PropOp55
 70
     1
102
RTVSPost2010Prop56
140
1.0
102
RTVSPost2010PropOp56
 70
     1
102
RTVSPost2010Prop57
140
1.0
102
RTVSPost2010PropOp57
 70
     1
102
RTVSPropertyOp0
 70
     1
102
RTVSPropertyOp1
 70
     1
102
RTVSPropertyOp2
 70
     1
102
RTVSPropertyOp3
 70
     1
102
RTVSPropertyOp4
 70
     1
102
RTVSPropertyOp5
 70
     1
102
RTVSPropertyOp6
 70
     1
102
RTVSPropertyOp7
 70
     1
102
RTVSPropertyOp8
 70
     1
102
RTVSPropertyOp9
 70
     1
102
RTVSPropertyOp10
 70
     1
102
RTVSPropertyOp11
 70
     1
102
RTVSPropertyOp12
 70
     1
102
RTVSPropertyOp13
 70
     1
102
RTVSPropertyOp14
 70
     1
102
RTVSPropertyOp15
 70
     1
102
RTVSPropertyOp16
 70
     1
102
RTVSPropertyOp17
 70
     1
102
RTVSPropertyOp18
 70
     1
102
RTVSPropertyOp19
 70
     1
102
RTVSPropertyOp20
 70
     1
102
RTVSPropertyOp21
 70
     1
102
RTVSPropertyOp22
 70
     1
102
RTVSPropertyOp23
 70
     1
102
RTVSPropertyOp24
 70
     1
102
RTVSPropertyOp25
 70
     1
102
RTVSPropertyOp26
 70
     1
102
RTVSPropertyOp27
 70
     1
102
RTVSPropertyOp28
 70
     1
102
RTVSPropertyOp29
 70
     1
102
RTVSPropertyOp30
 70
     1
102
RTVSPropertyOp31
 70
     1
102
RTVSPropertyOp32
 70
     1
102
RTVSPropertyOp33
 70
     1
102
RTVSPropertyOp34
 70
     1
102
RTVSPropertyOp35
 70
     1
102
RTVSPropertyOp36
 70
     1
102
RTVSPropertyOp37
 70
     1
102
RTVSPropertyOp38
 70
     1
102
RTVSPropertyOp39
 70
     1
102
RTVSPropertyOp40
 70
     1
102
RTVSPropertyOp41
 70
     1
102
RTVSPropertyOp42
 70
     1
102
RTVSPropertyOp43
 70
     1
102
RTVSPropertyOp44
 70
     1
102
RTVSPropertyOp45
 70
     1
102
RTVSPropertyOp46
 70
     1
102
RTVSPropertyOp47
 70
     1
102
RTVSPropertyOp48
 70
     1
102
RTVSPropertyOp49
 70
     1
102
RTVSPropertyOp50
 70
     1
102
RTVSPropertyOp51
 70
     0
102
RTVSPropertyOp52
 70
     0
102
RTVSPropertyOp53
 70
     1
102
RTVSPropertyOp54
 70
     1
102
RTVSPropertyOp55
 70
     1
102
RTVSPropertyOp56
 70
     1
102
RTVSPropertyOp57
 70
     1
102
RTVSPropertyOp58
 70
     1
102
RTVSPropertyOp59
 70
     1
102
RTVSPropertyOp60
 70
     1
102
RTVSPropertyOp61
 70
     1
102
RTVSPropertyOp62
 70
     1
  0
XRECORD
  5
1675
102
{ACAD_REACTORS
330
1674
102
}
330
1674
100
AcDbXrecord
280
     1
102
RTVSPost2010Prop28
280
     0
102
RTVSPost2010PropOp28
 70
     1
102
RTVSPost2010Prop29
280
     1
102
RTVSPost2010PropOp29
 70
     1
102
RTVSPost2010Prop30
280
     1
102
RTVSPost2010PropOp30
 70
     1
102
RTVSPost2010Prop31
280
     0
102
RTVSPost2010PropOp31
 70
     1
102
RTVSPost2010Prop32
280
     0
102
RTVSPost2010PropOp32
 70
     1
102
RTVSPost2010Prop33
280
     0
102
RTVSPost2010PropOp33
 70
     1
102
RTVSPost2010Prop34
280
     0
102
RTVSPost2010PropOp34
 70
     1
102
RTVSPost2010Prop35
280
     0
102
RTVSPost2010PropOp35
 70
     1
102
RTVSPost2010Prop36
280
     0
102
RTVSPost2010PropOp36
 70
     1
102
RTVSPost2010Prop37
 90
       50
102
RTVSPost2010PropOp37
 70
     1
102
RTVSPost2010Prop38
140
0.0
102
RTVSPost2010PropOp38
 70
     1
102
RTVSPost2010Prop39
140
1.0
102
RTVSPost2010PropOp39
 70
     1
102
RTVSPost2010Prop40
 90
        0
102
RTVSPost2010PropOp40
 70
     1
102
RTVSPost2010Prop41ColorIndex
 90
       18
102
RTVSPost2010Prop41ColorRGB
 90
        0
102
RTVSPost2010PropOp41
 70
     1
102
RTVSPost2010Prop42
 90
       50
102
RTVSPost2010PropOp42
 70
     1
102
RTVSPost2010Prop43
 90
        3
102
RTVSPost2010PropOp43
 70
     1
102
RTVSPost2010Prop44ColorIndex
 90
        5
102
RTVSPost2010Prop44ColorRGB
 90
      255
102
RTVSPost2010PropOp44
 70
     1
102
RTVSPost2010Prop45
280
     0
102
RTVSPost2010PropOp45
 70
     1
102
RTVSPost2010Prop46
 90
       50
102
RTVSPost2010PropOp46
 70
     1
102
RTVSPost2010Prop47
 90
       50
102
RTVSPost2010PropOp47
 70
     1
102
RTVSPost2010Prop48
 90
       50
102
RTVSPost2010PropOp48
 70
     1
102
RTVSPost2010Prop49
280
     0
102
RTVSPost2010PropOp49
 70
     1
102
RTVSPost2010Prop50
 90
       50
102
RTVSPost2010PropOp50
 70
     1
102
RTVSPost2010Prop51ColorIndex
 90
      256
102
RTVSPost2010Prop51ColorRGB
 90
-16777216
102
RTVSPost2010PropOp51
 70
     0
102
RTVSPost2010Prop52
140
1.0
102
RTVSPost2010PropOp52
 70
     0
102
RTVSPost2010Prop53
 90
        2
102
RTVSPost2010PropOp53
 70
     1
102
RTVSPost2010Prop54
  1
strokes_ogs.tif
102
RTVSPost2010PropOp54
 70
     1
102
RTVSPost2010Prop55
280
     0
102
RTVSPost2010PropOp55
 70
     1
102
RTVSPost2010Prop56
140
1.0
102
RTVSPost2010PropOp56
 70
     1
102
RTVSPost2010Prop57
140
1.0
102
RTVSPost2010PropOp57
 70
     1
102
RTVSPropertyOp0
 70
     1
102
RTVSPropertyOp1
 70
     1
102
RTVSPropertyOp2
 70
     1
102
RTVSPropertyOp3
 70
     1
102
RTVSPropertyOp4
 70
     1
102
RTVSPropertyOp5
 70
     1
102
RTVSPropertyOp6
 70
     1
102
RTVSPropertyOp7
 70
     1
102
RTVSPropertyOp8
 70
     1
102
RTVSPropertyOp9
 70
     1
102
RTVSPropertyOp10
 70
     1
102
RTVSPropertyOp11
 70
     1
102
RTVSPropertyOp12
 70
     1
102
RTVSPropertyOp13
 70
     1
102
RTVSPropertyOp14
 70
     1
102
RTVSPropertyOp15
 70
     1
102
RTVSPropertyOp16
 70
     1
102
RTVSPropertyOp17
 70
     1
102
RTVSPropertyOp18
 70
     1
102
RTVSPropertyOp19
 70
     1
102
RTVSPropertyOp20
 70
     1
102
RTVSPropertyOp21
 70
     1
102
RTVSPropertyOp22
 70
     1
102
RTVSPropertyOp23
 70
     1
102
RTVSPropertyOp24
 70
     1
102
RTVSPropertyOp25
 70
     1
102
RTVSPropertyOp26
 70
     1
102
RTVSPropertyOp27
 70
     1
102
RTVSPropertyOp28
 70
     1
102
RTVSPropertyOp29
 70
     1
102
RTVSPropertyOp30
 70
     1
102
RTVSPropertyOp31
 70
     1
102
RTVSPropertyOp32
 70
     1
102
RTVSPropertyOp33
 70
     1
102
RTVSPropertyOp34
 70
     1
102
RTVSPropertyOp35
 70
     1
102
RTVSPropertyOp36
 70
     1
102
RTVSPropertyOp37
 70
     1
102
RTVSPropertyOp38
 70
     1
102
RTVSPropertyOp39
 70
     1
102
RTVSPropertyOp40
 70
     1
102
RTVSPropertyOp41
 70
     1
102
RTVSPropertyOp42
 70
     1
102
RTVSPropertyOp43
 70
     1
102
RTVSPropertyOp44
 70
     1
102
RTVSPropertyOp45
 70
     1
102
RTVSPropertyOp46
 70
     1
102
RTVSPropertyOp47
 70
     1
102
RTVSPropertyOp48
 70
     1
102
RTVSPropertyOp49
 70
     1
102
RTVSPropertyOp50
 70
     1
102
RTVSPropertyOp51
 70
     0
102
RTVSPropertyOp52
 70
     0
102
RTVSPropertyOp53
 70
     1
102
RTVSPropertyOp54
 70
     1
102
RTVSPropertyOp55
 70
     1
102
RTVSPropertyOp56
 70
     1
102
RTVSPropertyOp57
 70
     1
102
RTVSPropertyOp58
 70
     1
102
RTVSPropertyOp59
 70
     1
102
RTVSPropertyOp60
 70
     1
102
RTVSPropertyOp61
 70
     1
102
RTVSPropertyOp62
 70
     1
  0
XRECORD
  5
1671
102
{ACAD_REACTORS
330
1670
102
}
330
1670
100
AcDbXrecord
280
     1
102
RTVSPost2010Prop28
280
     0
102
RTVSPost2010PropOp28
 70
     1
102
RTVSPost2010Prop29
280
     1
102
RTVSPost2010PropOp29
 70
     1
102
RTVSPost2010Prop30
280
     1
102
RTVSPost2010PropOp30
 70
     1
102
RTVSPost2010Prop31
280
     0
102
RTVSPost2010PropOp31
 70
     1
102
RTVSPost2010Prop32
280
     0
102
RTVSPost2010PropOp32
 70
     1
102
RTVSPost2010Prop33
280
     0
102
RTVSPost2010PropOp33
 70
     1
102
RTVSPost2010Prop34
280
     0
102
RTVSPost2010PropOp34
 70
     1
102
RTVSPost2010Prop35
280
     0
102
RTVSPost2010PropOp35
 70
     1
102
RTVSPost2010Prop36
280
     0
102
RTVSPost2010PropOp36
 70
     1
102
RTVSPost2010Prop37
 90
       50
102
RTVSPost2010PropOp37
 70
     1
102
RTVSPost2010Prop38
140
0.0
102
RTVSPost2010PropOp38
 70
     1
102
RTVSPost2010Prop39
140
1.0
102
RTVSPost2010PropOp39
 70
     1
102
RTVSPost2010Prop40
 90
        0
102
RTVSPost2010PropOp40
 70
     1
102
RTVSPost2010Prop41ColorIndex
 90
       18
102
RTVSPost2010Prop41ColorRGB
 90
        0
102
RTVSPost2010PropOp41
 70
     1
102
RTVSPost2010Prop42
 90
       50
102
RTVSPost2010PropOp42
 70
     1
102
RTVSPost2010Prop43
 90
        3
102
RTVSPost2010PropOp43
 70
     1
102
RTVSPost2010Prop44ColorIndex
 90
        5
102
RTVSPost2010Prop44ColorRGB
 90
      255
102
RTVSPost2010PropOp44
 70
     1
102
RTVSPost2010Prop45
280
     0
102
RTVSPost2010PropOp45
 70
     1
102
RTVSPost2010Prop46
 90
       50
102
RTVSPost2010PropOp46
 70
     1
102
RTVSPost2010Prop47
 90
       50
102
RTVSPost2010PropOp47
 70
     1
102
RTVSPost2010Prop48
 90
       50
102
RTVSPost2010PropOp48
 70
     1
102
RTVSPost2010Prop49
280
     0
102
RTVSPost2010PropOp49
 70
     1
102
RTVSPost2010Prop50
 90
       50
102
RTVSPost2010PropOp50
 70
     1
102
RTVSPost2010Prop51ColorIndex
 90
      256
102
RTVSPost2010Prop51ColorRGB
 90
-16777216
102
RTVSPost2010PropOp51
 70
     0
102
RTVSPost2010Prop52
140
1.0
102
RTVSPost2010PropOp52
 70
     0
102
RTVSPost2010Prop53
 90
        2
102
RTVSPost2010PropOp53
 70
     1
102
RTVSPost2010Prop54
  1
strokes_ogs.tif
102
RTVSPost2010PropOp54
 70
     1
102
RTVSPost2010Prop55
280
     0
102
RTVSPost2010PropOp55
 70
     1
102
RTVSPost2010Prop56
140
1.0
102
RTVSPost2010PropOp56
 70
     1
102
RTVSPost2010Prop57
140
1.0
102
RTVSPost2010PropOp57
 70
     1
102
RTVSPropertyOp0
 70
     1
102
RTVSPropertyOp1
 70
     1
102
RTVSPropertyOp2
 70
     1
102
RTVSPropertyOp3
 70
     1
102
RTVSPropertyOp4
 70
     1
102
RTVSPropertyOp5
 70
     1
102
RTVSPropertyOp6
 70
     1
102
RTVSPropertyOp7
 70
     1
102
RTVSPropertyOp8
 70
     1
102
RTVSPropertyOp9
 70
     1
102
RTVSPropertyOp10
 70
     1
102
RTVSPropertyOp11
 70
     1
102
RTVSPropertyOp12
 70
     1
102
RTVSPropertyOp13
 70
     1
102
RTVSPropertyOp14
 70
     1
102
RTVSPropertyOp15
 70
     1
102
RTVSPropertyOp16
 70
     1
102
RTVSPropertyOp17
 70
     1
102
RTVSPropertyOp18
 70
     1
102
RTVSPropertyOp19
 70
     1
102
RTVSPropertyOp20
 70
     1
102
RTVSPropertyOp21
 70
     1
102
RTVSPropertyOp22
 70
     1
102
RTVSPropertyOp23
 70
     1
102
RTVSPropertyOp24
 70
     1
102
RTVSPropertyOp25
 70
     1
102
RTVSPropertyOp26
 70
     1
102
RTVSPropertyOp27
 70
     1
102
RTVSPropertyOp28
 70
     1
102
RTVSPropertyOp29
 70
     1
102
RTVSPropertyOp30
 70
     1
102
RTVSPropertyOp31
 70
     1
102
RTVSPropertyOp32
 70
     1
102
RTVSPropertyOp33
 70
     1
102
RTVSPropertyOp34
 70
     1
102
RTVSPropertyOp35
 70
     1
102
RTVSPropertyOp36
 70
     1
102
RTVSPropertyOp37
 70
     1
102
RTVSPropertyOp38
 70
     1
102
RTVSPropertyOp39
 70
     1
102
RTVSPropertyOp40
 70
     1
102
RTVSPropertyOp41
 70
     1
102
RTVSPropertyOp42
 70
     1
102
RTVSPropertyOp43
 70
     1
102
RTVSPropertyOp44
 70
     1
102
RTVSPropertyOp45
 70
     1
102
RTVSPropertyOp46
 70
     1
102
RTVSPropertyOp47
 70
     1
102
RTVSPropertyOp48
 70
     1
102
RTVSPropertyOp49
 70
     1
102
RTVSPropertyOp50
 70
     1
102
RTVSPropertyOp51
 70
     0
102
RTVSPropertyOp52
 70
     0
102
RTVSPropertyOp53
 70
     1
102
RTVSPropertyOp54
 70
     1
102
RTVSPropertyOp55
 70
     1
102
RTVSPropertyOp56
 70
     1
102
RTVSPropertyOp57
 70
     1
102
RTVSPropertyOp58
 70
     1
102
RTVSPropertyOp59
 70
     1
102
RTVSPropertyOp60
 70
     1
102
RTVSPropertyOp61
 70
     1
102
RTVSPropertyOp62
 70
     1
  0
XRECORD
  5
167F
102
{ACAD_REACTORS
330
167E
102
}
330
167E
100
AcDbXrecord
280
     1
102
RTVSPost2010Prop28
280
     0
102
RTVSPost2010PropOp28
 70
     1
102
RTVSPost2010Prop29
280
     1
102
RTVSPost2010PropOp29
 70
     1
102
RTVSPost2010Prop30
280
     1
102
RTVSPost2010PropOp30
 70
     1
102
RTVSPost2010Prop31
280
     0
102
RTVSPost2010PropOp31
 70
     1
102
RTVSPost2010Prop32
280
     0
102
RTVSPost2010PropOp32
 70
     1
102
RTVSPost2010Prop33
280
     0
102
RTVSPost2010PropOp33
 70
     1
102
RTVSPost2010Prop34
280
     0
102
RTVSPost2010PropOp34
 70
     1
102
RTVSPost2010Prop35
280
     0
102
RTVSPost2010PropOp35
 70
     1
102
RTVSPost2010Prop36
280
     0
102
RTVSPost2010PropOp36
 70
     1
102
RTVSPost2010Prop37
 90
       50
102
RTVSPost2010PropOp37
 70
     1
102
RTVSPost2010Prop38
140
0.0
102
RTVSPost2010PropOp38
 70
     1
102
RTVSPost2010Prop39
140
1.0
102
RTVSPost2010PropOp39
 70
     1
102
RTVSPost2010Prop40
 90
        0
102
RTVSPost2010PropOp40
 70
     1
102
RTVSPost2010Prop41ColorIndex
 90
       18
102
RTVSPost2010Prop41ColorRGB
 90
        0
102
RTVSPost2010PropOp41
 70
     1
102
RTVSPost2010Prop42
 90
       50
102
RTVSPost2010PropOp42
 70
     1
102
RTVSPost2010Prop43
 90
        3
102
RTVSPost2010PropOp43
 70
     1
102
RTVSPost2010Prop44ColorIndex
 90
        5
102
RTVSPost2010Prop44ColorRGB
 90
      255
102
RTVSPost2010PropOp44
 70
     1
102
RTVSPost2010Prop45
280
     0
102
RTVSPost2010PropOp45
 70
     1
102
RTVSPost2010Prop46
 90
       50
102
RTVSPost2010PropOp46
 70
     1
102
RTVSPost2010Prop47
 90
       50
102
RTVSPost2010PropOp47
 70
     1
102
RTVSPost2010Prop48
 90
       50
102
RTVSPost2010PropOp48
 70
     1
102
RTVSPost2010Prop49
280
     0
102
RTVSPost2010PropOp49
 70
     1
102
RTVSPost2010Prop50
 90
       50
102
RTVSPost2010PropOp50
 70
     1
102
RTVSPost2010Prop51ColorIndex
 90
      256
102
RTVSPost2010Prop51ColorRGB
 90
-16777216
102
RTVSPost2010PropOp51
 70
     0
102
RTVSPost2010Prop52
140
1.0
102
RTVSPost2010PropOp52
 70
     0
102
RTVSPost2010Prop53
 90
        2
102
RTVSPost2010PropOp53
 70
     1
102
RTVSPost2010Prop54
  1
strokes_ogs.tif
102
RTVSPost2010PropOp54
 70
     1
102
RTVSPost2010Prop55
280
     0
102
RTVSPost2010PropOp55
 70
     1
102
RTVSPost2010Prop56
140
1.0
102
RTVSPost2010PropOp56
 70
     1
102
RTVSPost2010Prop57
140
1.0
102
RTVSPost2010PropOp57
 70
     1
102
RTVSPropertyOp0
 70
     1
102
RTVSPropertyOp1
 70
     1
102
RTVSPropertyOp2
 70
     1
102
RTVSPropertyOp3
 70
     1
102
RTVSPropertyOp4
 70
     1
102
RTVSPropertyOp5
 70
     1
102
RTVSPropertyOp6
 70
     1
102
RTVSPropertyOp7
 70
     1
102
RTVSPropertyOp8
 70
     1
102
RTVSPropertyOp9
 70
     1
102
RTVSPropertyOp10
 70
     1
102
RTVSPropertyOp11
 70
     1
102
RTVSPropertyOp12
 70
     1
102
RTVSPropertyOp13
 70
     1
102
RTVSPropertyOp14
 70
     1
102
RTVSPropertyOp15
 70
     1
102
RTVSPropertyOp16
 70
     1
102
RTVSPropertyOp17
 70
     1
102
RTVSPropertyOp18
 70
     1
102
RTVSPropertyOp19
 70
     1
102
RTVSPropertyOp20
 70
     1
102
RTVSPropertyOp21
 70
     1
102
RTVSPropertyOp22
 70
     1
102
RTVSPropertyOp23
 70
     1
102
RTVSPropertyOp24
 70
     1
102
RTVSPropertyOp25
 70
     1
102
RTVSPropertyOp26
 70
     1
102
RTVSPropertyOp27
 70
     1
102
RTVSPropertyOp28
 70
     1
102
RTVSPropertyOp29
 70
     1
102
RTVSPropertyOp30
 70
     1
102
RTVSPropertyOp31
 70
     1
102
RTVSPropertyOp32
 70
     1
102
RTVSPropertyOp33
 70
     1
102
RTVSPropertyOp34
 70
     1
102
RTVSPropertyOp35
 70
     1
102
RTVSPropertyOp36
 70
     1
102
RTVSPropertyOp37
 70
     1
102
RTVSPropertyOp38
 70
     1
102
RTVSPropertyOp39
 70
     1
102
RTVSPropertyOp40
 70
     1
102
RTVSPropertyOp41
 70
     1
102
RTVSPropertyOp42
 70
     1
102
RTVSPropertyOp43
 70
     1
102
RTVSPropertyOp44
 70
     1
102
RTVSPropertyOp45
 70
     1
102
RTVSPropertyOp46
 70
     1
102
RTVSPropertyOp47
 70
     1
102
RTVSPropertyOp48
 70
     1
102
RTVSPropertyOp49
 70
     1
102
RTVSPropertyOp50
 70
     1
102
RTVSPropertyOp51
 70
     0
102
RTVSPropertyOp52
 70
     0
102
RTVSPropertyOp53
 70
     1
102
RTVSPropertyOp54
 70
     1
102
RTVSPropertyOp55
 70
     1
102
RTVSPropertyOp56
 70
     1
102
RTVSPropertyOp57
 70
     1
102
RTVSPropertyOp58
 70
     1
102
RTVSPropertyOp59
 70
     1
102
RTVSPropertyOp60
 70
     1
102
RTVSPropertyOp61
 70
     1
102
RTVSPropertyOp62
 70
     1
  0
XRECORD
  5
1687
102
{ACAD_REACTORS
330
1686
102
}
330
1686
100
AcDbXrecord
280
     1
102
RTVSPost2010Prop28
280
     0
102
RTVSPost2010PropOp28
 70
     1
102
RTVSPost2010Prop29
280
     1
102
RTVSPost2010PropOp29
 70
     1
102
RTVSPost2010Prop30
280
     1
102
RTVSPost2010PropOp30
 70
     1
102
RTVSPost2010Prop31
280
     0
102
RTVSPost2010PropOp31
 70
     1
102
RTVSPost2010Prop32
280
     0
102
RTVSPost2010PropOp32
 70
     1
102
RTVSPost2010Prop33
280
     0
102
RTVSPost2010PropOp33
 70
     1
102
RTVSPost2010Prop34
280
     0
102
RTVSPost2010PropOp34
 70
     1
102
RTVSPost2010Prop35
280
     0
102
RTVSPost2010PropOp35
 70
     1
102
RTVSPost2010Prop36
280
     0
102
RTVSPost2010PropOp36
 70
     1
102
RTVSPost2010Prop37
 90
       50
102
RTVSPost2010PropOp37
 70
     1
102
RTVSPost2010Prop38
140
0.0
102
RTVSPost2010PropOp38
 70
     1
102
RTVSPost2010Prop39
140
1.0
102
RTVSPost2010PropOp39
 70
     1
102
RTVSPost2010Prop40
 90
        0
102
RTVSPost2010PropOp40
 70
     1
102
RTVSPost2010Prop41ColorIndex
 90
       18
102
RTVSPost2010Prop41ColorRGB
 90
        0
102
RTVSPost2010PropOp41
 70
     1
102
RTVSPost2010Prop42
 90
       50
102
RTVSPost2010PropOp42
 70
     1
102
RTVSPost2010Prop43
 90
        3
102
RTVSPost2010PropOp43
 70
     1
102
RTVSPost2010Prop44ColorIndex
 90
        5
102
RTVSPost2010Prop44ColorRGB
 90
      255
102
RTVSPost2010PropOp44
 70
     1
102
RTVSPost2010Prop45
280
     0
102
RTVSPost2010PropOp45
 70
     1
102
RTVSPost2010Prop46
 90
       50
102
RTVSPost2010PropOp46
 70
     1
102
RTVSPost2010Prop47
 90
       50
102
RTVSPost2010PropOp47
 70
     1
102
RTVSPost2010Prop48
 90
       50
102
RTVSPost2010PropOp48
 70
     1
102
RTVSPost2010Prop49
280
     0
102
RTVSPost2010PropOp49
 70
     1
102
RTVSPost2010Prop50
 90
       50
102
RTVSPost2010PropOp50
 70
     1
102
RTVSPost2010Prop51ColorIndex
 90
      256
102
RTVSPost2010Prop51ColorRGB
 90
-16777216
102
RTVSPost2010PropOp51
 70
     0
102
RTVSPost2010Prop52
140
1.0
102
RTVSPost2010PropOp52
 70
     0
102
RTVSPost2010Prop53
 90
        2
102
RTVSPost2010PropOp53
 70
     1
102
RTVSPost2010Prop54
  1
strokes_ogs.tif
102
RTVSPost2010PropOp54
 70
     1
102
RTVSPost2010Prop55
280
     0
102
RTVSPost2010PropOp55
 70
     1
102
RTVSPost2010Prop56
140
1.0
102
RTVSPost2010PropOp56
 70
     1
102
RTVSPost2010Prop57
140
1.0
102
RTVSPost2010PropOp57
 70
     1
102
RTVSPropertyOp0
 70
     1
102
RTVSPropertyOp1
 70
     1
102
RTVSPropertyOp2
 70
     1
102
RTVSPropertyOp3
 70
     1
102
RTVSPropertyOp4
 70
     1
102
RTVSPropertyOp5
 70
     1
102
RTVSPropertyOp6
 70
     1
102
RTVSPropertyOp7
 70
     1
102
RTVSPropertyOp8
 70
     1
102
RTVSPropertyOp9
 70
     1
102
RTVSPropertyOp10
 70
     1
102
RTVSPropertyOp11
 70
     1
102
RTVSPropertyOp12
 70
     1
102
RTVSPropertyOp13
 70
     1
102
RTVSPropertyOp14
 70
     1
102
RTVSPropertyOp15
 70
     1
102
RTVSPropertyOp16
 70
     1
102
RTVSPropertyOp17
 70
     1
102
RTVSPropertyOp18
 70
     1
102
RTVSPropertyOp19
 70
     1
102
RTVSPropertyOp20
 70
     1
102
RTVSPropertyOp21
 70
     1
102
RTVSPropertyOp22
 70
     1
102
RTVSPropertyOp23
 70
     1
102
RTVSPropertyOp24
 70
     1
102
RTVSPropertyOp25
 70
     1
102
RTVSPropertyOp26
 70
     1
102
RTVSPropertyOp27
 70
     1
102
RTVSPropertyOp28
 70
     1
102
RTVSPropertyOp29
 70
     1
102
RTVSPropertyOp30
 70
     1
102
RTVSPropertyOp31
 70
     1
102
RTVSPropertyOp32
 70
     1
102
RTVSPropertyOp33
 70
     1
102
RTVSPropertyOp34
 70
     1
102
RTVSPropertyOp35
 70
     1
102
RTVSPropertyOp36
 70
     1
102
RTVSPropertyOp37
 70
     1
102
RTVSPropertyOp38
 70
     1
102
RTVSPropertyOp39
 70
     1
102
RTVSPropertyOp40
 70
     1
102
RTVSPropertyOp41
 70
     1
102
RTVSPropertyOp42
 70
     1
102
RTVSPropertyOp43
 70
     1
102
RTVSPropertyOp44
 70
     1
102
RTVSPropertyOp45
 70
     1
102
RTVSPropertyOp46
 70
     1
102
RTVSPropertyOp47
 70
     1
102
RTVSPropertyOp48
 70
     1
102
RTVSPropertyOp49
 70
     1
102
RTVSPropertyOp50
 70
     1
102
RTVSPropertyOp51
 70
     0
102
RTVSPropertyOp52
 70
     0
102
RTVSPropertyOp53
 70
     1
102
RTVSPropertyOp54
 70
     1
102
RTVSPropertyOp55
 70
     1
102
RTVSPropertyOp56
 70
     1
102
RTVSPropertyOp57
 70
     1
102
RTVSPropertyOp58
 70
     1
102
RTVSPropertyOp59
 70
     1
102
RTVSPropertyOp60
 70
     1
102
RTVSPropertyOp61
 70
     1
102
RTVSPropertyOp62
 70
     1
  0
XRECORD
  5
1679
102
{ACAD_REACTORS
330
1678
102
}
330
1678
100
AcDbXrecord
280
     1
102
RTVSPost2010Prop28
280
     0
102
RTVSPost2010PropOp28
 70
     1
102
RTVSPost2010Prop29
280
     1
102
RTVSPost2010PropOp29
 70
     1
102
RTVSPost2010Prop30
280
     1
102
RTVSPost2010PropOp30
 70
     1
102
RTVSPost2010Prop31
280
     0
102
RTVSPost2010PropOp31
 70
     1
102
RTVSPost2010Prop32
280
     0
102
RTVSPost2010PropOp32
 70
     1
102
RTVSPost2010Prop33
280
     0
102
RTVSPost2010PropOp33
 70
     1
102
RTVSPost2010Prop34
280
     0
102
RTVSPost2010PropOp34
 70
     1
102
RTVSPost2010Prop35
280
     0
102
RTVSPost2010PropOp35
 70
     1
102
RTVSPost2010Prop36
280
     0
102
RTVSPost2010PropOp36
 70
     1
102
RTVSPost2010Prop37
 90
       50
102
RTVSPost2010PropOp37
 70
     1
102
RTVSPost2010Prop38
140
0.0
102
RTVSPost2010PropOp38
 70
     1
102
RTVSPost2010Prop39
140
1.0
102
RTVSPost2010PropOp39
 70
     1
102
RTVSPost2010Prop40
 90
        0
102
RTVSPost2010PropOp40
 70
     1
102
RTVSPost2010Prop41ColorIndex
 90
       18
102
RTVSPost2010Prop41ColorRGB
 90
        0
102
RTVSPost2010PropOp41
 70
     1
102
RTVSPost2010Prop42
 90
       50
102
RTVSPost2010PropOp42
 70
     1
102
RTVSPost2010Prop43
 90
        3
102
RTVSPost2010PropOp43
 70
     1
102
RTVSPost2010Prop44ColorIndex
 90
        5
102
RTVSPost2010Prop44ColorRGB
 90
      255
102
RTVSPost2010PropOp44
 70
     1
102
RTVSPost2010Prop45
280
     0
102
RTVSPost2010PropOp45
 70
     1
102
RTVSPost2010Prop46
 90
       50
102
RTVSPost2010PropOp46
 70
     1
102
RTVSPost2010Prop47
 90
       50
102
RTVSPost2010PropOp47
 70
     1
102
RTVSPost2010Prop48
 90
       50
102
RTVSPost2010PropOp48
 70
     1
102
RTVSPost2010Prop49
280
     0
102
RTVSPost2010PropOp49
 70
     1
102
RTVSPost2010Prop50
 90
       50
102
RTVSPost2010PropOp50
 70
     1
102
RTVSPost2010Prop51ColorIndex
 90
      256
102
RTVSPost2010Prop51ColorRGB
 90
-16777216
102
RTVSPost2010PropOp51
 70
     0
102
RTVSPost2010Prop52
140
1.0
102
RTVSPost2010PropOp52
 70
     0
102
RTVSPost2010Prop53
 90
        2
102
RTVSPost2010PropOp53
 70
     1
102
RTVSPost2010Prop54
  1
strokes_ogs.tif
102
RTVSPost2010PropOp54
 70
     1
102
RTVSPost2010Prop55
280
     0
102
RTVSPost2010PropOp55
 70
     1
102
RTVSPost2010Prop56
140
1.0
102
RTVSPost2010PropOp56
 70
     1
102
RTVSPost2010Prop57
140
1.0
102
RTVSPost2010PropOp57
 70
     1
102
RTVSPropertyOp0
 70
     1
102
RTVSPropertyOp1
 70
     1
102
RTVSPropertyOp2
 70
     1
102
RTVSPropertyOp3
 70
     1
102
RTVSPropertyOp4
 70
     1
102
RTVSPropertyOp5
 70
     1
102
RTVSPropertyOp6
 70
     1
102
RTVSPropertyOp7
 70
     1
102
RTVSPropertyOp8
 70
     1
102
RTVSPropertyOp9
 70
     1
102
RTVSPropertyOp10
 70
     1
102
RTVSPropertyOp11
 70
     1
102
RTVSPropertyOp12
 70
     1
102
RTVSPropertyOp13
 70
     1
102
RTVSPropertyOp14
 70
     1
102
RTVSPropertyOp15
 70
     1
102
RTVSPropertyOp16
 70
     1
102
RTVSPropertyOp17
 70
     1
102
RTVSPropertyOp18
 70
     1
102
RTVSPropertyOp19
 70
     1
102
RTVSPropertyOp20
 70
     1
102
RTVSPropertyOp21
 70
     1
102
RTVSPropertyOp22
 70
     1
102
RTVSPropertyOp23
 70
     1
102
RTVSPropertyOp24
 70
     1
102
RTVSPropertyOp25
 70
     1
102
RTVSPropertyOp26
 70
     1
102
RTVSPropertyOp27
 70
     1
102
RTVSPropertyOp28
 70
     1
102
RTVSPropertyOp29
 70
     1
102
RTVSPropertyOp30
 70
     1
102
RTVSPropertyOp31
 70
     1
102
RTVSPropertyOp32
 70
     1
102
RTVSPropertyOp33
 70
     1
102
RTVSPropertyOp34
 70
     1
102
RTVSPropertyOp35
 70
     1
102
RTVSPropertyOp36
 70
     1
102
RTVSPropertyOp37
 70
     1
102
RTVSPropertyOp38
 70
     1
102
RTVSPropertyOp39
 70
     1
102
RTVSPropertyOp40
 70
     1
102
RTVSPropertyOp41
 70
     1
102
RTVSPropertyOp42
 70
     1
102
RTVSPropertyOp43
 70
     1
102
RTVSPropertyOp44
 70
     1
102
RTVSPropertyOp45
 70
     1
102
RTVSPropertyOp46
 70
     1
102
RTVSPropertyOp47
 70
     1
102
RTVSPropertyOp48
 70
     1
102
RTVSPropertyOp49
 70
     1
102
RTVSPropertyOp50
 70
     1
102
RTVSPropertyOp51
 70
     0
102
RTVSPropertyOp52
 70
     0
102
RTVSPropertyOp53
 70
     1
102
RTVSPropertyOp54
 70
     1
102
RTVSPropertyOp55
 70
     1
102
RTVSPropertyOp56
 70
     1
102
RTVSPropertyOp57
 70
     1
102
RTVSPropertyOp58
 70
     1
102
RTVSPropertyOp59
 70
     1
102
RTVSPropertyOp60
 70
     1
102
RTVSPropertyOp61
 70
     1
102
RTVSPropertyOp62
 70
     1
  0
XRECORD
  5
167D
102
{ACAD_REACTORS
330
167C
102
}
330
167C
100
AcDbXrecord
280
     1
102
RTVSPost2010Prop28
280
     0
102
RTVSPost2010PropOp28
 70
     1
102
RTVSPost2010Prop29
280
     1
102
RTVSPost2010PropOp29
 70
     1
102
RTVSPost2010Prop30
280
     1
102
RTVSPost2010PropOp30
 70
     1
102
RTVSPost2010Prop31
280
     0
102
RTVSPost2010PropOp31
 70
     1
102
RTVSPost2010Prop32
280
     0
102
RTVSPost2010PropOp32
 70
     1
102
RTVSPost2010Prop33
280
     0
102
RTVSPost2010PropOp33
 70
     1
102
RTVSPost2010Prop34
280
     0
102
RTVSPost2010PropOp34
 70
     1
102
RTVSPost2010Prop35
280
     0
102
RTVSPost2010PropOp35
 70
     1
102
RTVSPost2010Prop36
280
     0
102
RTVSPost2010PropOp36
 70
     1
102
RTVSPost2010Prop37
 90
       50
102
RTVSPost2010PropOp37
 70
     1
102
RTVSPost2010Prop38
140
0.0
102
RTVSPost2010PropOp38
 70
     1
102
RTVSPost2010Prop39
140
1.0
102
RTVSPost2010PropOp39
 70
     1
102
RTVSPost2010Prop40
 90
        0
102
RTVSPost2010PropOp40
 70
     1
102
RTVSPost2010Prop41ColorIndex
 90
       18
102
RTVSPost2010Prop41ColorRGB
 90
        0
102
RTVSPost2010PropOp41
 70
     1
102
RTVSPost2010Prop42
 90
       50
102
RTVSPost2010PropOp42
 70
     1
102
RTVSPost2010Prop43
 90
        3
102
RTVSPost2010PropOp43
 70
     1
102
RTVSPost2010Prop44ColorIndex
 90
        5
102
RTVSPost2010Prop44ColorRGB
 90
      255
102
RTVSPost2010PropOp44
 70
     1
102
RTVSPost2010Prop45
280
     0
102
RTVSPost2010PropOp45
 70
     1
102
RTVSPost2010Prop46
 90
       50
102
RTVSPost2010PropOp46
 70
     1
102
RTVSPost2010Prop47
 90
       50
102
RTVSPost2010PropOp47
 70
     1
102
RTVSPost2010Prop48
 90
       50
102
RTVSPost2010PropOp48
 70
     1
102
RTVSPost2010Prop49
280
     0
102
RTVSPost2010PropOp49
 70
     1
102
RTVSPost2010Prop50
 90
       50
102
RTVSPost2010PropOp50
 70
     1
102
RTVSPost2010Prop51ColorIndex
 90
      256
102
RTVSPost2010Prop51ColorRGB
 90
-16777216
102
RTVSPost2010PropOp51
 70
     0
102
RTVSPost2010Prop52
140
1.0
102
RTVSPost2010PropOp52
 70
     0
102
RTVSPost2010Prop53
 90
        2
102
RTVSPost2010PropOp53
 70
     1
102
RTVSPost2010Prop54
  1
strokes_ogs.tif
102
RTVSPost2010PropOp54
 70
     1
102
RTVSPost2010Prop55
280
     0
102
RTVSPost2010PropOp55
 70
     1
102
RTVSPost2010Prop56
140
1.0
102
RTVSPost2010PropOp56
 70
     1
102
RTVSPost2010Prop57
140
1.0
102
RTVSPost2010PropOp57
 70
     1
102
RTVSPropertyOp0
 70
     1
102
RTVSPropertyOp1
 70
     1
102
RTVSPropertyOp2
 70
     1
102
RTVSPropertyOp3
 70
     1
102
RTVSPropertyOp4
 70
     1
102
RTVSPropertyOp5
 70
     1
102
RTVSPropertyOp6
 70
     1
102
RTVSPropertyOp7
 70
     1
102
RTVSPropertyOp8
 70
     1
102
RTVSPropertyOp9
 70
     1
102
RTVSPropertyOp10
 70
     1
102
RTVSPropertyOp11
 70
     1
102
RTVSPropertyOp12
 70
     1
102
RTVSPropertyOp13
 70
     1
102
RTVSPropertyOp14
 70
     1
102
RTVSPropertyOp15
 70
     1
102
RTVSPropertyOp16
 70
     1
102
RTVSPropertyOp17
 70
     1
102
RTVSPropertyOp18
 70
     1
102
RTVSPropertyOp19
 70
     1
102
RTVSPropertyOp20
 70
     1
102
RTVSPropertyOp21
 70
     1
102
RTVSPropertyOp22
 70
     1
102
RTVSPropertyOp23
 70
     1
102
RTVSPropertyOp24
 70
     1
102
RTVSPropertyOp25
 70
     1
102
RTVSPropertyOp26
 70
     1
102
RTVSPropertyOp27
 70
     1
102
RTVSPropertyOp28
 70
     1
102
RTVSPropertyOp29
 70
     1
102
RTVSPropertyOp30
 70
     1
102
RTVSPropertyOp31
 70
     1
102
RTVSPropertyOp32
 70
     1
102
RTVSPropertyOp33
 70
     1
102
RTVSPropertyOp34
 70
     1
102
RTVSPropertyOp35
 70
     1
102
RTVSPropertyOp36
 70
     1
102
RTVSPropertyOp37
 70
     1
102
RTVSPropertyOp38
 70
     1
102
RTVSPropertyOp39
 70
     1
102
RTVSPropertyOp40
 70
     1
102
RTVSPropertyOp41
 70
     1
102
RTVSPropertyOp42
 70
     1
102
RTVSPropertyOp43
 70
     1
102
RTVSPropertyOp44
 70
     1
102
RTVSPropertyOp45
 70
     1
102
RTVSPropertyOp46
 70
     1
102
RTVSPropertyOp47
 70
     1
102
RTVSPropertyOp48
 70
     1
102
RTVSPropertyOp49
 70
     1
102
RTVSPropertyOp50
 70
     1
102
RTVSPropertyOp51
 70
     0
102
RTVSPropertyOp52
 70
     0
102
RTVSPropertyOp53
 70
     1
102
RTVSPropertyOp54
 70
     1
102
RTVSPropertyOp55
 70
     1
102
RTVSPropertyOp56
 70
     1
102
RTVSPropertyOp57
 70
     1
102
RTVSPropertyOp58
 70
     1
102
RTVSPropertyOp59
 70
     1
102
RTVSPropertyOp60
 70
     1
102
RTVSPropertyOp61
 70
     1
102
RTVSPropertyOp62
 70
     1
  0
XRECORD
  5
169C
102
{ACAD_REACTORS
330
169B
102
}
330
169B
100
AcDbXrecord
280
     1
102
RTVSPost2010Prop28
280
     0
102
RTVSPost2010PropOp28
 70
     0
102
RTVSPost2010Prop29
280
     1
102
RTVSPost2010PropOp29
 70
     0
102
RTVSPost2010Prop30
280
     1
102
RTVSPost2010PropOp30
 70
     0
102
RTVSPost2010Prop31
280
     0
102
RTVSPost2010PropOp31
 70
     0
102
RTVSPost2010Prop32
280
     0
102
RTVSPost2010PropOp32
 70
     0
102
RTVSPost2010Prop33
280
     0
102
RTVSPost2010PropOp33
 70
     0
102
RTVSPost2010Prop34
280
     0
102
RTVSPost2010PropOp34
 70
     0
102
RTVSPost2010Prop35
280
     0
102
RTVSPost2010PropOp35
 70
     0
102
RTVSPost2010Prop36
280
     0
102
RTVSPost2010PropOp36
 70
     0
102
RTVSPost2010Prop37
 90
       50
102
RTVSPost2010PropOp37
 70
     0
102
RTVSPost2010Prop38
140
0.0
102
RTVSPost2010PropOp38
 70
     0
102
RTVSPost2010Prop39
140
1.0
102
RTVSPost2010PropOp39
 70
     0
102
RTVSPost2010Prop40
 90
        0
102
RTVSPost2010PropOp40
 70
     0
102
RTVSPost2010Prop41ColorIndex
 90
       18
102
RTVSPost2010Prop41ColorRGB
 90
        0
102
RTVSPost2010PropOp41
 70
     0
102
RTVSPost2010Prop42
 90
       50
102
RTVSPost2010PropOp42
 70
     0
102
RTVSPost2010Prop43
 90
        3
102
RTVSPost2010PropOp43
 70
     0
102
RTVSPost2010Prop44ColorIndex
 90
        5
102
RTVSPost2010Prop44ColorRGB
 90
      255
102
RTVSPost2010PropOp44
 70
     0
102
RTVSPost2010Prop45
280
     0
102
RTVSPost2010PropOp45
 70
     0
102
RTVSPost2010Prop46
 90
       50
102
RTVSPost2010PropOp46
 70
     0
102
RTVSPost2010Prop47
 90
       50
102
RTVSPost2010PropOp47
 70
     0
102
RTVSPost2010Prop48
 90
       50
102
RTVSPost2010PropOp48
 70
     0
102
RTVSPost2010Prop49
280
     0
102
RTVSPost2010PropOp49
 70
     0
102
RTVSPost2010Prop50
 90
       50
102
RTVSPost2010PropOp50
 70
     0
102
RTVSPost2010Prop51ColorIndex
 90
      256
102
RTVSPost2010Prop51ColorRGB
 90
-16777216
102
RTVSPost2010PropOp51
 70
     0
102
RTVSPost2010Prop52
140
1.0
102
RTVSPost2010PropOp52
 70
     0
102
RTVSPost2010Prop53
 90
        2
102
RTVSPost2010PropOp53
 70
     0
102
RTVSPost2010Prop54
  1
strokes_ogs.tif
102
RTVSPost2010PropOp54
 70
     0
102
RTVSPost2010Prop55
280
     0
102
RTVSPost2010PropOp55
 70
     0
102
RTVSPost2010Prop56
140
1.0
102
RTVSPost2010PropOp56
 70
     0
102
RTVSPost2010Prop57
140
1.0
102
RTVSPost2010PropOp57
 70
     0
102
RTVSPropertyOp0
 70
     0
102
RTVSPropertyOp1
 70
     0
102
RTVSPropertyOp2
 70
     0
102
RTVSPropertyOp3
 70
     0
102
RTVSPropertyOp4
 70
     0
102
RTVSPropertyOp5
 70
     0
102
RTVSPropertyOp6
 70
     0
102
RTVSPropertyOp7
 70
     0
102
RTVSPropertyOp8
 70
     0
102
RTVSPropertyOp9
 70
     0
102
RTVSPropertyOp10
 70
     0
102
RTVSPropertyOp11
 70
     0
102
RTVSPropertyOp12
 70
     0
102
RTVSPropertyOp13
 70
     0
102
RTVSPropertyOp14
 70
     2
102
RTVSPropertyOp15
 70
     0
102
RTVSPropertyOp16
 70
     0
102
RTVSPropertyOp17
 70
     0
102
RTVSPropertyOp18
 70
     0
102
RTVSPropertyOp19
 70
     0
102
RTVSPropertyOp20
 70
     0
102
RTVSPropertyOp21
 70
     0
102
RTVSPropertyOp22
 70
     0
102
RTVSPropertyOp23
 70
     0
102
RTVSPropertyOp24
 70
     0
102
RTVSPropertyOp25
 70
     0
102
RTVSPropertyOp26
 70
     0
102
RTVSPropertyOp27
 70
     0
102
RTVSPropertyOp28
 70
     0
102
RTVSPropertyOp29
 70
     0
102
RTVSPropertyOp30
 70
     0
102
RTVSPropertyOp31
 70
     0
102
RTVSPropertyOp32
 70
     0
102
RTVSPropertyOp33
 70
     0
102
RTVSPropertyOp34
 70
     0
102
RTVSPropertyOp35
 70
     0
102
RTVSPropertyOp36
 70
     0
102
RTVSPropertyOp37
 70
     0
102
RTVSPropertyOp38
 70
     0
102
RTVSPropertyOp39
 70
     0
102
RTVSPropertyOp40
 70
     0
102
RTVSPropertyOp41
 70
     0
102
RTVSPropertyOp42
 70
     0
102
RTVSPropertyOp43
 70
     0
102
RTVSPropertyOp44
 70
     0
102
RTVSPropertyOp45
 70
     0
102
RTVSPropertyOp46
 70
     0
102
RTVSPropertyOp47
 70
     0
102
RTVSPropertyOp48
 70
     0
102
RTVSPropertyOp49
 70
     0
102
RTVSPropertyOp50
 70
     0
102
RTVSPropertyOp51
 70
     0
102
RTVSPropertyOp52
 70
     0
102
RTVSPropertyOp53
 70
     0
102
RTVSPropertyOp54
 70
     0
102
RTVSPropertyOp55
 70
     0
102
RTVSPropertyOp56
 70
     0
102
RTVSPropertyOp57
 70
     0
102
RTVSPropertyOp58
 70
     0
102
RTVSPropertyOp59
 70
     0
102
RTVSPropertyOp60
 70
     0
102
RTVSPropertyOp61
 70
     0
102
RTVSPropertyOp62
 70
     0
  0
XRECORD
  5
1685
102
{ACAD_REACTORS
330
1684
102
}
330
1684
100
AcDbXrecord
280
     1
102
RTVSPost2010Prop28
280
     0
102
RTVSPost2010PropOp28
 70
     1
102
RTVSPost2010Prop29
280
     1
102
RTVSPost2010PropOp29
 70
     1
102
RTVSPost2010Prop30
280
     1
102
RTVSPost2010PropOp30
 70
     1
102
RTVSPost2010Prop31
280
     0
102
RTVSPost2010PropOp31
 70
     1
102
RTVSPost2010Prop32
280
     0
102
RTVSPost2010PropOp32
 70
     1
102
RTVSPost2010Prop33
280
     0
102
RTVSPost2010PropOp33
 70
     1
102
RTVSPost2010Prop34
280
     0
102
RTVSPost2010PropOp34
 70
     1
102
RTVSPost2010Prop35
280
     0
102
RTVSPost2010PropOp35
 70
     1
102
RTVSPost2010Prop36
280
     0
102
RTVSPost2010PropOp36
 70
     1
102
RTVSPost2010Prop37
 90
       50
102
RTVSPost2010PropOp37
 70
     1
102
RTVSPost2010Prop38
140
0.0
102
RTVSPost2010PropOp38
 70
     1
102
RTVSPost2010Prop39
140
1.0
102
RTVSPost2010PropOp39
 70
     1
102
RTVSPost2010Prop40
 90
        0
102
RTVSPost2010PropOp40
 70
     1
102
RTVSPost2010Prop41ColorIndex
 90
       18
102
RTVSPost2010Prop41ColorRGB
 90
        0
102
RTVSPost2010PropOp41
 70
     1
102
RTVSPost2010Prop42
 90
       50
102
RTVSPost2010PropOp42
 70
     1
102
RTVSPost2010Prop43
 90
        3
102
RTVSPost2010PropOp43
 70
     1
102
RTVSPost2010Prop44ColorIndex
 90
        5
102
RTVSPost2010Prop44ColorRGB
 90
      255
102
RTVSPost2010PropOp44
 70
     1
102
RTVSPost2010Prop45
280
     0
102
RTVSPost2010PropOp45
 70
     1
102
RTVSPost2010Prop46
 90
       50
102
RTVSPost2010PropOp46
 70
     1
102
RTVSPost2010Prop47
 90
       50
102
RTVSPost2010PropOp47
 70
     1
102
RTVSPost2010Prop48
 90
       50
102
RTVSPost2010PropOp48
 70
     1
102
RTVSPost2010Prop49
280
     0
102
RTVSPost2010PropOp49
 70
     1
102
RTVSPost2010Prop50
 90
       50
102
RTVSPost2010PropOp50
 70
     1
102
RTVSPost2010Prop51ColorIndex
 90
      256
102
RTVSPost2010Prop51ColorRGB
 90
-16777216
102
RTVSPost2010PropOp51
 70
     0
102
RTVSPost2010Prop52
140
1.0
102
RTVSPost2010PropOp52
 70
     0
102
RTVSPost2010Prop53
 90
        2
102
RTVSPost2010PropOp53
 70
     1
102
RTVSPost2010Prop54
  1
strokes_ogs.tif
102
RTVSPost2010PropOp54
 70
     1
102
RTVSPost2010Prop55
280
     0
102
RTVSPost2010PropOp55
 70
     1
102
RTVSPost2010Prop56
140
1.0
102
RTVSPost2010PropOp56
 70
     1
102
RTVSPost2010Prop57
140
1.0
102
RTVSPost2010PropOp57
 70
     1
102
RTVSPropertyOp0
 70
     1
102
RTVSPropertyOp1
 70
     1
102
RTVSPropertyOp2
 70
     1
102
RTVSPropertyOp3
 70
     1
102
RTVSPropertyOp4
 70
     1
102
RTVSPropertyOp5
 70
     1
102
RTVSPropertyOp6
 70
     1
102
RTVSPropertyOp7
 70
     1
102
RTVSPropertyOp8
 70
     1
102
RTVSPropertyOp9
 70
     1
102
RTVSPropertyOp10
 70
     1
102
RTVSPropertyOp11
 70
     1
102
RTVSPropertyOp12
 70
     1
102
RTVSPropertyOp13
 70
     1
102
RTVSPropertyOp14
 70
     1
102
RTVSPropertyOp15
 70
     1
102
RTVSPropertyOp16
 70
     1
102
RTVSPropertyOp17
 70
     1
102
RTVSPropertyOp18
 70
     1
102
RTVSPropertyOp19
 70
     1
102
RTVSPropertyOp20
 70
     1
102
RTVSPropertyOp21
 70
     1
102
RTVSPropertyOp22
 70
     1
102
RTVSPropertyOp23
 70
     1
102
RTVSPropertyOp24
 70
     1
102
RTVSPropertyOp25
 70
     1
102
RTVSPropertyOp26
 70
     1
102
RTVSPropertyOp27
 70
     1
102
RTVSPropertyOp28
 70
     1
102
RTVSPropertyOp29
 70
     1
102
RTVSPropertyOp30
 70
     1
102
RTVSPropertyOp31
 70
     1
102
RTVSPropertyOp32
 70
     1
102
RTVSPropertyOp33
 70
     1
102
RTVSPropertyOp34
 70
     1
102
RTVSPropertyOp35
 70
     1
102
RTVSPropertyOp36
 70
     1
102
RTVSPropertyOp37
 70
     1
102
RTVSPropertyOp38
 70
     1
102
RTVSPropertyOp39
 70
     1
102
RTVSPropertyOp40
 70
     1
102
RTVSPropertyOp41
 70
     1
102
RTVSPropertyOp42
 70
     1
102
RTVSPropertyOp43
 70
     1
102
RTVSPropertyOp44
 70
     1
102
RTVSPropertyOp45
 70
     1
102
RTVSPropertyOp46
 70
     1
102
RTVSPropertyOp47
 70
     1
102
RTVSPropertyOp48
 70
     1
102
RTVSPropertyOp49
 70
     1
102
RTVSPropertyOp50
 70
     1
102
RTVSPropertyOp51
 70
     0
102
RTVSPropertyOp52
 70
     0
102
RTVSPropertyOp53
 70
     1
102
RTVSPropertyOp54
 70
     1
102
RTVSPropertyOp55
 70
     1
102
RTVSPropertyOp56
 70
     1
102
RTVSPropertyOp57
 70
     1
102
RTVSPropertyOp58
 70
     1
102
RTVSPropertyOp59
 70
     1
102
RTVSPropertyOp60
 70
     1
102
RTVSPropertyOp61
 70
     1
102
RTVSPropertyOp62
 70
     1
  0
XRECORD
  5
1669
102
{ACAD_REACTORS
330
1668
102
}
330
1668
100
AcDbXrecord
280
     1
102
RTVSPost2010Prop28
280
     0
102
RTVSPost2010PropOp28
 70
     1
102
RTVSPost2010Prop29
280
     1
102
RTVSPost2010PropOp29
 70
     1
102
RTVSPost2010Prop30
280
     1
102
RTVSPost2010PropOp30
 70
     1
102
RTVSPost2010Prop31
280
     0
102
RTVSPost2010PropOp31
 70
     1
102
RTVSPost2010Prop32
280
     0
102
RTVSPost2010PropOp32
 70
     1
102
RTVSPost2010Prop33
280
     0
102
RTVSPost2010PropOp33
 70
     1
102
RTVSPost2010Prop34
280
     0
102
RTVSPost2010PropOp34
 70
     1
102
RTVSPost2010Prop35
280
     0
102
RTVSPost2010PropOp35
 70
     1
102
RTVSPost2010Prop36
280
     0
102
RTVSPost2010PropOp36
 70
     1
102
RTVSPost2010Prop37
 90
       50
102
RTVSPost2010PropOp37
 70
     1
102
RTVSPost2010Prop38
140
0.0
102
RTVSPost2010PropOp38
 70
     1
102
RTVSPost2010Prop39
140
1.0
102
RTVSPost2010PropOp39
 70
     1
102
RTVSPost2010Prop40
 90
        0
102
RTVSPost2010PropOp40
 70
     1
102
RTVSPost2010Prop41ColorIndex
 90
       18
102
RTVSPost2010Prop41ColorRGB
 90
        0
102
RTVSPost2010PropOp41
 70
     1
102
RTVSPost2010Prop42
 90
       50
102
RTVSPost2010PropOp42
 70
     1
102
RTVSPost2010Prop43
 90
        3
102
RTVSPost2010PropOp43
 70
     1
102
RTVSPost2010Prop44ColorIndex
 90
        5
102
RTVSPost2010Prop44ColorRGB
 90
      255
102
RTVSPost2010PropOp44
 70
     1
102
RTVSPost2010Prop45
280
     0
102
RTVSPost2010PropOp45
 70
     1
102
RTVSPost2010Prop46
 90
       50
102
RTVSPost2010PropOp46
 70
     1
102
RTVSPost2010Prop47
 90
       50
102
RTVSPost2010PropOp47
 70
     1
102
RTVSPost2010Prop48
 90
       50
102
RTVSPost2010PropOp48
 70
     1
102
RTVSPost2010Prop49
280
     0
102
RTVSPost2010PropOp49
 70
     1
102
RTVSPost2010Prop50
 90
       50
102
RTVSPost2010PropOp50
 70
     1
102
RTVSPost2010Prop51ColorIndex
 90
      256
102
RTVSPost2010Prop51ColorRGB
 90
-16777216
102
RTVSPost2010PropOp51
 70
     0
102
RTVSPost2010Prop52
140
1.0
102
RTVSPost2010PropOp52
 70
     0
102
RTVSPost2010Prop53
 90
        2
102
RTVSPost2010PropOp53
 70
     1
102
RTVSPost2010Prop54
  1
strokes_ogs.tif
102
RTVSPost2010PropOp54
 70
     1
102
RTVSPost2010Prop55
280
     0
102
RTVSPost2010PropOp55
 70
     1
102
RTVSPost2010Prop56
140
1.0
102
RTVSPost2010PropOp56
 70
     1
102
RTVSPost2010Prop57
140
1.0
102
RTVSPost2010PropOp57
 70
     1
102
RTVSPropertyOp0
 70
     1
102
RTVSPropertyOp1
 70
     1
102
RTVSPropertyOp2
 70
     1
102
RTVSPropertyOp3
 70
     1
102
RTVSPropertyOp4
 70
     1
102
RTVSPropertyOp5
 70
     1
102
RTVSPropertyOp6
 70
     1
102
RTVSPropertyOp7
 70
     1
102
RTVSPropertyOp8
 70
     1
102
RTVSPropertyOp9
 70
     1
102
RTVSPropertyOp10
 70
     1
102
RTVSPropertyOp11
 70
     1
102
RTVSPropertyOp12
 70
     1
102
RTVSPropertyOp13
 70
     1
102
RTVSPropertyOp14
 70
     1
102
RTVSPropertyOp15
 70
     1
102
RTVSPropertyOp16
 70
     1
102
RTVSPropertyOp17
 70
     1
102
RTVSPropertyOp18
 70
     1
102
RTVSPropertyOp19
 70
     1
102
RTVSPropertyOp20
 70
     1
102
RTVSPropertyOp21
 70
     1
102
RTVSPropertyOp22
 70
     1
102
RTVSPropertyOp23
 70
     1
102
RTVSPropertyOp24
 70
     1
102
RTVSPropertyOp25
 70
     1
102
RTVSPropertyOp26
 70
     1
102
RTVSPropertyOp27
 70
     1
102
RTVSPropertyOp28
 70
     1
102
RTVSPropertyOp29
 70
     1
102
RTVSPropertyOp30
 70
     1
102
RTVSPropertyOp31
 70
     1
102
RTVSPropertyOp32
 70
     1
102
RTVSPropertyOp33
 70
     1
102
RTVSPropertyOp34
 70
     1
102
RTVSPropertyOp35
 70
     1
102
RTVSPropertyOp36
 70
     1
102
RTVSPropertyOp37
 70
     1
102
RTVSPropertyOp38
 70
     1
102
RTVSPropertyOp39
 70
     1
102
RTVSPropertyOp40
 70
     1
102
RTVSPropertyOp41
 70
     1
102
RTVSPropertyOp42
 70
     1
102
RTVSPropertyOp43
 70
     1
102
RTVSPropertyOp44
 70
     1
102
RTVSPropertyOp45
 70
     1
102
RTVSPropertyOp46
 70
     1
102
RTVSPropertyOp47
 70
     1
102
RTVSPropertyOp48
 70
     1
102
RTVSPropertyOp49
 70
     1
102
RTVSPropertyOp50
 70
     1
102
RTVSPropertyOp51
 70
     0
102
RTVSPropertyOp52
 70
     0
102
RTVSPropertyOp53
 70
     1
102
RTVSPropertyOp54
 70
     1
102
RTVSPropertyOp55
 70
     1
102
RTVSPropertyOp56
 70
     1
102
RTVSPropertyOp57
 70
     1
102
RTVSPropertyOp58
 70
     1
102
RTVSPropertyOp59
 70
     1
102
RTVSPropertyOp60
 70
     1
102
RTVSPropertyOp61
 70
     1
102
RTVSPropertyOp62
 70
     1
  0
XRECORD
  5
166B
102
{ACAD_REACTORS
330
166A
102
}
330
166A
100
AcDbXrecord
280
     1
102
RTVSPost2010Prop28
280
     0
102
RTVSPost2010PropOp28
 70
     1
102
RTVSPost2010Prop29
280
     1
102
RTVSPost2010PropOp29
 70
     1
102
RTVSPost2010Prop30
280
     1
102
RTVSPost2010PropOp30
 70
     1
102
RTVSPost2010Prop31
280
     0
102
RTVSPost2010PropOp31
 70
     1
102
RTVSPost2010Prop32
280
     0
102
RTVSPost2010PropOp32
 70
     1
102
RTVSPost2010Prop33
280
     0
102
RTVSPost2010PropOp33
 70
     1
102
RTVSPost2010Prop34
280
     0
102
RTVSPost2010PropOp34
 70
     1
102
RTVSPost2010Prop35
280
     0
102
RTVSPost2010PropOp35
 70
     1
102
RTVSPost2010Prop36
280
     0
102
RTVSPost2010PropOp36
 70
     1
102
RTVSPost2010Prop37
 90
       50
102
RTVSPost2010PropOp37
 70
     1
102
RTVSPost2010Prop38
140
0.0
102
RTVSPost2010PropOp38
 70
     1
102
RTVSPost2010Prop39
140
1.0
102
RTVSPost2010PropOp39
 70
     1
102
RTVSPost2010Prop40
 90
        0
102
RTVSPost2010PropOp40
 70
     1
102
RTVSPost2010Prop41ColorIndex
 90
       18
102
RTVSPost2010Prop41ColorRGB
 90
        0
102
RTVSPost2010PropOp41
 70
     1
102
RTVSPost2010Prop42
 90
       50
102
RTVSPost2010PropOp42
 70
     1
102
RTVSPost2010Prop43
 90
        3
102
RTVSPost2010PropOp43
 70
     1
102
RTVSPost2010Prop44ColorIndex
 90
        5
102
RTVSPost2010Prop44ColorRGB
 90
      255
102
RTVSPost2010PropOp44
 70
     1
102
RTVSPost2010Prop45
280
     0
102
RTVSPost2010PropOp45
 70
     1
102
RTVSPost2010Prop46
 90
       50
102
RTVSPost2010PropOp46
 70
     1
102
RTVSPost2010Prop47
 90
       50
102
RTVSPost2010PropOp47
 70
     1
102
RTVSPost2010Prop48
 90
       50
102
RTVSPost2010PropOp48
 70
     1
102
RTVSPost2010Prop49
280
     0
102
RTVSPost2010PropOp49
 70
     1
102
RTVSPost2010Prop50
 90
       50
102
RTVSPost2010PropOp50
 70
     1
102
RTVSPost2010Prop51ColorIndex
 90
      256
102
RTVSPost2010Prop51ColorRGB
 90
-16777216
102
RTVSPost2010PropOp51
 70
     0
102
RTVSPost2010Prop52
140
1.0
102
RTVSPost2010PropOp52
 70
     0
102
RTVSPost2010Prop53
 90
        2
102
RTVSPost2010PropOp53
 70
     1
102
RTVSPost2010Prop54
  1
strokes_ogs.tif
102
RTVSPost2010PropOp54
 70
     1
102
RTVSPost2010Prop55
280
     0
102
RTVSPost2010PropOp55
 70
     1
102
RTVSPost2010Prop56
140
1.0
102
RTVSPost2010PropOp56
 70
     1
102
RTVSPost2010Prop57
140
1.0
102
RTVSPost2010PropOp57
 70
     1
102
RTVSPropertyOp0
 70
     1
102
RTVSPropertyOp1
 70
     1
102
RTVSPropertyOp2
 70
     1
102
RTVSPropertyOp3
 70
     1
102
RTVSPropertyOp4
 70
     1
102
RTVSPropertyOp5
 70
     1
102
RTVSPropertyOp6
 70
     1
102
RTVSPropertyOp7
 70
     1
102
RTVSPropertyOp8
 70
     1
102
RTVSPropertyOp9
 70
     1
102
RTVSPropertyOp10
 70
     1
102
RTVSPropertyOp11
 70
     1
102
RTVSPropertyOp12
 70
     1
102
RTVSPropertyOp13
 70
     1
102
RTVSPropertyOp14
 70
     1
102
RTVSPropertyOp15
 70
     1
102
RTVSPropertyOp16
 70
     1
102
RTVSPropertyOp17
 70
     1
102
RTVSPropertyOp18
 70
     1
102
RTVSPropertyOp19
 70
     1
102
RTVSPropertyOp20
 70
     1
102
RTVSPropertyOp21
 70
     1
102
RTVSPropertyOp22
 70
     1
102
RTVSPropertyOp23
 70
     1
102
RTVSPropertyOp24
 70
     1
102
RTVSPropertyOp25
 70
     1
102
RTVSPropertyOp26
 70
     1
102
RTVSPropertyOp27
 70
     1
102
RTVSPropertyOp28
 70
     1
102
RTVSPropertyOp29
 70
     1
102
RTVSPropertyOp30
 70
     1
102
RTVSPropertyOp31
 70
     1
102
RTVSPropertyOp32
 70
     1
102
RTVSPropertyOp33
 70
     1
102
RTVSPropertyOp34
 70
     1
102
RTVSPropertyOp35
 70
     1
102
RTVSPropertyOp36
 70
     1
102
RTVSPropertyOp37
 70
     1
102
RTVSPropertyOp38
 70
     1
102
RTVSPropertyOp39
 70
     1
102
RTVSPropertyOp40
 70
     1
102
RTVSPropertyOp41
 70
     1
102
RTVSPropertyOp42
 70
     1
102
RTVSPropertyOp43
 70
     1
102
RTVSPropertyOp44
 70
     1
102
RTVSPropertyOp45
 70
     1
102
RTVSPropertyOp46
 70
     1
102
RTVSPropertyOp47
 70
     1
102
RTVSPropertyOp48
 70
     1
102
RTVSPropertyOp49
 70
     1
102
RTVSPropertyOp50
 70
     1
102
RTVSPropertyOp51
 70
     0
102
RTVSPropertyOp52
 70
     0
102
RTVSPropertyOp53
 70
     1
102
RTVSPropertyOp54
 70
     1
102
RTVSPropertyOp55
 70
     1
102
RTVSPropertyOp56
 70
     1
102
RTVSPropertyOp57
 70
     1
102
RTVSPropertyOp58
 70
     1
102
RTVSPropertyOp59
 70
     1
102
RTVSPropertyOp60
 70
     1
102
RTVSPropertyOp61
 70
     1
102
RTVSPropertyOp62
 70
     1
  0
XRECORD
  5
166D
102
{ACAD_REACTORS
330
166C
102
}
330
166C
100
AcDbXrecord
280
     1
102
RTVSPost2010Prop28
280
     0
102
RTVSPost2010PropOp28
 70
     1
102
RTVSPost2010Prop29
280
     1
102
RTVSPost2010PropOp29
 70
     1
102
RTVSPost2010Prop30
280
     1
102
RTVSPost2010PropOp30
 70
     1
102
RTVSPost2010Prop31
280
     0
102
RTVSPost2010PropOp31
 70
     1
102
RTVSPost2010Prop32
280
     0
102
RTVSPost2010PropOp32
 70
     1
102
RTVSPost2010Prop33
280
     0
102
RTVSPost2010PropOp33
 70
     1
102
RTVSPost2010Prop34
280
     0
102
RTVSPost2010PropOp34
 70
     1
102
RTVSPost2010Prop35
280
     0
102
RTVSPost2010PropOp35
 70
     1
102
RTVSPost2010Prop36
280
     0
102
RTVSPost2010PropOp36
 70
     1
102
RTVSPost2010Prop37
 90
       50
102
RTVSPost2010PropOp37
 70
     1
102
RTVSPost2010Prop38
140
0.0
102
RTVSPost2010PropOp38
 70
     1
102
RTVSPost2010Prop39
140
1.0
102
RTVSPost2010PropOp39
 70
     1
102
RTVSPost2010Prop40
 90
        0
102
RTVSPost2010PropOp40
 70
     1
102
RTVSPost2010Prop41ColorIndex
 90
       18
102
RTVSPost2010Prop41ColorRGB
 90
        0
102
RTVSPost2010PropOp41
 70
     1
102
RTVSPost2010Prop42
 90
       50
102
RTVSPost2010PropOp42
 70
     1
102
RTVSPost2010Prop43
 90
        3
102
RTVSPost2010PropOp43
 70
     1
102
RTVSPost2010Prop44ColorIndex
 90
        5
102
RTVSPost2010Prop44ColorRGB
 90
      255
102
RTVSPost2010PropOp44
 70
     1
102
RTVSPost2010Prop45
280
     0
102
RTVSPost2010PropOp45
 70
     1
102
RTVSPost2010Prop46
 90
       50
102
RTVSPost2010PropOp46
 70
     1
102
RTVSPost2010Prop47
 90
       50
102
RTVSPost2010PropOp47
 70
     1
102
RTVSPost2010Prop48
 90
       50
102
RTVSPost2010PropOp48
 70
     1
102
RTVSPost2010Prop49
280
     0
102
RTVSPost2010PropOp49
 70
     1
102
RTVSPost2010Prop50
 90
       50
102
RTVSPost2010PropOp50
 70
     1
102
RTVSPost2010Prop51ColorIndex
 90
      256
102
RTVSPost2010Prop51ColorRGB
 90
-16777216
102
RTVSPost2010PropOp51
 70
     0
102
RTVSPost2010Prop52
140
1.0
102
RTVSPost2010PropOp52
 70
     0
102
RTVSPost2010Prop53
 90
        2
102
RTVSPost2010PropOp53
 70
     1
102
RTVSPost2010Prop54
  1
strokes_ogs.tif
102
RTVSPost2010PropOp54
 70
     1
102
RTVSPost2010Prop55
280
     0
102
RTVSPost2010PropOp55
 70
     1
102
RTVSPost2010Prop56
140
1.0
102
RTVSPost2010PropOp56
 70
     1
102
RTVSPost2010Prop57
140
1.0
102
RTVSPost2010PropOp57
 70
     1
102
RTVSPropertyOp0
 70
     1
102
RTVSPropertyOp1
 70
     1
102
RTVSPropertyOp2
 70
     1
102
RTVSPropertyOp3
 70
     1
102
RTVSPropertyOp4
 70
     1
102
RTVSPropertyOp5
 70
     1
102
RTVSPropertyOp6
 70
     1
102
RTVSPropertyOp7
 70
     1
102
RTVSPropertyOp8
 70
     1
102
RTVSPropertyOp9
 70
     1
102
RTVSPropertyOp10
 70
     1
102
RTVSPropertyOp11
 70
     1
102
RTVSPropertyOp12
 70
     1
102
RTVSPropertyOp13
 70
     1
102
RTVSPropertyOp14
 70
     1
102
RTVSPropertyOp15
 70
     1
102
RTVSPropertyOp16
 70
     1
102
RTVSPropertyOp17
 70
     1
102
RTVSPropertyOp18
 70
     1
102
RTVSPropertyOp19
 70
     1
102
RTVSPropertyOp20
 70
     1
102
RTVSPropertyOp21
 70
     1
102
RTVSPropertyOp22
 70
     1
102
RTVSPropertyOp23
 70
     1
102
RTVSPropertyOp24
 70
     1
102
RTVSPropertyOp25
 70
     1
102
RTVSPropertyOp26
 70
     1
102
RTVSPropertyOp27
 70
     1
102
RTVSPropertyOp28
 70
     1
102
RTVSPropertyOp29
 70
     1
102
RTVSPropertyOp30
 70
     1
102
RTVSPropertyOp31
 70
     1
102
RTVSPropertyOp32
 70
     1
102
RTVSPropertyOp33
 70
     1
102
RTVSPropertyOp34
 70
     1
102
RTVSPropertyOp35
 70
     1
102
RTVSPropertyOp36
 70
     1
102
RTVSPropertyOp37
 70
     1
102
RTVSPropertyOp38
 70
     1
102
RTVSPropertyOp39
 70
     1
102
RTVSPropertyOp40
 70
     1
102
RTVSPropertyOp41
 70
     1
102
RTVSPropertyOp42
 70
     1
102
RTVSPropertyOp43
 70
     1
102
RTVSPropertyOp44
 70
     1
102
RTVSPropertyOp45
 70
     1
102
RTVSPropertyOp46
 70
     1
102
RTVSPropertyOp47
 70
     1
102
RTVSPropertyOp48
 70
     1
102
RTVSPropertyOp49
 70
     1
102
RTVSPropertyOp50
 70
     1
102
RTVSPropertyOp51
 70
     0
102
RTVSPropertyOp52
 70
     0
102
RTVSPropertyOp53
 70
     1
102
RTVSPropertyOp54
 70
     1
102
RTVSPropertyOp55
 70
     1
102
RTVSPropertyOp56
 70
     1
102
RTVSPropertyOp57
 70
     1
102
RTVSPropertyOp58
 70
     1
102
RTVSPropertyOp59
 70
     1
102
RTVSPropertyOp60
 70
     1
102
RTVSPropertyOp61
 70
     1
102
RTVSPropertyOp62
 70
     1
  0
XRECORD
  5
166F
102
{ACAD_REACTORS
330
166E
102
}
330
166E
100
AcDbXrecord
280
     1
102
RTVSPost2010Prop28
280
     0
102
RTVSPost2010PropOp28
 70
     1
102
RTVSPost2010Prop29
280
     1
102
RTVSPost2010PropOp29
 70
     1
102
RTVSPost2010Prop30
280
     1
102
RTVSPost2010PropOp30
 70
     1
102
RTVSPost2010Prop31
280
     0
102
RTVSPost2010PropOp31
 70
     1
102
RTVSPost2010Prop32
280
     0
102
RTVSPost2010PropOp32
 70
     1
102
RTVSPost2010Prop33
280
     0
102
RTVSPost2010PropOp33
 70
     1
102
RTVSPost2010Prop34
280
     0
102
RTVSPost2010PropOp34
 70
     1
102
RTVSPost2010Prop35
280
     0
102
RTVSPost2010PropOp35
 70
     1
102
RTVSPost2010Prop36
280
     0
102
RTVSPost2010PropOp36
 70
     1
102
RTVSPost2010Prop37
 90
       50
102
RTVSPost2010PropOp37
 70
     1
102
RTVSPost2010Prop38
140
0.0
102
RTVSPost2010PropOp38
 70
     1
102
RTVSPost2010Prop39
140
1.0
102
RTVSPost2010PropOp39
 70
     1
102
RTVSPost2010Prop40
 90
        0
102
RTVSPost2010PropOp40
 70
     1
102
RTVSPost2010Prop41ColorIndex
 90
       18
102
RTVSPost2010Prop41ColorRGB
 90
        0
102
RTVSPost2010PropOp41
 70
     1
102
RTVSPost2010Prop42
 90
       50
102
RTVSPost2010PropOp42
 70
     1
102
RTVSPost2010Prop43
 90
        3
102
RTVSPost2010PropOp43
 70
     1
102
RTVSPost2010Prop44ColorIndex
 90
        5
102
RTVSPost2010Prop44ColorRGB
 90
      255
102
RTVSPost2010PropOp44
 70
     1
102
RTVSPost2010Prop45
280
     0
102
RTVSPost2010PropOp45
 70
     1
102
RTVSPost2010Prop46
 90
       50
102
RTVSPost2010PropOp46
 70
     1
102
RTVSPost2010Prop47
 90
       50
102
RTVSPost2010PropOp47
 70
     1
102
RTVSPost2010Prop48
 90
       50
102
RTVSPost2010PropOp48
 70
     1
102
RTVSPost2010Prop49
280
     0
102
RTVSPost2010PropOp49
 70
     1
102
RTVSPost2010Prop50
 90
       50
102
RTVSPost2010PropOp50
 70
     1
102
RTVSPost2010Prop51ColorIndex
 90
      256
102
RTVSPost2010Prop51ColorRGB
 90
-16777216
102
RTVSPost2010PropOp51
 70
     0
102
RTVSPost2010Prop52
140
1.0
102
RTVSPost2010PropOp52
 70
     0
102
RTVSPost2010Prop53
 90
        2
102
RTVSPost2010PropOp53
 70
     1
102
RTVSPost2010Prop54
  1
strokes_ogs.tif
102
RTVSPost2010PropOp54
 70
     1
102
RTVSPost2010Prop55
280
     0
102
RTVSPost2010PropOp55
 70
     1
102
RTVSPost2010Prop56
140
1.0
102
RTVSPost2010PropOp56
 70
     1
102
RTVSPost2010Prop57
140
1.0
102
RTVSPost2010PropOp57
 70
     1
102
RTVSPropertyOp0
 70
     1
102
RTVSPropertyOp1
 70
     1
102
RTVSPropertyOp2
 70
     1
102
RTVSPropertyOp3
 70
     1
102
RTVSPropertyOp4
 70
     1
102
RTVSPropertyOp5
 70
     1
102
RTVSPropertyOp6
 70
     1
102
RTVSPropertyOp7
 70
     1
102
RTVSPropertyOp8
 70
     1
102
RTVSPropertyOp9
 70
     1
102
RTVSPropertyOp10
 70
     1
102
RTVSPropertyOp11
 70
     1
102
RTVSPropertyOp12
 70
     1
102
RTVSPropertyOp13
 70
     1
102
RTVSPropertyOp14
 70
     1
102
RTVSPropertyOp15
 70
     1
102
RTVSPropertyOp16
 70
     1
102
RTVSPropertyOp17
 70
     1
102
RTVSPropertyOp18
 70
     1
102
RTVSPropertyOp19
 70
     1
102
RTVSPropertyOp20
 70
     1
102
RTVSPropertyOp21
 70
     1
102
RTVSPropertyOp22
 70
     1
102
RTVSPropertyOp23
 70
     1
102
RTVSPropertyOp24
 70
     1
102
RTVSPropertyOp25
 70
     1
102
RTVSPropertyOp26
 70
     1
102
RTVSPropertyOp27
 70
     1
102
RTVSPropertyOp28
 70
     1
102
RTVSPropertyOp29
 70
     1
102
RTVSPropertyOp30
 70
     1
102
RTVSPropertyOp31
 70
     1
102
RTVSPropertyOp32
 70
     1
102
RTVSPropertyOp33
 70
     1
102
RTVSPropertyOp34
 70
     1
102
RTVSPropertyOp35
 70
     1
102
RTVSPropertyOp36
 70
     1
102
RTVSPropertyOp37
 70
     1
102
RTVSPropertyOp38
 70
     1
102
RTVSPropertyOp39
 70
     1
102
RTVSPropertyOp40
 70
     1
102
RTVSPropertyOp41
 70
     1
102
RTVSPropertyOp42
 70
     1
102
RTVSPropertyOp43
 70
     1
102
RTVSPropertyOp44
 70
     1
102
RTVSPropertyOp45
 70
     1
102
RTVSPropertyOp46
 70
     1
102
RTVSPropertyOp47
 70
     1
102
RTVSPropertyOp48
 70
     1
102
RTVSPropertyOp49
 70
     1
102
RTVSPropertyOp50
 70
     1
102
RTVSPropertyOp51
 70
     0
102
RTVSPropertyOp52
 70
     0
102
RTVSPropertyOp53
 70
     1
102
RTVSPropertyOp54
 70
     1
102
RTVSPropertyOp55
 70
     1
102
RTVSPropertyOp56
 70
     1
102
RTVSPropertyOp57
 70
     1
102
RTVSPropertyOp58
 70
     1
102
RTVSPropertyOp59
 70
     1
102
RTVSPropertyOp60
 70
     1
102
RTVSPropertyOp61
 70
     1
102
RTVSPropertyOp62
 70
     1
  0
XRECORD
  5
168C
102
{ACAD_REACTORS
330
168B
102
}
330
168B
100
AcDbXrecord
280
     1
102
RTVSPost2010Prop28
280
     0
102
RTVSPost2010PropOp28
 70
     1
102
RTVSPost2010Prop29
280
     1
102
RTVSPost2010PropOp29
 70
     1
102
RTVSPost2010Prop30
280
     1
102
RTVSPost2010PropOp30
 70
     1
102
RTVSPost2010Prop31
280
     0
102
RTVSPost2010PropOp31
 70
     1
102
RTVSPost2010Prop32
280
     0
102
RTVSPost2010PropOp32
 70
     1
102
RTVSPost2010Prop33
280
     0
102
RTVSPost2010PropOp33
 70
     1
102
RTVSPost2010Prop34
280
     0
102
RTVSPost2010PropOp34
 70
     1
102
RTVSPost2010Prop35
280
     0
102
RTVSPost2010PropOp35
 70
     1
102
RTVSPost2010Prop36
280
     0
102
RTVSPost2010PropOp36
 70
     1
102
RTVSPost2010Prop37
 90
       50
102
RTVSPost2010PropOp37
 70
     1
102
RTVSPost2010Prop38
140
0.0
102
RTVSPost2010PropOp38
 70
     1
102
RTVSPost2010Prop39
140
1.0
102
RTVSPost2010PropOp39
 70
     1
102
RTVSPost2010Prop40
 90
        0
102
RTVSPost2010PropOp40
 70
     1
102
RTVSPost2010Prop41ColorIndex
 90
       18
102
RTVSPost2010Prop41ColorRGB
 90
        0
102
RTVSPost2010PropOp41
 70
     1
102
RTVSPost2010Prop42
 90
       50
102
RTVSPost2010PropOp42
 70
     1
102
RTVSPost2010Prop43
 90
        3
102
RTVSPost2010PropOp43
 70
     1
102
RTVSPost2010Prop44ColorIndex
 90
        5
102
RTVSPost2010Prop44ColorRGB
 90
      255
102
RTVSPost2010PropOp44
 70
     1
102
RTVSPost2010Prop45
280
     0
102
RTVSPost2010PropOp45
 70
     1
102
RTVSPost2010Prop46
 90
       50
102
RTVSPost2010PropOp46
 70
     1
102
RTVSPost2010Prop47
 90
       50
102
RTVSPost2010PropOp47
 70
     1
102
RTVSPost2010Prop48
 90
       50
102
RTVSPost2010PropOp48
 70
     1
102
RTVSPost2010Prop49
280
     0
102
RTVSPost2010PropOp49
 70
     1
102
RTVSPost2010Prop50
 90
       50
102
RTVSPost2010PropOp50
 70
     1
102
RTVSPost2010Prop51ColorIndex
 90
      256
102
RTVSPost2010Prop51ColorRGB
 90
-16777216
102
RTVSPost2010PropOp51
 70
     0
102
RTVSPost2010Prop52
140
1.0
102
RTVSPost2010PropOp52
 70
     0
102
RTVSPost2010Prop53
 90
        2
102
RTVSPost2010PropOp53
 70
     1
102
RTVSPost2010Prop54
  1
strokes_ogs.tif
102
RTVSPost2010PropOp54
 70
     1
102
RTVSPost2010Prop55
280
     0
102
RTVSPost2010PropOp55
 70
     1
102
RTVSPost2010Prop56
140
1.0
102
RTVSPost2010PropOp56
 70
     1
102
RTVSPost2010Prop57
140
1.0
102
RTVSPost2010PropOp57
 70
     1
102
RTVSPropertyOp0
 70
     1
102
RTVSPropertyOp1
 70
     1
102
RTVSPropertyOp2
 70
     1
102
RTVSPropertyOp3
 70
     1
102
RTVSPropertyOp4
 70
     1
102
RTVSPropertyOp5
 70
     1
102
RTVSPropertyOp6
 70
     1
102
RTVSPropertyOp7
 70
     1
102
RTVSPropertyOp8
 70
     1
102
RTVSPropertyOp9
 70
     1
102
RTVSPropertyOp10
 70
     1
102
RTVSPropertyOp11
 70
     1
102
RTVSPropertyOp12
 70
     1
102
RTVSPropertyOp13
 70
     1
102
RTVSPropertyOp14
 70
     1
102
RTVSPropertyOp15
 70
     1
102
RTVSPropertyOp16
 70
     1
102
RTVSPropertyOp17
 70
     1
102
RTVSPropertyOp18
 70
     1
102
RTVSPropertyOp19
 70
     1
102
RTVSPropertyOp20
 70
     1
102
RTVSPropertyOp21
 70
     1
102
RTVSPropertyOp22
 70
     1
102
RTVSPropertyOp23
 70
     1
102
RTVSPropertyOp24
 70
     1
102
RTVSPropertyOp25
 70
     1
102
RTVSPropertyOp26
 70
     1
102
RTVSPropertyOp27
 70
     1
102
RTVSPropertyOp28
 70
     1
102
RTVSPropertyOp29
 70
     1
102
RTVSPropertyOp30
 70
     1
102
RTVSPropertyOp31
 70
     1
102
RTVSPropertyOp32
 70
     1
102
RTVSPropertyOp33
 70
     1
102
RTVSPropertyOp34
 70
     1
102
RTVSPropertyOp35
 70
     1
102
RTVSPropertyOp36
 70
     1
102
RTVSPropertyOp37
 70
     1
102
RTVSPropertyOp38
 70
     1
102
RTVSPropertyOp39
 70
     1
102
RTVSPropertyOp40
 70
     1
102
RTVSPropertyOp41
 70
     1
102
RTVSPropertyOp42
 70
     1
102
RTVSPropertyOp43
 70
     1
102
RTVSPropertyOp44
 70
     1
102
RTVSPropertyOp45
 70
     1
102
RTVSPropertyOp46
 70
     1
102
RTVSPropertyOp47
 70
     1
102
RTVSPropertyOp48
 70
     1
102
RTVSPropertyOp49
 70
     1
102
RTVSPropertyOp50
 70
     1
102
RTVSPropertyOp51
 70
     0
102
RTVSPropertyOp52
 70
     0
102
RTVSPropertyOp53
 70
     1
102
RTVSPropertyOp54
 70
     1
102
RTVSPropertyOp55
 70
     1
102
RTVSPropertyOp56
 70
     1
102
RTVSPropertyOp57
 70
     1
102
RTVSPropertyOp58
 70
     1
102
RTVSPropertyOp59
 70
     1
102
RTVSPropertyOp60
 70
     1
102
RTVSPropertyOp61
 70
     1
102
RTVSPropertyOp62
 70
     1
  0
XRECORD
  5
1698
102
{ACAD_REACTORS
330
1697
102
}
330
1697
100
AcDbXrecord
280
     1
102
RTVSPost2010Prop28
280
     0
102
RTVSPost2010PropOp28
 70
     0
102
RTVSPost2010Prop29
280
     1
102
RTVSPost2010PropOp29
 70
     0
102
RTVSPost2010Prop30
280
     1
102
RTVSPost2010PropOp30
 70
     0
102
RTVSPost2010Prop31
280
     0
102
RTVSPost2010PropOp31
 70
     0
102
RTVSPost2010Prop32
280
     0
102
RTVSPost2010PropOp32
 70
     0
102
RTVSPost2010Prop33
280
     0
102
RTVSPost2010PropOp33
 70
     0
102
RTVSPost2010Prop34
280
     0
102
RTVSPost2010PropOp34
 70
     0
102
RTVSPost2010Prop35
280
     0
102
RTVSPost2010PropOp35
 70
     0
102
RTVSPost2010Prop36
280
     0
102
RTVSPost2010PropOp36
 70
     0
102
RTVSPost2010Prop37
 90
       50
102
RTVSPost2010PropOp37
 70
     0
102
RTVSPost2010Prop38
140
0.0
102
RTVSPost2010PropOp38
 70
     0
102
RTVSPost2010Prop39
140
1.0
102
RTVSPost2010PropOp39
 70
     0
102
RTVSPost2010Prop40
 90
        0
102
RTVSPost2010PropOp40
 70
     0
102
RTVSPost2010Prop41ColorIndex
 90
       18
102
RTVSPost2010Prop41ColorRGB
 90
        0
102
RTVSPost2010PropOp41
 70
     0
102
RTVSPost2010Prop42
 90
       50
102
RTVSPost2010PropOp42
 70
     0
102
RTVSPost2010Prop43
 90
        3
102
RTVSPost2010PropOp43
 70
     0
102
RTVSPost2010Prop44ColorIndex
 90
        5
102
RTVSPost2010Prop44ColorRGB
 90
      255
102
RTVSPost2010PropOp44
 70
     0
102
RTVSPost2010Prop45
280
     0
102
RTVSPost2010PropOp45
 70
     0
102
RTVSPost2010Prop46
 90
       50
102
RTVSPost2010PropOp46
 70
     0
102
RTVSPost2010Prop47
 90
       50
102
RTVSPost2010PropOp47
 70
     0
102
RTVSPost2010Prop48
 90
       50
102
RTVSPost2010PropOp48
 70
     0
102
RTVSPost2010Prop49
280
     0
102
RTVSPost2010PropOp49
 70
     0
102
RTVSPost2010Prop50
 90
       50
102
RTVSPost2010PropOp50
 70
     0
102
RTVSPost2010Prop51ColorIndex
 90
      256
102
RTVSPost2010Prop51ColorRGB
 90
-16777216
102
RTVSPost2010PropOp51
 70
     0
102
RTVSPost2010Prop52
140
1.0
102
RTVSPost2010PropOp52
 70
     0
102
RTVSPost2010Prop53
 90
        2
102
RTVSPost2010PropOp53
 70
     0
102
RTVSPost2010Prop54
  1
strokes_ogs.tif
102
RTVSPost2010PropOp54
 70
     0
102
RTVSPost2010Prop55
280
     0
102
RTVSPost2010PropOp55
 70
     0
102
RTVSPost2010Prop56
140
1.0
102
RTVSPost2010PropOp56
 70
     0
102
RTVSPost2010Prop57
140
1.0
102
RTVSPost2010PropOp57
 70
     0
102
RTVSPropertyOp0
 70
     0
102
RTVSPropertyOp1
 70
     0
102
RTVSPropertyOp2
 70
     0
102
RTVSPropertyOp3
 70
     0
102
RTVSPropertyOp4
 70
     0
102
RTVSPropertyOp5
 70
     0
102
RTVSPropertyOp6
 70
     0
102
RTVSPropertyOp7
 70
     0
102
RTVSPropertyOp8
 70
     0
102
RTVSPropertyOp9
 70
     0
102
RTVSPropertyOp10
 70
     0
102
RTVSPropertyOp11
 70
     0
102
RTVSPropertyOp12
 70
     0
102
RTVSPropertyOp13
 70
     0
102
RTVSPropertyOp14
 70
     2
102
RTVSPropertyOp15
 70
     0
102
RTVSPropertyOp16
 70
     0
102
RTVSPropertyOp17
 70
     0
102
RTVSPropertyOp18
 70
     0
102
RTVSPropertyOp19
 70
     0
102
RTVSPropertyOp20
 70
     0
102
RTVSPropertyOp21
 70
     0
102
RTVSPropertyOp22
 70
     0
102
RTVSPropertyOp23
 70
     0
102
RTVSPropertyOp24
 70
     0
102
RTVSPropertyOp25
 70
     0
102
RTVSPropertyOp26
 70
     0
102
RTVSPropertyOp27
 70
     0
102
RTVSPropertyOp28
 70
     0
102
RTVSPropertyOp29
 70
     0
102
RTVSPropertyOp30
 70
     0
102
RTVSPropertyOp31
 70
     0
102
RTVSPropertyOp32
 70
     0
102
RTVSPropertyOp33
 70
     0
102
RTVSPropertyOp34
 70
     0
102
RTVSPropertyOp35
 70
     0
102
RTVSPropertyOp36
 70
     0
102
RTVSPropertyOp37
 70
     0
102
RTVSPropertyOp38
 70
     0
102
RTVSPropertyOp39
 70
     0
102
RTVSPropertyOp40
 70
     0
102
RTVSPropertyOp41
 70
     0
102
RTVSPropertyOp42
 70
     0
102
RTVSPropertyOp43
 70
     0
102
RTVSPropertyOp44
 70
     0
102
RTVSPropertyOp45
 70
     0
102
RTVSPropertyOp46
 70
     0
102
RTVSPropertyOp47
 70
     0
102
RTVSPropertyOp48
 70
     0
102
RTVSPropertyOp49
 70
     0
102
RTVSPropertyOp50
 70
     0
102
RTVSPropertyOp51
 70
     0
102
RTVSPropertyOp52
 70
     0
102
RTVSPropertyOp53
 70
     0
102
RTVSPropertyOp54
 70
     0
102
RTVSPropertyOp55
 70
     0
102
RTVSPropertyOp56
 70
     0
102
RTVSPropertyOp57
 70
     0
102
RTVSPropertyOp58
 70
     0
102
RTVSPropertyOp59
 70
     0
102
RTVSPropertyOp60
 70
     0
102
RTVSPropertyOp61
 70
     0
102
RTVSPropertyOp62
 70
     0
  0
XRECORD
  5
1683
102
{ACAD_REACTORS
330
1682
102
}
330
1682
100
AcDbXrecord
280
     1
102
RTVSPost2010Prop28
280
     0
102
RTVSPost2010PropOp28
 70
     1
102
RTVSPost2010Prop29
280
     1
102
RTVSPost2010PropOp29
 70
     1
102
RTVSPost2010Prop30
280
     1
102
RTVSPost2010PropOp30
 70
     1
102
RTVSPost2010Prop31
280
     0
102
RTVSPost2010PropOp31
 70
     1
102
RTVSPost2010Prop32
280
     0
102
RTVSPost2010PropOp32
 70
     1
102
RTVSPost2010Prop33
280
     0
102
RTVSPost2010PropOp33
 70
     1
102
RTVSPost2010Prop34
280
     0
102
RTVSPost2010PropOp34
 70
     1
102
RTVSPost2010Prop35
280
     0
102
RTVSPost2010PropOp35
 70
     1
102
RTVSPost2010Prop36
280
     0
102
RTVSPost2010PropOp36
 70
     1
102
RTVSPost2010Prop37
 90
       50
102
RTVSPost2010PropOp37
 70
     1
102
RTVSPost2010Prop38
140
0.0
102
RTVSPost2010PropOp38
 70
     1
102
RTVSPost2010Prop39
140
1.0
102
RTVSPost2010PropOp39
 70
     1
102
RTVSPost2010Prop40
 90
        0
102
RTVSPost2010PropOp40
 70
     1
102
RTVSPost2010Prop41ColorIndex
 90
       18
102
RTVSPost2010Prop41ColorRGB
 90
        0
102
RTVSPost2010PropOp41
 70
     1
102
RTVSPost2010Prop42
 90
       50
102
RTVSPost2010PropOp42
 70
     1
102
RTVSPost2010Prop43
 90
        3
102
RTVSPost2010PropOp43
 70
     1
102
RTVSPost2010Prop44ColorIndex
 90
        5
102
RTVSPost2010Prop44ColorRGB
 90
      255
102
RTVSPost2010PropOp44
 70
     1
102
RTVSPost2010Prop45
280
     0
102
RTVSPost2010PropOp45
 70
     1
102
RTVSPost2010Prop46
 90
       50
102
RTVSPost2010PropOp46
 70
     1
102
RTVSPost2010Prop47
 90
       50
102
RTVSPost2010PropOp47
 70
     1
102
RTVSPost2010Prop48
 90
       50
102
RTVSPost2010PropOp48
 70
     1
102
RTVSPost2010Prop49
280
     0
102
RTVSPost2010PropOp49
 70
     1
102
RTVSPost2010Prop50
 90
       50
102
RTVSPost2010PropOp50
 70
     1
102
RTVSPost2010Prop51ColorIndex
 90
      256
102
RTVSPost2010Prop51ColorRGB
 90
-16777216
102
RTVSPost2010PropOp51
 70
     0
102
RTVSPost2010Prop52
140
1.0
102
RTVSPost2010PropOp52
 70
     0
102
RTVSPost2010Prop53
 90
        2
102
RTVSPost2010PropOp53
 70
     1
102
RTVSPost2010Prop54
  1
strokes_ogs.tif
102
RTVSPost2010PropOp54
 70
     1
102
RTVSPost2010Prop55
280
     0
102
RTVSPost2010PropOp55
 70
     1
102
RTVSPost2010Prop56
140
1.0
102
RTVSPost2010PropOp56
 70
     1
102
RTVSPost2010Prop57
140
1.0
102
RTVSPost2010PropOp57
 70
     1
102
RTVSPropertyOp0
 70
     1
102
RTVSPropertyOp1
 70
     1
102
RTVSPropertyOp2
 70
     1
102
RTVSPropertyOp3
 70
     1
102
RTVSPropertyOp4
 70
     1
102
RTVSPropertyOp5
 70
     1
102
RTVSPropertyOp6
 70
     1
102
RTVSPropertyOp7
 70
     1
102
RTVSPropertyOp8
 70
     1
102
RTVSPropertyOp9
 70
     1
102
RTVSPropertyOp10
 70
     1
102
RTVSPropertyOp11
 70
     1
102
RTVSPropertyOp12
 70
     1
102
RTVSPropertyOp13
 70
     1
102
RTVSPropertyOp14
 70
     1
102
RTVSPropertyOp15
 70
     1
102
RTVSPropertyOp16
 70
     1
102
RTVSPropertyOp17
 70
     1
102
RTVSPropertyOp18
 70
     1
102
RTVSPropertyOp19
 70
     1
102
RTVSPropertyOp20
 70
     1
102
RTVSPropertyOp21
 70
     1
102
RTVSPropertyOp22
 70
     1
102
RTVSPropertyOp23
 70
     1
102
RTVSPropertyOp24
 70
     1
102
RTVSPropertyOp25
 70
     1
102
RTVSPropertyOp26
 70
     1
102
RTVSPropertyOp27
 70
     1
102
RTVSPropertyOp28
 70
     1
102
RTVSPropertyOp29
 70
     1
102
RTVSPropertyOp30
 70
     1
102
RTVSPropertyOp31
 70
     1
102
RTVSPropertyOp32
 70
     1
102
RTVSPropertyOp33
 70
     1
102
RTVSPropertyOp34
 70
     1
102
RTVSPropertyOp35
 70
     1
102
RTVSPropertyOp36
 70
     1
102
RTVSPropertyOp37
 70
     1
102
RTVSPropertyOp38
 70
     1
102
RTVSPropertyOp39
 70
     1
102
RTVSPropertyOp40
 70
     1
102
RTVSPropertyOp41
 70
     1
102
RTVSPropertyOp42
 70
     1
102
RTVSPropertyOp43
 70
     1
102
RTVSPropertyOp44
 70
     1
102
RTVSPropertyOp45
 70
     1
102
RTVSPropertyOp46
 70
     1
102
RTVSPropertyOp47
 70
     1
102
RTVSPropertyOp48
 70
     1
102
RTVSPropertyOp49
 70
     1
102
RTVSPropertyOp50
 70
     1
102
RTVSPropertyOp51
 70
     0
102
RTVSPropertyOp52
 70
     0
102
RTVSPropertyOp53
 70
     1
102
RTVSPropertyOp54
 70
     1
102
RTVSPropertyOp55
 70
     1
102
RTVSPropertyOp56
 70
     1
102
RTVSPropertyOp57
 70
     1
102
RTVSPropertyOp58
 70
     1
102
RTVSPropertyOp59
 70
     1
102
RTVSPropertyOp60
 70
     1
102
RTVSPropertyOp61
 70
     1
102
RTVSPropertyOp62
 70
     1
  0
XRECORD
  5
169A
102
{ACAD_REACTORS
330
1699
102
}
330
1699
100
AcDbXrecord
280
     1
102
RTVSPost2010Prop28
280
     0
102
RTVSPost2010PropOp28
 70
     0
102
RTVSPost2010Prop29
280
     1
102
RTVSPost2010PropOp29
 70
     0
102
RTVSPost2010Prop30
280
     1
102
RTVSPost2010PropOp30
 70
     0
102
RTVSPost2010Prop31
280
     0
102
RTVSPost2010PropOp31
 70
     0
102
RTVSPost2010Prop32
280
     0
102
RTVSPost2010PropOp32
 70
     0
102
RTVSPost2010Prop33
280
     0
102
RTVSPost2010PropOp33
 70
     0
102
RTVSPost2010Prop34
280
     0
102
RTVSPost2010PropOp34
 70
     0
102
RTVSPost2010Prop35
280
     0
102
RTVSPost2010PropOp35
 70
     0
102
RTVSPost2010Prop36
280
     0
102
RTVSPost2010PropOp36
 70
     0
102
RTVSPost2010Prop37
 90
       50
102
RTVSPost2010PropOp37
 70
     0
102
RTVSPost2010Prop38
140
0.0
102
RTVSPost2010PropOp38
 70
     0
102
RTVSPost2010Prop39
140
1.0
102
RTVSPost2010PropOp39
 70
     0
102
RTVSPost2010Prop40
 90
        0
102
RTVSPost2010PropOp40
 70
     0
102
RTVSPost2010Prop41ColorIndex
 90
       18
102
RTVSPost2010Prop41ColorRGB
 90
        0
102
RTVSPost2010PropOp41
 70
     0
102
RTVSPost2010Prop42
 90
       50
102
RTVSPost2010PropOp42
 70
     0
102
RTVSPost2010Prop43
 90
        3
102
RTVSPost2010PropOp43
 70
     0
102
RTVSPost2010Prop44ColorIndex
 90
        5
102
RTVSPost2010Prop44ColorRGB
 90
      255
102
RTVSPost2010PropOp44
 70
     0
102
RTVSPost2010Prop45
280
     0
102
RTVSPost2010PropOp45
 70
     0
102
RTVSPost2010Prop46
 90
       50
102
RTVSPost2010PropOp46
 70
     0
102
RTVSPost2010Prop47
 90
       50
102
RTVSPost2010PropOp47
 70
     0
102
RTVSPost2010Prop48
 90
       50
102
RTVSPost2010PropOp48
 70
     0
102
RTVSPost2010Prop49
280
     0
102
RTVSPost2010PropOp49
 70
     0
102
RTVSPost2010Prop50
 90
       50
102
RTVSPost2010PropOp50
 70
     0
102
RTVSPost2010Prop51ColorIndex
 90
      256
102
RTVSPost2010Prop51ColorRGB
 90
-16777216
102
RTVSPost2010PropOp51
 70
     0
102
RTVSPost2010Prop52
140
1.0
102
RTVSPost2010PropOp52
 70
     0
102
RTVSPost2010Prop53
 90
        2
102
RTVSPost2010PropOp53
 70
     0
102
RTVSPost2010Prop54
  1
strokes_ogs.tif
102
RTVSPost2010PropOp54
 70
     0
102
RTVSPost2010Prop55
280
     0
102
RTVSPost2010PropOp55
 70
     0
102
RTVSPost2010Prop56
140
1.0
102
RTVSPost2010PropOp56
 70
     0
102
RTVSPost2010Prop57
140
1.0
102
RTVSPost2010PropOp57
 70
     0
102
RTVSPropertyOp0
 70
     0
102
RTVSPropertyOp1
 70
     0
102
RTVSPropertyOp2
 70
     0
102
RTVSPropertyOp3
 70
     0
102
RTVSPropertyOp4
 70
     0
102
RTVSPropertyOp5
 70
     0
102
RTVSPropertyOp6
 70
     0
102
RTVSPropertyOp7
 70
     0
102
RTVSPropertyOp8
 70
     0
102
RTVSPropertyOp9
 70
     0
102
RTVSPropertyOp10
 70
     0
102
RTVSPropertyOp11
 70
     0
102
RTVSPropertyOp12
 70
     0
102
RTVSPropertyOp13
 70
     0
102
RTVSPropertyOp14
 70
     2
102
RTVSPropertyOp15
 70
     0
102
RTVSPropertyOp16
 70
     0
102
RTVSPropertyOp17
 70
     0
102
RTVSPropertyOp18
 70
     0
102
RTVSPropertyOp19
 70
     0
102
RTVSPropertyOp20
 70
     0
102
RTVSPropertyOp21
 70
     0
102
RTVSPropertyOp22
 70
     0
102
RTVSPropertyOp23
 70
     0
102
RTVSPropertyOp24
 70
     0
102
RTVSPropertyOp25
 70
     0
102
RTVSPropertyOp26
 70
     0
102
RTVSPropertyOp27
 70
     0
102
RTVSPropertyOp28
 70
     0
102
RTVSPropertyOp29
 70
     0
102
RTVSPropertyOp30
 70
     0
102
RTVSPropertyOp31
 70
     0
102
RTVSPropertyOp32
 70
     0
102
RTVSPropertyOp33
 70
     0
102
RTVSPropertyOp34
 70
     0
102
RTVSPropertyOp35
 70
     0
102
RTVSPropertyOp36
 70
     0
102
RTVSPropertyOp37
 70
     0
102
RTVSPropertyOp38
 70
     0
102
RTVSPropertyOp39
 70
     0
102
RTVSPropertyOp40
 70
     0
102
RTVSPropertyOp41
 70
     0
102
RTVSPropertyOp42
 70
     0
102
RTVSPropertyOp43
 70
     0
102
RTVSPropertyOp44
 70
     0
102
RTVSPropertyOp45
 70
     0
102
RTVSPropertyOp46
 70
     0
102
RTVSPropertyOp47
 70
     0
102
RTVSPropertyOp48
 70
     0
102
RTVSPropertyOp49
 70
     0
102
RTVSPropertyOp50
 70
     0
102
RTVSPropertyOp51
 70
     0
102
RTVSPropertyOp52
 70
     0
102
RTVSPropertyOp53
 70
     0
102
RTVSPropertyOp54
 70
     0
102
RTVSPropertyOp55
 70
     0
102
RTVSPropertyOp56
 70
     0
102
RTVSPropertyOp57
 70
     0
102
RTVSPropertyOp58
 70
     0
102
RTVSPropertyOp59
 70
     0
102
RTVSPropertyOp60
 70
     0
102
RTVSPropertyOp61
 70
     0
102
RTVSPropertyOp62
 70
     0
  0
XRECORD
  5
167B
102
{ACAD_REACTORS
330
167A
102
}
330
167A
100
AcDbXrecord
280
     1
102
RTVSPost2010Prop28
280
     0
102
RTVSPost2010PropOp28
 70
     1
102
RTVSPost2010Prop29
280
     1
102
RTVSPost2010PropOp29
 70
     1
102
RTVSPost2010Prop30
280
     1
102
RTVSPost2010PropOp30
 70
     1
102
RTVSPost2010Prop31
280
     0
102
RTVSPost2010PropOp31
 70
     1
102
RTVSPost2010Prop32
280
     0
102
RTVSPost2010PropOp32
 70
     1
102
RTVSPost2010Prop33
280
     0
102
RTVSPost2010PropOp33
 70
     1
102
RTVSPost2010Prop34
280
     0
102
RTVSPost2010PropOp34
 70
     1
102
RTVSPost2010Prop35
280
     0
102
RTVSPost2010PropOp35
 70
     1
102
RTVSPost2010Prop36
280
     0
102
RTVSPost2010PropOp36
 70
     1
102
RTVSPost2010Prop37
 90
       50
102
RTVSPost2010PropOp37
 70
     1
102
RTVSPost2010Prop38
140
0.0
102
RTVSPost2010PropOp38
 70
     1
102
RTVSPost2010Prop39
140
1.0
102
RTVSPost2010PropOp39
 70
     1
102
RTVSPost2010Prop40
 90
        0
102
RTVSPost2010PropOp40
 70
     1
102
RTVSPost2010Prop41ColorIndex
 90
       18
102
RTVSPost2010Prop41ColorRGB
 90
        0
102
RTVSPost2010PropOp41
 70
     1
102
RTVSPost2010Prop42
 90
       50
102
RTVSPost2010PropOp42
 70
     1
102
RTVSPost2010Prop43
 90
        3
102
RTVSPost2010PropOp43
 70
     1
102
RTVSPost2010Prop44ColorIndex
 90
        5
102
RTVSPost2010Prop44ColorRGB
 90
      255
102
RTVSPost2010PropOp44
 70
     1
102
RTVSPost2010Prop45
280
     0
102
RTVSPost2010PropOp45
 70
     1
102
RTVSPost2010Prop46
 90
       50
102
RTVSPost2010PropOp46
 70
     1
102
RTVSPost2010Prop47
 90
       50
102
RTVSPost2010PropOp47
 70
     1
102
RTVSPost2010Prop48
 90
       50
102
RTVSPost2010PropOp48
 70
     1
102
RTVSPost2010Prop49
280
     0
102
RTVSPost2010PropOp49
 70
     1
102
RTVSPost2010Prop50
 90
       50
102
RTVSPost2010PropOp50
 70
     1
102
RTVSPost2010Prop51ColorIndex
 90
      256
102
RTVSPost2010Prop51ColorRGB
 90
-16777216
102
RTVSPost2010PropOp51
 70
     0
102
RTVSPost2010Prop52
140
1.0
102
RTVSPost2010PropOp52
 70
     0
102
RTVSPost2010Prop53
 90
        2
102
RTVSPost2010PropOp53
 70
     1
102
RTVSPost2010Prop54
  1
strokes_ogs.tif
102
RTVSPost2010PropOp54
 70
     1
102
RTVSPost2010Prop55
280
     0
102
RTVSPost2010PropOp55
 70
     1
102
RTVSPost2010Prop56
140
1.0
102
RTVSPost2010PropOp56
 70
     1
102
RTVSPost2010Prop57
140
1.0
102
RTVSPost2010PropOp57
 70
     1
102
RTVSPropertyOp0
 70
     1
102
RTVSPropertyOp1
 70
     1
102
RTVSPropertyOp2
 70
     1
102
RTVSPropertyOp3
 70
     1
102
RTVSPropertyOp4
 70
     1
102
RTVSPropertyOp5
 70
     1
102
RTVSPropertyOp6
 70
     1
102
RTVSPropertyOp7
 70
     1
102
RTVSPropertyOp8
 70
     1
102
RTVSPropertyOp9
 70
     1
102
RTVSPropertyOp10
 70
     1
102
RTVSPropertyOp11
 70
     1
102
RTVSPropertyOp12
 70
     1
102
RTVSPropertyOp13
 70
     1
102
RTVSPropertyOp14
 70
     1
102
RTVSPropertyOp15
 70
     1
102
RTVSPropertyOp16
 70
     1
102
RTVSPropertyOp17
 70
     1
102
RTVSPropertyOp18
 70
     1
102
RTVSPropertyOp19
 70
     1
102
RTVSPropertyOp20
 70
     1
102
RTVSPropertyOp21
 70
     1
102
RTVSPropertyOp22
 70
     1
102
RTVSPropertyOp23
 70
     1
102
RTVSPropertyOp24
 70
     1
102
RTVSPropertyOp25
 70
     1
102
RTVSPropertyOp26
 70
     1
102
RTVSPropertyOp27
 70
     1
102
RTVSPropertyOp28
 70
     1
102
RTVSPropertyOp29
 70
     1
102
RTVSPropertyOp30
 70
     1
102
RTVSPropertyOp31
 70
     1
102
RTVSPropertyOp32
 70
     1
102
RTVSPropertyOp33
 70
     1
102
RTVSPropertyOp34
 70
     1
102
RTVSPropertyOp35
 70
     1
102
RTVSPropertyOp36
 70
     1
102
RTVSPropertyOp37
 70
     1
102
RTVSPropertyOp38
 70
     1
102
RTVSPropertyOp39
 70
     1
102
RTVSPropertyOp40
 70
     1
102
RTVSPropertyOp41
 70
     1
102
RTVSPropertyOp42
 70
     1
102
RTVSPropertyOp43
 70
     1
102
RTVSPropertyOp44
 70
     1
102
RTVSPropertyOp45
 70
     1
102
RTVSPropertyOp46
 70
     1
102
RTVSPropertyOp47
 70
     1
102
RTVSPropertyOp48
 70
     1
102
RTVSPropertyOp49
 70
     1
102
RTVSPropertyOp50
 70
     1
102
RTVSPropertyOp51
 70
     0
102
RTVSPropertyOp52
 70
     0
102
RTVSPropertyOp53
 70
     1
102
RTVSPropertyOp54
 70
     1
102
RTVSPropertyOp55
 70
     1
102
RTVSPropertyOp56
 70
     1
102
RTVSPropertyOp57
 70
     1
102
RTVSPropertyOp58
 70
     1
102
RTVSPropertyOp59
 70
     1
102
RTVSPropertyOp60
 70
     1
102
RTVSPropertyOp61
 70
     1
102
RTVSPropertyOp62
 70
     1
  0
XRECORD
  5
1696
102
{ACAD_REACTORS
330
1695
102
}
330
1695
100
AcDbXrecord
280
     1
102
RTVSPost2010Prop28
280
     0
102
RTVSPost2010PropOp28
 70
     1
102
RTVSPost2010Prop29
280
     1
102
RTVSPost2010PropOp29
 70
     1
102
RTVSPost2010Prop30
280
     1
102
RTVSPost2010PropOp30
 70
     1
102
RTVSPost2010Prop31
280
     0
102
RTVSPost2010PropOp31
 70
     1
102
RTVSPost2010Prop32
280
     0
102
RTVSPost2010PropOp32
 70
     1
102
RTVSPost2010Prop33
280
     0
102
RTVSPost2010PropOp33
 70
     1
102
RTVSPost2010Prop34
280
     0
102
RTVSPost2010PropOp34
 70
     1
102
RTVSPost2010Prop35
280
     0
102
RTVSPost2010PropOp35
 70
     1
102
RTVSPost2010Prop36
280
     0
102
RTVSPost2010PropOp36
 70
     1
102
RTVSPost2010Prop37
 90
       50
102
RTVSPost2010PropOp37
 70
     1
102
RTVSPost2010Prop38
140
0.0
102
RTVSPost2010PropOp38
 70
     1
102
RTVSPost2010Prop39
140
1.0
102
RTVSPost2010PropOp39
 70
     1
102
RTVSPost2010Prop40
 90
        0
102
RTVSPost2010PropOp40
 70
     1
102
RTVSPost2010Prop41ColorIndex
 90
       18
102
RTVSPost2010Prop41ColorRGB
 90
        0
102
RTVSPost2010PropOp41
 70
     1
102
RTVSPost2010Prop42
 90
       50
102
RTVSPost2010PropOp42
 70
     1
102
RTVSPost2010Prop43
 90
        3
102
RTVSPost2010PropOp43
 70
     1
102
RTVSPost2010Prop44ColorIndex
 90
        5
102
RTVSPost2010Prop44ColorRGB
 90
      255
102
RTVSPost2010PropOp44
 70
     1
102
RTVSPost2010Prop45
280
     0
102
RTVSPost2010PropOp45
 70
     1
102
RTVSPost2010Prop46
 90
       50
102
RTVSPost2010PropOp46
 70
     1
102
RTVSPost2010Prop47
 90
       50
102
RTVSPost2010PropOp47
 70
     1
102
RTVSPost2010Prop48
 90
       50
102
RTVSPost2010PropOp48
 70
     1
102
RTVSPost2010Prop49
280
     0
102
RTVSPost2010PropOp49
 70
     1
102
RTVSPost2010Prop50
 90
       50
102
RTVSPost2010PropOp50
 70
     1
102
RTVSPost2010Prop51ColorIndex
 90
      256
102
RTVSPost2010Prop51ColorRGB
 90
-16777216
102
RTVSPost2010PropOp51
 70
     0
102
RTVSPost2010Prop52
140
1.0
102
RTVSPost2010PropOp52
 70
     0
102
RTVSPost2010Prop53
 90
        2
102
RTVSPost2010PropOp53
 70
     1
102
RTVSPost2010Prop54
  1
strokes_ogs.tif
102
RTVSPost2010PropOp54
 70
     1
102
RTVSPost2010Prop55
280
     0
102
RTVSPost2010PropOp55
 70
     1
102
RTVSPost2010Prop56
140
1.0
102
RTVSPost2010PropOp56
 70
     1
102
RTVSPost2010Prop57
140
1.0
102
RTVSPost2010PropOp57
 70
     1
102
RTVSPropertyOp0
 70
     1
102
RTVSPropertyOp1
 70
     1
102
RTVSPropertyOp2
 70
     1
102
RTVSPropertyOp3
 70
     1
102
RTVSPropertyOp4
 70
     1
102
RTVSPropertyOp5
 70
     1
102
RTVSPropertyOp6
 70
     1
102
RTVSPropertyOp7
 70
     1
102
RTVSPropertyOp8
 70
     1
102
RTVSPropertyOp9
 70
     1
102
RTVSPropertyOp10
 70
     1
102
RTVSPropertyOp11
 70
     1
102
RTVSPropertyOp12
 70
     1
102
RTVSPropertyOp13
 70
     1
102
RTVSPropertyOp14
 70
     1
102
RTVSPropertyOp15
 70
     1
102
RTVSPropertyOp16
 70
     1
102
RTVSPropertyOp17
 70
     1
102
RTVSPropertyOp18
 70
     1
102
RTVSPropertyOp19
 70
     1
102
RTVSPropertyOp20
 70
     1
102
RTVSPropertyOp21
 70
     1
102
RTVSPropertyOp22
 70
     1
102
RTVSPropertyOp23
 70
     1
102
RTVSPropertyOp24
 70
     1
102
RTVSPropertyOp25
 70
     1
102
RTVSPropertyOp26
 70
     1
102
RTVSPropertyOp27
 70
     1
102
RTVSPropertyOp28
 70
     1
102
RTVSPropertyOp29
 70
     1
102
RTVSPropertyOp30
 70
     1
102
RTVSPropertyOp31
 70
     1
102
RTVSPropertyOp32
 70
     1
102
RTVSPropertyOp33
 70
     1
102
RTVSPropertyOp34
 70
     1
102
RTVSPropertyOp35
 70
     1
102
RTVSPropertyOp36
 70
     1
102
RTVSPropertyOp37
 70
     1
102
RTVSPropertyOp38
 70
     1
102
RTVSPropertyOp39
 70
     1
102
RTVSPropertyOp40
 70
     1
102
RTVSPropertyOp41
 70
     1
102
RTVSPropertyOp42
 70
     1
102
RTVSPropertyOp43
 70
     1
102
RTVSPropertyOp44
 70
     1
102
RTVSPropertyOp45
 70
     1
102
RTVSPropertyOp46
 70
     1
102
RTVSPropertyOp47
 70
     1
102
RTVSPropertyOp48
 70
     1
102
RTVSPropertyOp49
 70
     1
102
RTVSPropertyOp50
 70
     1
102
RTVSPropertyOp51
 70
     0
102
RTVSPropertyOp52
 70
     0
102
RTVSPropertyOp53
 70
     1
102
RTVSPropertyOp54
 70
     1
102
RTVSPropertyOp55
 70
     1
102
RTVSPropertyOp56
 70
     1
102
RTVSPropertyOp57
 70
     1
102
RTVSPropertyOp58
 70
     1
102
RTVSPropertyOp59
 70
     1
102
RTVSPropertyOp60
 70
     1
102
RTVSPropertyOp61
 70
     1
102
RTVSPropertyOp62
 70
     1
  0
XRECORD
  5
1694
102
{ACAD_REACTORS
330
1693
102
}
330
1693
100
AcDbXrecord
280
     1
102
RTVSPost2010Prop28
280
     0
102
RTVSPost2010PropOp28
 70
     1
102
RTVSPost2010Prop29
280
     1
102
RTVSPost2010PropOp29
 70
     1
102
RTVSPost2010Prop30
280
     1
102
RTVSPost2010PropOp30
 70
     1
102
RTVSPost2010Prop31
280
     0
102
RTVSPost2010PropOp31
 70
     1
102
RTVSPost2010Prop32
280
     0
102
RTVSPost2010PropOp32
 70
     1
102
RTVSPost2010Prop33
280
     0
102
RTVSPost2010PropOp33
 70
     1
102
RTVSPost2010Prop34
280
     0
102
RTVSPost2010PropOp34
 70
     1
102
RTVSPost2010Prop35
280
     0
102
RTVSPost2010PropOp35
 70
     1
102
RTVSPost2010Prop36
280
     0
102
RTVSPost2010PropOp36
 70
     1
102
RTVSPost2010Prop37
 90
       50
102
RTVSPost2010PropOp37
 70
     1
102
RTVSPost2010Prop38
140
0.0
102
RTVSPost2010PropOp38
 70
     1
102
RTVSPost2010Prop39
140
1.0
102
RTVSPost2010PropOp39
 70
     1
102
RTVSPost2010Prop40
 90
        0
102
RTVSPost2010PropOp40
 70
     1
102
RTVSPost2010Prop41ColorIndex
 90
       18
102
RTVSPost2010Prop41ColorRGB
 90
        0
102
RTVSPost2010PropOp41
 70
     1
102
RTVSPost2010Prop42
 90
       50
102
RTVSPost2010PropOp42
 70
     1
102
RTVSPost2010Prop43
 90
        3
102
RTVSPost2010PropOp43
 70
     1
102
RTVSPost2010Prop44ColorIndex
 90
        5
102
RTVSPost2010Prop44ColorRGB
 90
      255
102
RTVSPost2010PropOp44
 70
     1
102
RTVSPost2010Prop45
280
     0
102
RTVSPost2010PropOp45
 70
     1
102
RTVSPost2010Prop46
 90
       50
102
RTVSPost2010PropOp46
 70
     1
102
RTVSPost2010Prop47
 90
       50
102
RTVSPost2010PropOp47
 70
     1
102
RTVSPost2010Prop48
 90
       50
102
RTVSPost2010PropOp48
 70
     1
102
RTVSPost2010Prop49
280
     0
102
RTVSPost2010PropOp49
 70
     1
102
RTVSPost2010Prop50
 90
       50
102
RTVSPost2010PropOp50
 70
     1
102
RTVSPost2010Prop51ColorIndex
 90
      256
102
RTVSPost2010Prop51ColorRGB
 90
-16777216
102
RTVSPost2010PropOp51
 70
     0
102
RTVSPost2010Prop52
140
1.0
102
RTVSPost2010PropOp52
 70
     0
102
RTVSPost2010Prop53
 90
        2
102
RTVSPost2010PropOp53
 70
     1
102
RTVSPost2010Prop54
  1
strokes_ogs.tif
102
RTVSPost2010PropOp54
 70
     1
102
RTVSPost2010Prop55
280
     0
102
RTVSPost2010PropOp55
 70
     1
102
RTVSPost2010Prop56
140
1.0
102
RTVSPost2010PropOp56
 70
     1
102
RTVSPost2010Prop57
140
1.0
102
RTVSPost2010PropOp57
 70
     1
102
RTVSPropertyOp0
 70
     1
102
RTVSPropertyOp1
 70
     1
102
RTVSPropertyOp2
 70
     1
102
RTVSPropertyOp3
 70
     1
102
RTVSPropertyOp4
 70
     1
102
RTVSPropertyOp5
 70
     1
102
RTVSPropertyOp6
 70
     1
102
RTVSPropertyOp7
 70
     1
102
RTVSPropertyOp8
 70
     1
102
RTVSPropertyOp9
 70
     1
102
RTVSPropertyOp10
 70
     1
102
RTVSPropertyOp11
 70
     1
102
RTVSPropertyOp12
 70
     1
102
RTVSPropertyOp13
 70
     1
102
RTVSPropertyOp14
 70
     1
102
RTVSPropertyOp15
 70
     1
102
RTVSPropertyOp16
 70
     1
102
RTVSPropertyOp17
 70
     1
102
RTVSPropertyOp18
 70
     1
102
RTVSPropertyOp19
 70
     1
102
RTVSPropertyOp20
 70
     1
102
RTVSPropertyOp21
 70
     1
102
RTVSPropertyOp22
 70
     1
102
RTVSPropertyOp23
 70
     1
102
RTVSPropertyOp24
 70
     1
102
RTVSPropertyOp25
 70
     1
102
RTVSPropertyOp26
 70
     1
102
RTVSPropertyOp27
 70
     1
102
RTVSPropertyOp28
 70
     1
102
RTVSPropertyOp29
 70
     1
102
RTVSPropertyOp30
 70
     1
102
RTVSPropertyOp31
 70
     1
102
RTVSPropertyOp32
 70
     1
102
RTVSPropertyOp33
 70
     1
102
RTVSPropertyOp34
 70
     1
102
RTVSPropertyOp35
 70
     1
102
RTVSPropertyOp36
 70
     1
102
RTVSPropertyOp37
 70
     1
102
RTVSPropertyOp38
 70
     1
102
RTVSPropertyOp39
 70
     1
102
RTVSPropertyOp40
 70
     1
102
RTVSPropertyOp41
 70
     1
102
RTVSPropertyOp42
 70
     1
102
RTVSPropertyOp43
 70
     1
102
RTVSPropertyOp44
 70
     1
102
RTVSPropertyOp45
 70
     1
102
RTVSPropertyOp46
 70
     1
102
RTVSPropertyOp47
 70
     1
102
RTVSPropertyOp48
 70
     1
102
RTVSPropertyOp49
 70
     1
102
RTVSPropertyOp50
 70
     1
102
RTVSPropertyOp51
 70
     0
102
RTVSPropertyOp52
 70
     0
102
RTVSPropertyOp53
 70
     1
102
RTVSPropertyOp54
 70
     1
102
RTVSPropertyOp55
 70
     1
102
RTVSPropertyOp56
 70
     1
102
RTVSPropertyOp57
 70
     1
102
RTVSPropertyOp58
 70
     1
102
RTVSPropertyOp59
 70
     1
102
RTVSPropertyOp60
 70
     1
102
RTVSPropertyOp61
 70
     1
102
RTVSPropertyOp62
 70
     1
  0
XRECORD
  5
168E
102
{ACAD_REACTORS
330
168D
102
}
330
168D
100
AcDbXrecord
280
     1
102
RTVSPost2010Prop28
280
     0
102
RTVSPost2010PropOp28
 70
     1
102
RTVSPost2010Prop29
280
     1
102
RTVSPost2010PropOp29
 70
     1
102
RTVSPost2010Prop30
280
     1
102
RTVSPost2010PropOp30
 70
     1
102
RTVSPost2010Prop31
280
     0
102
RTVSPost2010PropOp31
 70
     1
102
RTVSPost2010Prop32
280
     0
102
RTVSPost2010PropOp32
 70
     1
102
RTVSPost2010Prop33
280
     0
102
RTVSPost2010PropOp33
 70
     1
102
RTVSPost2010Prop34
280
     0
102
RTVSPost2010PropOp34
 70
     1
102
RTVSPost2010Prop35
280
     0
102
RTVSPost2010PropOp35
 70
     1
102
RTVSPost2010Prop36
280
     0
102
RTVSPost2010PropOp36
 70
     1
102
RTVSPost2010Prop37
 90
       50
102
RTVSPost2010PropOp37
 70
     1
102
RTVSPost2010Prop38
140
0.0
102
RTVSPost2010PropOp38
 70
     1
102
RTVSPost2010Prop39
140
1.0
102
RTVSPost2010PropOp39
 70
     1
102
RTVSPost2010Prop40
 90
        0
102
RTVSPost2010PropOp40
 70
     1
102
RTVSPost2010Prop41ColorIndex
 90
       18
102
RTVSPost2010Prop41ColorRGB
 90
        0
102
RTVSPost2010PropOp41
 70
     1
102
RTVSPost2010Prop42
 90
       50
102
RTVSPost2010PropOp42
 70
     1
102
RTVSPost2010Prop43
 90
        3
102
RTVSPost2010PropOp43
 70
     1
102
RTVSPost2010Prop44ColorIndex
 90
        5
102
RTVSPost2010Prop44ColorRGB
 90
      255
102
RTVSPost2010PropOp44
 70
     1
102
RTVSPost2010Prop45
280
     0
102
RTVSPost2010PropOp45
 70
     1
102
RTVSPost2010Prop46
 90
       50
102
RTVSPost2010PropOp46
 70
     1
102
RTVSPost2010Prop47
 90
       50
102
RTVSPost2010PropOp47
 70
     1
102
RTVSPost2010Prop48
 90
       50
102
RTVSPost2010PropOp48
 70
     1
102
RTVSPost2010Prop49
280
     0
102
RTVSPost2010PropOp49
 70
     1
102
RTVSPost2010Prop50
 90
       50
102
RTVSPost2010PropOp50
 70
     1
102
RTVSPost2010Prop51ColorIndex
 90
      256
102
RTVSPost2010Prop51ColorRGB
 90
-16777216
102
RTVSPost2010PropOp51
 70
     0
102
RTVSPost2010Prop52
140
1.0
102
RTVSPost2010PropOp52
 70
     0
102
RTVSPost2010Prop53
 90
        2
102
RTVSPost2010PropOp53
 70
     1
102
RTVSPost2010Prop54
  1
strokes_ogs.tif
102
RTVSPost2010PropOp54
 70
     1
102
RTVSPost2010Prop55
280
     0
102
RTVSPost2010PropOp55
 70
     1
102
RTVSPost2010Prop56
140
1.0
102
RTVSPost2010PropOp56
 70
     1
102
RTVSPost2010Prop57
140
1.0
102
RTVSPost2010PropOp57
 70
     1
102
RTVSPropertyOp0
 70
     1
102
RTVSPropertyOp1
 70
     1
102
RTVSPropertyOp2
 70
     1
102
RTVSPropertyOp3
 70
     1
102
RTVSPropertyOp4
 70
     1
102
RTVSPropertyOp5
 70
     1
102
RTVSPropertyOp6
 70
     1
102
RTVSPropertyOp7
 70
     1
102
RTVSPropertyOp8
 70
     1
102
RTVSPropertyOp9
 70
     1
102
RTVSPropertyOp10
 70
     1
102
RTVSPropertyOp11
 70
     1
102
RTVSPropertyOp12
 70
     1
102
RTVSPropertyOp13
 70
     1
102
RTVSPropertyOp14
 70
     1
102
RTVSPropertyOp15
 70
     1
102
RTVSPropertyOp16
 70
     1
102
RTVSPropertyOp17
 70
     1
102
RTVSPropertyOp18
 70
     1
102
RTVSPropertyOp19
 70
     1
102
RTVSPropertyOp20
 70
     1
102
RTVSPropertyOp21
 70
     1
102
RTVSPropertyOp22
 70
     1
102
RTVSPropertyOp23
 70
     1
102
RTVSPropertyOp24
 70
     1
102
RTVSPropertyOp25
 70
     1
102
RTVSPropertyOp26
 70
     1
102
RTVSPropertyOp27
 70
     1
102
RTVSPropertyOp28
 70
     1
102
RTVSPropertyOp29
 70
     1
102
RTVSPropertyOp30
 70
     1
102
RTVSPropertyOp31
 70
     1
102
RTVSPropertyOp32
 70
     1
102
RTVSPropertyOp33
 70
     1
102
RTVSPropertyOp34
 70
     1
102
RTVSPropertyOp35
 70
     1
102
RTVSPropertyOp36
 70
     1
102
RTVSPropertyOp37
 70
     1
102
RTVSPropertyOp38
 70
     1
102
RTVSPropertyOp39
 70
     1
102
RTVSPropertyOp40
 70
     1
102
RTVSPropertyOp41
 70
     1
102
RTVSPropertyOp42
 70
     1
102
RTVSPropertyOp43
 70
     1
102
RTVSPropertyOp44
 70
     1
102
RTVSPropertyOp45
 70
     1
102
RTVSPropertyOp46
 70
     1
102
RTVSPropertyOp47
 70
     1
102
RTVSPropertyOp48
 70
     1
102
RTVSPropertyOp49
 70
     1
102
RTVSPropertyOp50
 70
     1
102
RTVSPropertyOp51
 70
     0
102
RTVSPropertyOp52
 70
     0
102
RTVSPropertyOp53
 70
     1
102
RTVSPropertyOp54
 70
     1
102
RTVSPropertyOp55
 70
     1
102
RTVSPropertyOp56
 70
     1
102
RTVSPropertyOp57
 70
     1
102
RTVSPropertyOp58
 70
     1
102
RTVSPropertyOp59
 70
     1
102
RTVSPropertyOp60
 70
     1
102
RTVSPropertyOp61
 70
     1
102
RTVSPropertyOp62
 70
     1
  0
XRECORD
  5
1690
102
{ACAD_REACTORS
330
168F
102
}
330
168F
100
AcDbXrecord
280
     1
102
RTVSPost2010Prop28
280
     0
102
RTVSPost2010PropOp28
 70
     1
102
RTVSPost2010Prop29
280
     1
102
RTVSPost2010PropOp29
 70
     1
102
RTVSPost2010Prop30
280
     1
102
RTVSPost2010PropOp30
 70
     1
102
RTVSPost2010Prop31
280
     0
102
RTVSPost2010PropOp31
 70
     1
102
RTVSPost2010Prop32
280
     0
102
RTVSPost2010PropOp32
 70
     1
102
RTVSPost2010Prop33
280
     0
102
RTVSPost2010PropOp33
 70
     1
102
RTVSPost2010Prop34
280
     0
102
RTVSPost2010PropOp34
 70
     1
102
RTVSPost2010Prop35
280
     0
102
RTVSPost2010PropOp35
 70
     1
102
RTVSPost2010Prop36
280
     0
102
RTVSPost2010PropOp36
 70
     1
102
RTVSPost2010Prop37
 90
       50
102
RTVSPost2010PropOp37
 70
     1
102
RTVSPost2010Prop38
140
0.0
102
RTVSPost2010PropOp38
 70
     1
102
RTVSPost2010Prop39
140
1.0
102
RTVSPost2010PropOp39
 70
     1
102
RTVSPost2010Prop40
 90
        0
102
RTVSPost2010PropOp40
 70
     1
102
RTVSPost2010Prop41ColorIndex
 90
       18
102
RTVSPost2010Prop41ColorRGB
 90
        0
102
RTVSPost2010PropOp41
 70
     1
102
RTVSPost2010Prop42
 90
       50
102
RTVSPost2010PropOp42
 70
     1
102
RTVSPost2010Prop43
 90
        3
102
RTVSPost2010PropOp43
 70
     1
102
RTVSPost2010Prop44ColorIndex
 90
        5
102
RTVSPost2010Prop44ColorRGB
 90
      255
102
RTVSPost2010PropOp44
 70
     1
102
RTVSPost2010Prop45
280
     0
102
RTVSPost2010PropOp45
 70
     1
102
RTVSPost2010Prop46
 90
       50
102
RTVSPost2010PropOp46
 70
     1
102
RTVSPost2010Prop47
 90
       50
102
RTVSPost2010PropOp47
 70
     1
102
RTVSPost2010Prop48
 90
       50
102
RTVSPost2010PropOp48
 70
     1
102
RTVSPost2010Prop49
280
     0
102
RTVSPost2010PropOp49
 70
     1
102
RTVSPost2010Prop50
 90
       50
102
RTVSPost2010PropOp50
 70
     1
102
RTVSPost2010Prop51ColorIndex
 90
      256
102
RTVSPost2010Prop51ColorRGB
 90
-16777216
102
RTVSPost2010PropOp51
 70
     0
102
RTVSPost2010Prop52
140
1.0
102
RTVSPost2010PropOp52
 70
     0
102
RTVSPost2010Prop53
 90
        2
102
RTVSPost2010PropOp53
 70
     1
102
RTVSPost2010Prop54
  1
strokes_ogs.tif
102
RTVSPost2010PropOp54
 70
     1
102
RTVSPost2010Prop55
280
     0
102
RTVSPost2010PropOp55
 70
     1
102
RTVSPost2010Prop56
140
1.0
102
RTVSPost2010PropOp56
 70
     1
102
RTVSPost2010Prop57
140
1.0
102
RTVSPost2010PropOp57
 70
     1
102
RTVSPropertyOp0
 70
     1
102
RTVSPropertyOp1
 70
     1
102
RTVSPropertyOp2
 70
     1
102
RTVSPropertyOp3
 70
     1
102
RTVSPropertyOp4
 70
     1
102
RTVSPropertyOp5
 70
     1
102
RTVSPropertyOp6
 70
     1
102
RTVSPropertyOp7
 70
     1
102
RTVSPropertyOp8
 70
     1
102
RTVSPropertyOp9
 70
     1
102
RTVSPropertyOp10
 70
     1
102
RTVSPropertyOp11
 70
     1
102
RTVSPropertyOp12
 70
     1
102
RTVSPropertyOp13
 70
     1
102
RTVSPropertyOp14
 70
     1
102
RTVSPropertyOp15
 70
     1
102
RTVSPropertyOp16
 70
     1
102
RTVSPropertyOp17
 70
     1
102
RTVSPropertyOp18
 70
     1
102
RTVSPropertyOp19
 70
     1
102
RTVSPropertyOp20
 70
     1
102
RTVSPropertyOp21
 70
     1
102
RTVSPropertyOp22
 70
     1
102
RTVSPropertyOp23
 70
     1
102
RTVSPropertyOp24
 70
     1
102
RTVSPropertyOp25
 70
     1
102
RTVSPropertyOp26
 70
     1
102
RTVSPropertyOp27
 70
     1
102
RTVSPropertyOp28
 70
     1
102
RTVSPropertyOp29
 70
     1
102
RTVSPropertyOp30
 70
     1
102
RTVSPropertyOp31
 70
     1
102
RTVSPropertyOp32
 70
     1
102
RTVSPropertyOp33
 70
     1
102
RTVSPropertyOp34
 70
     1
102
RTVSPropertyOp35
 70
     1
102
RTVSPropertyOp36
 70
     1
102
RTVSPropertyOp37
 70
     1
102
RTVSPropertyOp38
 70
     1
102
RTVSPropertyOp39
 70
     1
102
RTVSPropertyOp40
 70
     1
102
RTVSPropertyOp41
 70
     1
102
RTVSPropertyOp42
 70
     1
102
RTVSPropertyOp43
 70
     1
102
RTVSPropertyOp44
 70
     1
102
RTVSPropertyOp45
 70
     1
102
RTVSPropertyOp46
 70
     1
102
RTVSPropertyOp47
 70
     1
102
RTVSPropertyOp48
 70
     1
102
RTVSPropertyOp49
 70
     1
102
RTVSPropertyOp50
 70
     1
102
RTVSPropertyOp51
 70
     0
102
RTVSPropertyOp52
 70
     0
102
RTVSPropertyOp53
 70
     1
102
RTVSPropertyOp54
 70
     1
102
RTVSPropertyOp55
 70
     1
102
RTVSPropertyOp56
 70
     1
102
RTVSPropertyOp57
 70
     1
102
RTVSPropertyOp58
 70
     1
102
RTVSPropertyOp59
 70
     1
102
RTVSPropertyOp60
 70
     1
102
RTVSPropertyOp61
 70
     1
102
RTVSPropertyOp62
 70
     1
  0
XRECORD
  5
1681
102
{ACAD_REACTORS
330
1680
102
}
330
1680
100
AcDbXrecord
280
     1
102
RTVSPost2010Prop28
280
     0
102
RTVSPost2010PropOp28
 70
     1
102
RTVSPost2010Prop29
280
     1
102
RTVSPost2010PropOp29
 70
     1
102
RTVSPost2010Prop30
280
     1
102
RTVSPost2010PropOp30
 70
     1
102
RTVSPost2010Prop31
280
     0
102
RTVSPost2010PropOp31
 70
     1
102
RTVSPost2010Prop32
280
     0
102
RTVSPost2010PropOp32
 70
     1
102
RTVSPost2010Prop33
280
     0
102
RTVSPost2010PropOp33
 70
     1
102
RTVSPost2010Prop34
280
     0
102
RTVSPost2010PropOp34
 70
     1
102
RTVSPost2010Prop35
280
     0
102
RTVSPost2010PropOp35
 70
     1
102
RTVSPost2010Prop36
280
     0
102
RTVSPost2010PropOp36
 70
     1
102
RTVSPost2010Prop37
 90
       50
102
RTVSPost2010PropOp37
 70
     1
102
RTVSPost2010Prop38
140
0.0
102
RTVSPost2010PropOp38
 70
     1
102
RTVSPost2010Prop39
140
1.0
102
RTVSPost2010PropOp39
 70
     1
102
RTVSPost2010Prop40
 90
        0
102
RTVSPost2010PropOp40
 70
     1
102
RTVSPost2010Prop41ColorIndex
 90
       18
102
RTVSPost2010Prop41ColorRGB
 90
        0
102
RTVSPost2010PropOp41
 70
     1
102
RTVSPost2010Prop42
 90
       50
102
RTVSPost2010PropOp42
 70
     1
102
RTVSPost2010Prop43
 90
        3
102
RTVSPost2010PropOp43
 70
     1
102
RTVSPost2010Prop44ColorIndex
 90
        5
102
RTVSPost2010Prop44ColorRGB
 90
      255
102
RTVSPost2010PropOp44
 70
     1
102
RTVSPost2010Prop45
280
     0
102
RTVSPost2010PropOp45
 70
     1
102
RTVSPost2010Prop46
 90
       50
102
RTVSPost2010PropOp46
 70
     1
102
RTVSPost2010Prop47
 90
       50
102
RTVSPost2010PropOp47
 70
     1
102
RTVSPost2010Prop48
 90
       50
102
RTVSPost2010PropOp48
 70
     1
102
RTVSPost2010Prop49
280
     0
102
RTVSPost2010PropOp49
 70
     1
102
RTVSPost2010Prop50
 90
       50
102
RTVSPost2010PropOp50
 70
     1
102
RTVSPost2010Prop51ColorIndex
 90
      256
102
RTVSPost2010Prop51ColorRGB
 90
-16777216
102
RTVSPost2010PropOp51
 70
     0
102
RTVSPost2010Prop52
140
1.0
102
RTVSPost2010PropOp52
 70
     0
102
RTVSPost2010Prop53
 90
        2
102
RTVSPost2010PropOp53
 70
     1
102
RTVSPost2010Prop54
  1
strokes_ogs.tif
102
RTVSPost2010PropOp54
 70
     1
102
RTVSPost2010Prop55
280
     0
102
RTVSPost2010PropOp55
 70
     1
102
RTVSPost2010Prop56
140
1.0
102
RTVSPost2010PropOp56
 70
     1
102
RTVSPost2010Prop57
140
1.0
102
RTVSPost2010PropOp57
 70
     1
102
RTVSPropertyOp0
 70
     1
102
RTVSPropertyOp1
 70
     1
102
RTVSPropertyOp2
 70
     1
102
RTVSPropertyOp3
 70
     1
102
RTVSPropertyOp4
 70
     1
102
RTVSPropertyOp5
 70
     1
102
RTVSPropertyOp6
 70
     1
102
RTVSPropertyOp7
 70
     1
102
RTVSPropertyOp8
 70
     1
102
RTVSPropertyOp9
 70
     1
102
RTVSPropertyOp10
 70
     1
102
RTVSPropertyOp11
 70
     1
102
RTVSPropertyOp12
 70
     1
102
RTVSPropertyOp13
 70
     1
102
RTVSPropertyOp14
 70
     1
102
RTVSPropertyOp15
 70
     1
102
RTVSPropertyOp16
 70
     1
102
RTVSPropertyOp17
 70
     1
102
RTVSPropertyOp18
 70
     1
102
RTVSPropertyOp19
 70
     1
102
RTVSPropertyOp20
 70
     1
102
RTVSPropertyOp21
 70
     1
102
RTVSPropertyOp22
 70
     1
102
RTVSPropertyOp23
 70
     1
102
RTVSPropertyOp24
 70
     1
102
RTVSPropertyOp25
 70
     1
102
RTVSPropertyOp26
 70
     1
102
RTVSPropertyOp27
 70
     1
102
RTVSPropertyOp28
 70
     1
102
RTVSPropertyOp29
 70
     1
102
RTVSPropertyOp30
 70
     1
102
RTVSPropertyOp31
 70
     1
102
RTVSPropertyOp32
 70
     1
102
RTVSPropertyOp33
 70
     1
102
RTVSPropertyOp34
 70
     1
102
RTVSPropertyOp35
 70
     1
102
RTVSPropertyOp36
 70
     1
102
RTVSPropertyOp37
 70
     1
102
RTVSPropertyOp38
 70
     1
102
RTVSPropertyOp39
 70
     1
102
RTVSPropertyOp40
 70
     1
102
RTVSPropertyOp41
 70
     1
102
RTVSPropertyOp42
 70
     1
102
RTVSPropertyOp43
 70
     1
102
RTVSPropertyOp44
 70
     1
102
RTVSPropertyOp45
 70
     1
102
RTVSPropertyOp46
 70
     1
102
RTVSPropertyOp47
 70
     1
102
RTVSPropertyOp48
 70
     1
102
RTVSPropertyOp49
 70
     1
102
RTVSPropertyOp50
 70
     1
102
RTVSPropertyOp51
 70
     0
102
RTVSPropertyOp52
 70
     0
102
RTVSPropertyOp53
 70
     1
102
RTVSPropertyOp54
 70
     1
102
RTVSPropertyOp55
 70
     1
102
RTVSPropertyOp56
 70
     1
102
RTVSPropertyOp57
 70
     1
102
RTVSPropertyOp58
 70
     1
102
RTVSPropertyOp59
 70
     1
102
RTVSPropertyOp60
 70
     1
102
RTVSPropertyOp61
 70
     1
102
RTVSPropertyOp62
 70
     1
  0
XRECORD
  5
168A
102
{ACAD_REACTORS
330
1689
102
}
330
1689
100
AcDbXrecord
280
     1
102
RTVSPost2010Prop28
280
     0
102
RTVSPost2010PropOp28
 70
     1
102
RTVSPost2010Prop29
280
     1
102
RTVSPost2010PropOp29
 70
     1
102
RTVSPost2010Prop30
280
     1
102
RTVSPost2010PropOp30
 70
     1
102
RTVSPost2010Prop31
280
     0
102
RTVSPost2010PropOp31
 70
     1
102
RTVSPost2010Prop32
280
     0
102
RTVSPost2010PropOp32
 70
     1
102
RTVSPost2010Prop33
280
     0
102
RTVSPost2010PropOp33
 70
     1
102
RTVSPost2010Prop34
280
     0
102
RTVSPost2010PropOp34
 70
     1
102
RTVSPost2010Prop35
280
     0
102
RTVSPost2010PropOp35
 70
     1
102
RTVSPost2010Prop36
280
     0
102
RTVSPost2010PropOp36
 70
     1
102
RTVSPost2010Prop37
 90
       50
102
RTVSPost2010PropOp37
 70
     1
102
RTVSPost2010Prop38
140
0.0
102
RTVSPost2010PropOp38
 70
     1
102
RTVSPost2010Prop39
140
1.0
102
RTVSPost2010PropOp39
 70
     1
102
RTVSPost2010Prop40
 90
        0
102
RTVSPost2010PropOp40
 70
     1
102
RTVSPost2010Prop41ColorIndex
 90
       18
102
RTVSPost2010Prop41ColorRGB
 90
        0
102
RTVSPost2010PropOp41
 70
     1
102
RTVSPost2010Prop42
 90
       50
102
RTVSPost2010PropOp42
 70
     1
102
RTVSPost2010Prop43
 90
        3
102
RTVSPost2010PropOp43
 70
     1
102
RTVSPost2010Prop44ColorIndex
 90
        5
102
RTVSPost2010Prop44ColorRGB
 90
      255
102
RTVSPost2010PropOp44
 70
     1
102
RTVSPost2010Prop45
280
     0
102
RTVSPost2010PropOp45
 70
     1
102
RTVSPost2010Prop46
 90
       50
102
RTVSPost2010PropOp46
 70
     1
102
RTVSPost2010Prop47
 90
       50
102
RTVSPost2010PropOp47
 70
     1
102
RTVSPost2010Prop48
 90
       50
102
RTVSPost2010PropOp48
 70
     1
102
RTVSPost2010Prop49
280
     0
102
RTVSPost2010PropOp49
 70
     1
102
RTVSPost2010Prop50
 90
       50
102
RTVSPost2010PropOp50
 70
     1
102
RTVSPost2010Prop51ColorIndex
 90
      256
102
RTVSPost2010Prop51ColorRGB
 90
-16777216
102
RTVSPost2010PropOp51
 70
     0
102
RTVSPost2010Prop52
140
1.0
102
RTVSPost2010PropOp52
 70
     0
102
RTVSPost2010Prop53
 90
        2
102
RTVSPost2010PropOp53
 70
     1
102
RTVSPost2010Prop54
  1
strokes_ogs.tif
102
RTVSPost2010PropOp54
 70
     1
102
RTVSPost2010Prop55
280
     0
102
RTVSPost2010PropOp55
 70
     1
102
RTVSPost2010Prop56
140
1.0
102
RTVSPost2010PropOp56
 70
     1
102
RTVSPost2010Prop57
140
1.0
102
RTVSPost2010PropOp57
 70
     1
102
RTVSPropertyOp0
 70
     1
102
RTVSPropertyOp1
 70
     1
102
RTVSPropertyOp2
 70
     1
102
RTVSPropertyOp3
 70
     1
102
RTVSPropertyOp4
 70
     1
102
RTVSPropertyOp5
 70
     1
102
RTVSPropertyOp6
 70
     1
102
RTVSPropertyOp7
 70
     1
102
RTVSPropertyOp8
 70
     1
102
RTVSPropertyOp9
 70
     1
102
RTVSPropertyOp10
 70
     1
102
RTVSPropertyOp11
 70
     1
102
RTVSPropertyOp12
 70
     1
102
RTVSPropertyOp13
 70
     1
102
RTVSPropertyOp14
 70
     1
102
RTVSPropertyOp15
 70
     1
102
RTVSPropertyOp16
 70
     1
102
RTVSPropertyOp17
 70
     1
102
RTVSPropertyOp18
 70
     1
102
RTVSPropertyOp19
 70
     1
102
RTVSPropertyOp20
 70
     1
102
RTVSPropertyOp21
 70
     1
102
RTVSPropertyOp22
 70
     1
102
RTVSPropertyOp23
 70
     1
102
RTVSPropertyOp24
 70
     1
102
RTVSPropertyOp25
 70
     1
102
RTVSPropertyOp26
 70
     1
102
RTVSPropertyOp27
 70
     1
102
RTVSPropertyOp28
 70
     1
102
RTVSPropertyOp29
 70
     1
102
RTVSPropertyOp30
 70
     1
102
RTVSPropertyOp31
 70
     1
102
RTVSPropertyOp32
 70
     1
102
RTVSPropertyOp33
 70
     1
102
RTVSPropertyOp34
 70
     1
102
RTVSPropertyOp35
 70
     1
102
RTVSPropertyOp36
 70
     1
102
RTVSPropertyOp37
 70
     1
102
RTVSPropertyOp38
 70
     1
102
RTVSPropertyOp39
 70
     1
102
RTVSPropertyOp40
 70
     1
102
RTVSPropertyOp41
 70
     1
102
RTVSPropertyOp42
 70
     1
102
RTVSPropertyOp43
 70
     1
102
RTVSPropertyOp44
 70
     1
102
RTVSPropertyOp45
 70
     1
102
RTVSPropertyOp46
 70
     1
102
RTVSPropertyOp47
 70
     1
102
RTVSPropertyOp48
 70
     1
102
RTVSPropertyOp49
 70
     1
102
RTVSPropertyOp50
 70
     1
102
RTVSPropertyOp51
 70
     0
102
RTVSPropertyOp52
 70
     0
102
RTVSPropertyOp53
 70
     1
102
RTVSPropertyOp54
 70
     1
102
RTVSPropertyOp55
 70
     1
102
RTVSPropertyOp56
 70
     1
102
RTVSPropertyOp57
 70
     1
102
RTVSPropertyOp58
 70
     1
102
RTVSPropertyOp59
 70
     1
102
RTVSPropertyOp60
 70
     1
102
RTVSPropertyOp61
 70
     1
102
RTVSPropertyOp62
 70
     1
  0
XRECORD
  5
1692
102
{ACAD_REACTORS
330
1691
102
}
330
1691
100
AcDbXrecord
280
     1
102
RTVSPost2010Prop28
280
     0
102
RTVSPost2010PropOp28
 70
     1
102
RTVSPost2010Prop29
280
     1
102
RTVSPost2010PropOp29
 70
     1
102
RTVSPost2010Prop30
280
     1
102
RTVSPost2010PropOp30
 70
     1
102
RTVSPost2010Prop31
280
     0
102
RTVSPost2010PropOp31
 70
     1
102
RTVSPost2010Prop32
280
     0
102
RTVSPost2010PropOp32
 70
     1
102
RTVSPost2010Prop33
280
     0
102
RTVSPost2010PropOp33
 70
     1
102
RTVSPost2010Prop34
280
     0
102
RTVSPost2010PropOp34
 70
     1
102
RTVSPost2010Prop35
280
     0
102
RTVSPost2010PropOp35
 70
     1
102
RTVSPost2010Prop36
280
     0
102
RTVSPost2010PropOp36
 70
     1
102
RTVSPost2010Prop37
 90
       50
102
RTVSPost2010PropOp37
 70
     1
102
RTVSPost2010Prop38
140
0.0
102
RTVSPost2010PropOp38
 70
     1
102
RTVSPost2010Prop39
140
1.0
102
RTVSPost2010PropOp39
 70
     1
102
RTVSPost2010Prop40
 90
        0
102
RTVSPost2010PropOp40
 70
     1
102
RTVSPost2010Prop41ColorIndex
 90
       18
102
RTVSPost2010Prop41ColorRGB
 90
        0
102
RTVSPost2010PropOp41
 70
     1
102
RTVSPost2010Prop42
 90
       50
102
RTVSPost2010PropOp42
 70
     1
102
RTVSPost2010Prop43
 90
        3
102
RTVSPost2010PropOp43
 70
     1
102
RTVSPost2010Prop44ColorIndex
 90
        5
102
RTVSPost2010Prop44ColorRGB
 90
      255
102
RTVSPost2010PropOp44
 70
     1
102
RTVSPost2010Prop45
280
     0
102
RTVSPost2010PropOp45
 70
     1
102
RTVSPost2010Prop46
 90
       50
102
RTVSPost2010PropOp46
 70
     1
102
RTVSPost2010Prop47
 90
       50
102
RTVSPost2010PropOp47
 70
     1
102
RTVSPost2010Prop48
 90
       50
102
RTVSPost2010PropOp48
 70
     1
102
RTVSPost2010Prop49
280
     0
102
RTVSPost2010PropOp49
 70
     1
102
RTVSPost2010Prop50
 90
       50
102
RTVSPost2010PropOp50
 70
     1
102
RTVSPost2010Prop51ColorIndex
 90
      256
102
RTVSPost2010Prop51ColorRGB
 90
-16777216
102
RTVSPost2010PropOp51
 70
     0
102
RTVSPost2010Prop52
140
1.0
102
RTVSPost2010PropOp52
 70
     0
102
RTVSPost2010Prop53
 90
        2
102
RTVSPost2010PropOp53
 70
     1
102
RTVSPost2010Prop54
  1
strokes_ogs.tif
102
RTVSPost2010PropOp54
 70
     1
102
RTVSPost2010Prop55
280
     0
102
RTVSPost2010PropOp55
 70
     1
102
RTVSPost2010Prop56
140
1.0
102
RTVSPost2010PropOp56
 70
     1
102
RTVSPost2010Prop57
140
1.0
102
RTVSPost2010PropOp57
 70
     1
102
RTVSPropertyOp0
 70
     1
102
RTVSPropertyOp1
 70
     1
102
RTVSPropertyOp2
 70
     1
102
RTVSPropertyOp3
 70
     1
102
RTVSPropertyOp4
 70
     1
102
RTVSPropertyOp5
 70
     1
102
RTVSPropertyOp6
 70
     1
102
RTVSPropertyOp7
 70
     1
102
RTVSPropertyOp8
 70
     1
102
RTVSPropertyOp9
 70
     1
102
RTVSPropertyOp10
 70
     1
102
RTVSPropertyOp11
 70
     1
102
RTVSPropertyOp12
 70
     1
102
RTVSPropertyOp13
 70
     1
102
RTVSPropertyOp14
 70
     1
102
RTVSPropertyOp15
 70
     1
102
RTVSPropertyOp16
 70
     1
102
RTVSPropertyOp17
 70
     1
102
RTVSPropertyOp18
 70
     1
102
RTVSPropertyOp19
 70
     1
102
RTVSPropertyOp20
 70
     1
102
RTVSPropertyOp21
 70
     1
102
RTVSPropertyOp22
 70
     1
102
RTVSPropertyOp23
 70
     1
102
RTVSPropertyOp24
 70
     1
102
RTVSPropertyOp25
 70
     1
102
RTVSPropertyOp26
 70
     1
102
RTVSPropertyOp27
 70
     1
102
RTVSPropertyOp28
 70
     1
102
RTVSPropertyOp29
 70
     1
102
RTVSPropertyOp30
 70
     1
102
RTVSPropertyOp31
 70
     1
102
RTVSPropertyOp32
 70
     1
102
RTVSPropertyOp33
 70
     1
102
RTVSPropertyOp34
 70
     1
102
RTVSPropertyOp35
 70
     1
102
RTVSPropertyOp36
 70
     1
102
RTVSPropertyOp37
 70
     1
102
RTVSPropertyOp38
 70
     1
102
RTVSPropertyOp39
 70
     1
102
RTVSPropertyOp40
 70
     1
102
RTVSPropertyOp41
 70
     1
102
RTVSPropertyOp42
 70
     1
102
RTVSPropertyOp43
 70
     1
102
RTVSPropertyOp44
 70
     1
102
RTVSPropertyOp45
 70
     1
102
RTVSPropertyOp46
 70
     1
102
RTVSPropertyOp47
 70
     1
102
RTVSPropertyOp48
 70
     1
102
RTVSPropertyOp49
 70
     1
102
RTVSPropertyOp50
 70
     1
102
RTVSPropertyOp51
 70
     0
102
RTVSPropertyOp52
 70
     0
102
RTVSPropertyOp53
 70
     1
102
RTVSPropertyOp54
 70
     1
102
RTVSPropertyOp55
 70
     1
102
RTVSPropertyOp56
 70
     1
102
RTVSPropertyOp57
 70
     1
102
RTVSPropertyOp58
 70
     1
102
RTVSPropertyOp59
 70
     1
102
RTVSPropertyOp60
 70
     1
102
RTVSPropertyOp61
 70
     1
102
RTVSPropertyOp62
 70
     1
  0
ENDSEC
  0
EOF
