  0
SECTION
  2
HEADER
  9
$ACADVER
  1
AC1014
  9
$ACADMAINTVER
 70
     9
  9
$DWGCODEPAGE
  3
ANSI_932
  9
$INSBASE
 10
0.0
 20
0.0
 30
0.0
  9
$EXTMIN
 10
67.53810825086202
 20
43.98809596297792
 30
0.0
  9
$EXTMAX
 10
479.5462726134486
 20
336.8525359109898
 30
0.0
  9
$LIMMIN
 10
0.0
 20
0.0
  9
$LIMMAX
 10
297.0
 20
210.0
  9
$ORTHOMODE
 70
     1
  9
$REGENMODE
 70
     1
  9
$FILLMODE
 70
     1
  9
$QTEXTMODE
 70
     0
  9
$MIRRTEXT
 70
     0
  9
$DRAGMODE
 70
     2
  9
$LTSCALE
 40
2.0
  9
$OSMODE
 70
    37
  9
$ATTMODE
 70
     1
  9
$TEXTSIZE
 40
2.0
  9
$TRACEWID
 40
1.0
  9
$TEXTSTYLE
  7
STANDARD
  9
$CLAYER
  8
0
  9
$CELTYPE
  6
BYLAYER
  9
$CECOLOR
 62
   256
  9
$CELTSCALE
 40
1.0
  9
$DELOBJ
 70
     1
  9
$DISPSILH
 70
     0
  9
$DIMSCALE
 40
2.0
  9
$DIMASZ
 40
1.8
  9
$DIMEXO
 40
0.625
  9
$DIMDLI
 40
3.75
  9
$DIMRND
 40
0.0
  9
$DIMDLE
 40
0.0
  9
$DIMEXE
 40
0.8
  9
$DIMTP
 40
0.0
  9
$DIMTM
 40
0.0
  9
$DIMTXT
 40
1.8
  9
$DIMCEN
 40
2.5
  9
$DIMTSZ
 40
0.0
  9
$DIMTOL
 70
     0
  9
$DIMLIM
 70
     0
  9
$DIMTIH
 70
     0
  9
$DIMTOH
 70
     0
  9
$DIMSE1
 70
     0
  9
$DIMSE2
 70
     0
  9
$DIMTAD
 70
     1
  9
$DIMZIN
 70
     8
  9
$DIMBLK
  1

  9
$DIMASO
 70
     1
  9
$DIMSHO
 70
     1
  9
$DIMPOST
  1

  9
$DIMAPOST
  1

  9
$DIMALT
 70
     0
  9
$DIMALTD
 70
     4
  9
$DIMALTF
 40
0.0394
  9
$DIMLFAC
 40
1.0
  9
$DIMTOFL
 70
     1
  9
$DIMTVP
 40
0.0
  9
$DIMTIX
 70
     0
  9
$DIMSOXD
 70
     0
  9
$DIMSAH
 70
     0
  9
$DIMBLK1
  1

  9
$DIMBLK2
  1

  9
$DIMSTYLE
  2
STANDARD
  9
$DIMCLRD
 70
     0
  9
$DIMCLRE
 70
     0
  9
$DIMCLRT
 70
     0
  9
$DIMTFAC
 40
1.0
  9
$DIMGAP
 40
0.75
  9
$DIMJUST
 70
     0
  9
$DIMSD1
 70
     0
  9
$DIMSD2
 70
     0
  9
$DIMTOLJ
 70
     1
  9
$DIMTZIN
 70
     0
  9
$DIMALTZ
 70
     0
  9
$DIMALTTZ
 70
     0
  9
$DIMFIT
 70
     3
  9
$DIMUPT
 70
     0
  9
$DIMUNIT
 70
     8
  9
$DIMDEC
 70
     2
  9
$DIMTDEC
 70
     2
  9
$DIMALTU
 70
     8
  9
$DIMALTTD
 70
     4
  9
$DIMTXSTY
  7
STANDARD
  9
$DIMAUNIT
 70
     0
  9
$LUNITS
 70
     2
  9
$LUPREC
 70
     3
  9
$SKETCHINC
 40
1.0
  9
$FILLETRAD
 40
10.0
  9
$AUNITS
 70
     0
  9
$AUPREC
 70
     2
  9
$MENU
  1
.
  9
$ELEVATION
 40
0.0
  9
$PELEVATION
 40
0.0
  9
$THICKNESS
 40
0.0
  9
$LIMCHECK
 70
     0
  9
$BLIPMODE
 70
     0
  9
$CHAMFERA
 40
0.0
  9
$CHAMFERB
 40
0.0
  9
$CHAMFERC
 40
20.0
  9
$CHAMFERD
 40
0.0
  9
$SKPOLY
 70
     0
  9
$TDCREATE
 40
2453759.697092916
  9
$TDUPDATE
 40
2454399.567519166
  9
$TDINDWG
 40
0.0768089699
  9
$TDUSRTIMER
 40
0.0768089699
  9
$USRTIMER
 70
     1
  9
$ANGBASE
 50
0.0
  9
$ANGDIR
 70
     0
  9
$PDMODE
 70
     0
  9
$PDSIZE
 40
-10.0
  9
$PLINEWID
 40
0.0
  9
$COORDS
 70
     1
  9
$SPLFRAME
 70
     0
  9
$SPLINETYPE
 70
     6
  9
$SPLINESEGS
 70
     8
  9
$ATTDIA
 70
     0
  9
$ATTREQ
 70
     1
  9
$HANDLING
 70
-16383
  9
$HANDSEED
  5
1152
  9
$SURFTAB1
 70
     6
  9
$SURFTAB2
 70
     6
  9
$SURFTYPE
 70
     6
  9
$SURFU
 70
     6
  9
$SURFV
 70
     6
  9
$UCSNAME
  2

  9
$UCSORG
 10
0.0
 20
0.0
 30
0.0
  9
$UCSXDIR
 10
1.0
 20
0.0
 30
0.0
  9
$UCSYDIR
 10
0.0
 20
1.0
 30
0.0
  9
$PUCSNAME
  2

  9
$PUCSORG
 10
0.0
 20
0.0
 30
0.0
  9
$PUCSXDIR
 10
1.0
 20
0.0
 30
0.0
  9
$PUCSYDIR
 10
0.0
 20
1.0
 30
0.0
  9
$USERI1
 70
     0
  9
$USERI2
 70
     0
  9
$USERI3
 70
     0
  9
$USERI4
 70
     0
  9
$USERI5
 70
     0
  9
$USERR1
 40
0.0
  9
$USERR2
 40
0.0
  9
$USERR3
 40
0.0
  9
$USERR4
 40
0.0
  9
$USERR5
 40
0.0
  9
$WORLDVIEW
 70
     1
  9
$SHADEDGE
 70
     3
  9
$SHADEDIF
 70
    70
  9
$TILEMODE
 70
     1
  9
$MAXACTVP
 70
    48
  9
$PINSBASE
 10
0.0
 20
0.0
 30
0.0
  9
$PLIMCHECK
 70
     0
  9
$PEXTMIN
 10
0.0
 20
0.0
 30
0.0
  9
$PEXTMAX
 10
0.0
 20
0.0
 30
0.0
  9
$PLIMMIN
 10
0.0
 20
0.0
  9
$PLIMMAX
 10
12.0
 20
9.0
  9
$UNITMODE
 70
     0
  9
$VISRETAIN
 70
     1
  9
$PLINEGEN
 70
     0
  9
$PSLTSCALE
 70
     1
  9
$TREEDEPTH
 70
  3020
  9
$PICKSTYLE
 70
     1
  9
$CMLSTYLE
  2
STANDARD
  9
$CMLJUST
 70
     0
  9
$CMLSCALE
 40
1.0
  9
$PROXYGRAPHICS
 70
     1
  9
$MEASUREMENT
 70
     0
  0
ENDSEC
  0
SECTION
  2
CLASSES
  0
CLASS
  1
DICTIONARYVAR
  2
AcDbDictionaryVar
  3
AutoCAD 2000
 90
        0
280
     0
281
     0
  0
CLASS
  1
ACDBDICTIONARYWDFLT
  2
AcDbDictionaryWithDefault
  3
AutoCAD 2000
 90
        0
280
     0
281
     0
  0
CLASS
  1
ACDBPLACEHOLDER
  2
AcDbPlaceHolder
  3
AutoCAD 2000
 90
        0
280
     0
281
     0
  0
CLASS
  1
LAYOUT
  2
AcDbLayout
  3
AutoCAD 2000
 90
        0
280
     0
281
     0
  0
CLASS
  1
LONG_TRANSACTION
  2
AcDbLongTransaction
  3
AutoCAD 2000
 90
        0
280
     0
281
     0
  0
CLASS
  1
LWPOLYLINE
  2
AcDbPolyline
  3
AutoCAD 2000
 90
        0
280
     0
281
     1
  0
CLASS
  1
HATCH
  2
AcDbHatch
  3
AutoCAD 2000
 90
        0
280
     0
281
     1
  0
CLASS
  1
XRECORD
  2
AcDbXrecord
  3
AutoCAD 2000
 90
        0
280
     0
281
     0
  0
ENDSEC
  0
SECTION
  2
TABLES
  0
TABLE
  2
VPORT
  5
6E
330
0
100
AcDbSymbolTable
 70
     2
  0
VPORT
  5
112C
330
6E
100
AcDbSymbolTableRecord
100
AcDbViewportTableRecord
  2
*ACTIVE
 70
     0
 10
0.0
 20
0.0
 11
1.0
 21
1.0
 12
249.8527118753736
 22
178.6558024073241
 13
0.0
 23
0.0
 14
10.0
 24
10.0
 15
10.0
 25
10.0
 16
0.0
 26
0.0
 36
1.0
 17
0.0
 27
0.0
 37
0.0
 40
318.8211589254141
 41
1.540920716112531
 42
50.0
 43
0.0
 44
0.0
 50
0.0
 51
0.0
 71
     0
 72
   100
 73
     1
 74
     3
 75
     0
 76
     0
 77
     0
 78
     0
  0
ENDTAB
  0
TABLE
  2
LTYPE
  5
69
330
0
100
AcDbSymbolTable
 70
     4
  0
LTYPE
  5
6A
330
69
100
AcDbSymbolTableRecord
100
AcDbLinetypeTableRecord
  2
BYBLOCK
 70
     0
  3

 72
    65
 73
     0
 40
0.0
  0
LTYPE
  5
6B
330
69
100
AcDbSymbolTableRecord
100
AcDbLinetypeTableRecord
  2
BYLAYER
 70
     0
  3

 72
    65
 73
     0
 40
0.0
  0
LTYPE
  5
8
330
69
100
AcDbSymbolTableRecord
100
AcDbLinetypeTableRecord
  2
CONTINUOUS
 70
     0
  3
Solid line
 72
    65
 73
     0
 40
0.0
  0
LTYPE
  5
27C
330
69
100
AcDbSymbolTableRecord
100
AcDbLinetypeTableRecord
  2
SEKKEI_A2_
 70
     0
  3
center(A2)  ____ _ ____ _ ____ _ ____ _ ____ _ 
 72
    65
 73
     4
 40
14.28749999999999
 49
9.525
 74
     0
 49
-1.587499999999999
 74
     0
 49
1.587499999999999
 74
     0
 49
-1.587499999999999
 74
     0
  0
LTYPE
  5
2B4
330
69
100
AcDbSymbolTableRecord
100
AcDbLinetypeTableRecord
  2
HIDDEN2
 70
     0
  3
Hidden (.5x) _ _ _ _ _ _ _ _ _ _ _ _ _ _ _ _ _
 72
    65
 73
     2
 40
4.762499999999999
 49
3.174999999999999
 74
     0
 49
-1.587499999999999
 74
     0
  0
LTYPE
  5
48F
330
69
100
AcDbSymbolTableRecord
100
AcDbLinetypeTableRecord
  2
SEKKEI_H
 70
     0
  3
Hidden-S _ _ _ _ _ _ _ _ _ _ _ _ _ _ _ _ _
 72
    65
 73
     2
 40
2.381249999999999
 49
1.587499999999999
 74
     0
 49
-0.79375
 74
     0
  0
ENDTAB
  0
TABLE
  2
LAYER
  5
66
330
0
100
AcDbSymbolTable
 70
     9
  0
LAYER
  5
5E
330
66
100
AcDbSymbolTableRecord
100
AcDbLayerTableRecord
  2
0
 70
     0
 62
     7
  6
CONTINUOUS
  0
LAYER
  5
3E
330
66
100
AcDbSymbolTableRecord
100
AcDbLayerTableRecord
  2
CENTER
 70
     0
 62
     3
  6
SEKKEI_A2_
  0
LAYER
  5
2B5
330
66
100
AcDbSymbolTableRecord
100
AcDbLayerTableRecord
  2
HIDS
 70
     0
 62
     1
  6
HIDDEN2
  0
LAYER
  5
2BA
330
66
100
AcDbSymbolTableRecord
100
AcDbLayerTableRecord
  2
HOJO
 70
     0
 62
     4
  6
CONTINUOUS
  0
LAYER
  5
3FA
330
66
100
AcDbSymbolTableRecord
100
AcDbLayerTableRecord
  2
TITLE
 70
     0
 62
     4
  6
CONTINUOUS
  0
ENDTAB
  0
TABLE
  2
STYLE
  5
67
330
0
100
AcDbSymbolTable
 70
     1
  0
STYLE
  5
16
330
67
100
AcDbSymbolTableRecord
100
AcDbTextStyleTableRecord
  2
STANDARD
 70
     0
 40
0.0
 41
1.0
 50
0.0
 71
     0
 42
2.0
  3
simplex.shx
  4
extfont.shx
  0
ENDTAB
  0
TABLE
  2
VIEW
  5
6C
330
0
100
AcDbSymbolTable
 70
     0
  0
ENDTAB
  0
TABLE
  2
UCS
  5
6D
330
0
100
AcDbSymbolTable
 70
     0
  0
ENDTAB
  0
TABLE
  2
APPID
  5
70
330
0
100
AcDbSymbolTable
 70
     1
  0
APPID
  5
71
330
70
100
AcDbSymbolTableRecord
100
AcDbRegAppTableRecord
  2
ACAD
 70
     0
  0
ENDTAB
  0
TABLE
  2
DIMSTYLE
  5
72
330
0
100
AcDbSymbolTable
 70
     1
  0
DIMSTYLE
105
73
102
{ACAD_REACTORS
330
85A
330
9D0
102
}
330
72
100
AcDbSymbolTableRecord
100
AcDbDimStyleTableRecord
  2
STANDARD
 70
     0
  3

  4

  5

  6

  7

 40
2.0
 41
1.8
 42
0.625
 43
3.75
 44
0.8
 45
0.0
 46
0.0
 47
0.0
 48
0.0
140
1.8
141
2.5
142
0.0
143
0.0394
144
1.0
145
0.0
146
1.0
147
0.75
 71
     0
 72
     0
 73
     0
 74
     0
 75
     0
 76
     0
 77
     1
 78
     8
170
     0
171
     4
172
     1
173
     0
174
     0
175
     0
176
     0
177
     0
178
     0
270
     8
271
     2
272
     2
273
     8
274
     4
340
16
275
     0
280
     0
281
     0
282
     0
283
     1
284
     0
285
     0
286
     0
287
     3
288
     0
  0
ENDTAB
  0
TABLE
  2
BLOCK_RECORD
  5
1
330
0
100
AcDbSymbolTable
 70
    53
  0
BLOCK_RECORD
  5
2
102
{ACAD_XDICTIONARY
360
114E
102
}
330
1
100
AcDbSymbolTableRecord
100
AcDbBlockTableRecord
  2
*MODEL_SPACE
  0
BLOCK_RECORD
  5
1127
102
{ACAD_XDICTIONARY
360
1150
102
}
330
1
100
AcDbSymbolTableRecord
100
AcDbBlockTableRecord
  2
*PAPER_SPACE
  0
ENDTAB
  0
ENDSEC
  0
SECTION
  2
BLOCKS
  0
BLOCK
  5
5D
330
2
100
AcDbEntity
  8
0
100
AcDbBlockBegin
  2
*MODEL_SPACE
 70
     0
 10
0.0
 20
0.0
 30
0.0
  3
*MODEL_SPACE
  1

  0
ENDBLK
  5
5F
330
2
100
AcDbEntity
  8
0
100
AcDbBlockEnd
  0
BLOCK
  5
1129
330
1127
100
AcDbEntity
 67
     1
  8
0
100
AcDbBlockBegin
  2
*PAPER_SPACE
 70
     0
 10
0.0
 20
0.0
 30
0.0
  3
*PAPER_SPACE
  1

  0
ENDBLK
  5
112A
330
1127
100
AcDbEntity
 67
     1
  8
0
100
AcDbBlockEnd
  0
ENDSEC
  0
SECTION
  2
ENTITIES
  0
LINE
  5
849
330
2
100
AcDbEntity
  8
0
100
AcDbLine
 10
108.037809250862
 20
257.2540259109898
 30
0.0
 11
131.038106250862
 21
256.8525359109897
 31
0.0
  0
LINE
  5
84A
330
2
100
AcDbEntity
  8
0
100
AcDbLine
 10
126.538106250862
 20
271.8525359109897
 30
0.0
 11
100.538007250862
 21
271.8525359109897
 31
0.0
  0
LINE
  5
84B
330
2
100
AcDbEntity
  8
0
100
AcDbLine
 10
126.538106250862
 20
317.8525209109898
 30
0.0
 11
100.538007250862
 21
317.8525209109898
 31
0.0
  0
LINE
  5
84C
330
2
100
AcDbEntity
  8
0
100
AcDbLine
 10
108.037809250862
 20
332.4509399109897
 30
0.0
 11
131.038106250862
 21
332.8525209109898
 31
0.0
  0
LINE
  5
84D
330
2
100
AcDbEntity
  8
CENTER
100
AcDbLine
 10
67.53810825086202
 20
294.8525359109897
 30
0.0
 11
294.4906672568995
 21
294.8525359109897
 31
0.0
  0
LINE
  5
852
330
2
100
AcDbEntity
  8
CENTER
100
AcDbLine
 10
67.53810825086202
 20
92.68809596297785
 30
0.0
 11
221.338106250862
 21
92.68809596297785
 31
0.0
  0
LINE
  5
853
330
2
100
AcDbEntity
  8
0
100
AcDbLine
 10
116.538106250862
 20
122.1880919629778
 30
0.0
 11
108.037801250862
 21
122.1880919629778
 31
0.0
  0
LINE
  5
854
330
2
100
AcDbEntity
  8
0
100
AcDbLine
 10
98.53822825086204
 20
131.1880919629778
 30
0.0
 11
116.038106250862
 21
131.1880919629778
 31
0.0
  0
LINE
  5
855
330
2
100
AcDbEntity
  8
0
100
AcDbLine
 10
96.53822825086203
 20
144.1880919629778
 30
0.0
 11
130.538228250862
 21
144.1880919629778
 31
0.0
  0
LINE
  5
856
330
2
100
AcDbEntity
  8
0
100
AcDbLine
 10
96.53822825086203
 20
143.1880919629778
 30
0.0
 11
130.538228250862
 21
143.1880919629778
 31
0.0
  0
ARC
  5
857
330
2
100
AcDbEntity
  8
0
100
AcDbCircle
 10
113.538228250862
 20
-98.31187703702211
 30
0.0
 40
250.0
100
AcDbArc
 50
86.66830399999998
 51
93.33169600000003
  0
LINE
  5
858
330
2
100
AcDbEntity
  8
0
100
AcDbLine
 10
108.037801250862
 20
63.18809596297786
 30
0.0
 11
116.038106250862
 21
63.18809596297786
 31
0.0
  0
LINE
  5
859
330
2
100
AcDbEntity
  8
0
100
AcDbLine
 10
108.037801250862
 20
55.08956796297787
 30
0.0
 11
131.038106250862
 21
54.68809596297785
 31
0.0
  0
LINE
  5
85D
330
2
100
AcDbEntity
  8
0
100
AcDbLine
 10
101.338035250862
 20
106.6880959629778
 30
0.0
 11
101.338035250862
 21
112.1880919629778
 31
0.0
  0
LINE
  5
85E
330
2
100
AcDbEntity
  8
0
100
AcDbLine
 10
102.038108250862
 20
114.0293779629778
 30
0.0
 11
102.038108250862
 21
100.6230749629778
 31
0.0
  0
ARC
  5
85F
330
2
100
AcDbEntity
  8
0
100
AcDbCircle
 10
106.338035250862
 20
109.4380919629778
 30
0.0
 40
7.0
100
AcDbArc
 50
163.0435029999974
 51
196.9579929999972
  0
LINE
  5
860
330
2
100
AcDbEntity
  8
0
100
AcDbLine
 10
74.53810825086202
 20
120.2070859629777
 30
0.0
 11
74.53810825086202
 21
65.12001896297784
 31
0.0
  0
LINE
  5
861
330
2
100
AcDbEntity
  8
0
100
AcDbLine
 10
106.038108250862
 20
123.2270329629779
 30
0.0
 11
106.038108250862
 21
55.68808596297788
 31
0.0
  0
ARC
  5
862
330
2
100
AcDbEntity
  8
0
100
AcDbCircle
 10
76.53810825086202
 20
65.1691149629778
 30
0.0
 40
2.0
100
AcDbArc
 50
180.0
 51
250.2197109999988
  0
LINE
  5
863
330
2
100
AcDbEntity
  8
0
100
AcDbLine
 10
102.038108250862
 20
106.4643029629778
 30
0.0
 11
74.53810825086202
 21
107.1844039629778
 31
0.0
  0
LINE
  5
864
330
2
100
AcDbEntity
  8
0
100
AcDbLine
 10
77.53707125086208
 20
62.68444996297763
 30
0.0
 11
106.038963250862
 21
61.93809996297773
 31
0.0
  0
LINE
  5
865
330
2
100
AcDbEntity
  8
0
100
AcDbLine
 10
75.86128925086206
 20
63.28712196297761
 30
0.0
 11
77.53707125086208
 21
62.68444996297763
 31
0.0
  0
LINE
  5
866
330
2
100
AcDbEntity
  8
0
100
AcDbLine
 10
106.779701250862
 20
63.52463096297788
 30
0.0
 11
108.037801250862
 21
63.18809596297786
 31
0.0
  0
ARC
  5
867
330
2
100
AcDbEntity
  8
0
100
AcDbCircle
 10
107.038106250862
 20
64.49066696297791
 30
0.0
 40
1.0
100
AcDbArc
 50
180.0
 51
255.0243839999991
  0
ARC
  5
868
330
2
100
AcDbEntity
  8
0
100
AcDbCircle
 10
107.038106250862
 20
64.49066696297791
 30
0.0
 40
1.0
100
AcDbArc
 50
180.0
 51
255.0243839999991
  0
LINE
  5
869
330
2
100
AcDbEntity
  8
0
100
AcDbLine
 10
106.779701250862
 20
55.4261019629779
 30
0.0
 11
108.037801250862
 21
55.08956796297787
 31
0.0
  0
ARC
  5
86A
330
2
100
AcDbEntity
  8
0
100
AcDbCircle
 10
107.038106250862
 20
56.39213796297781
 30
0.0
 40
1.0
100
AcDbArc
 50
180.0
 51
255.0243839999991
  0
ARC
  5
86B
330
2
100
AcDbEntity
  8
0
100
AcDbCircle
 10
102.538108250862
 20
56.27990896297785
 30
0.0
 40
0.5
100
AcDbArc
 50
180.0
 51
268.4999999999997
  0
LINE
  5
86C
330
2
100
AcDbEntity
  8
0
100
AcDbLine
 10
102.525018250862
 20
55.78007996297788
 30
0.0
 11
106.038108250862
 21
55.68808596297788
 31
0.0
  0
LINE
  5
86D
330
2
100
AcDbEntity
  8
0
100
AcDbLine
 10
102.038108250862
 20
56.27990896297785
 30
0.0
 11
102.038108250862
 21
62.04283996297784
 31
0.0
  0
LINE
  5
86E
330
2
100
AcDbEntity
  8
0
100
AcDbLine
 10
101.338035250862
 20
56.43809596297785
 30
0.0
 11
101.338035250862
 21
61.93809596297786
 31
0.0
  0
LINE
  5
86F
330
2
100
AcDbEntity
  8
0
100
AcDbLine
 10
102.038108250862
 20
56.43809596297785
 30
0.0
 11
100.598838250862
 21
56.43809596297785
 31
0.0
  0
LINE
  5
870
330
2
100
AcDbEntity
  8
0
100
AcDbLine
 10
102.038108250862
 20
61.93809596297786
 30
0.0
 11
100.598838250862
 21
61.93809596297786
 31
0.0
  0
ARC
  5
871
330
2
100
AcDbEntity
  8
0
100
AcDbCircle
 10
100.598838250862
 20
60.93809596297785
 30
0.0
 40
1.0
100
AcDbArc
 50
90.0
 51
163.0431059999969
  0
ARC
  5
872
330
2
100
AcDbEntity
  8
0
100
AcDbCircle
 10
100.598838250862
 20
57.43809596297785
 30
0.0
 40
1.0
100
AcDbArc
 50
196.9580990000021
 51
270.0
  0
ARC
  5
873
330
2
100
AcDbEntity
  8
0
100
AcDbCircle
 10
106.338035250862
 20
59.18809596297785
 30
0.0
 40
7.0
100
AcDbArc
 50
163.0435029999974
 51
196.9579929999972
  0
LINE
  5
874
330
2
100
AcDbEntity
  8
0
100
AcDbLine
 10
102.038108250862
 20
100.6230749629778
 30
0.0
 11
106.038108250862
 21
100.6230749629778
 31
0.0
  0
LINE
  5
875
330
2
100
AcDbEntity
  8
0
100
AcDbLine
 10
102.038108250862
 20
106.6880959629778
 30
0.0
 11
100.598838250862
 21
106.6880959629778
 31
0.0
  0
ARC
  5
876
330
2
100
AcDbEntity
  8
0
100
AcDbCircle
 10
100.598838250862
 20
107.6880959629778
 30
0.0
 40
1.0
100
AcDbArc
 50
196.9580990000021
 51
270.0
  0
ARC
  5
878
330
2
100
AcDbEntity
  8
0
100
AcDbCircle
 10
76.53810825086202
 20
120.2070859629777
 30
0.0
 40
2.0
100
AcDbArc
 50
109.7802889999996
 51
180.0
  0
LINE
  5
879
330
2
100
AcDbEntity
  8
0
100
AcDbLine
 10
102.038108250862
 20
112.4118849629778
 30
0.0
 11
74.53810825086202
 21
111.6917929629778
 31
0.0
  0
ARC
  5
87A
330
2
100
AcDbEntity
  8
0
100
AcDbCircle
 10
105.537986250862
 20
151.0598269629779
 30
0.0
 40
0.5
100
AcDbArc
 50
91.83745599999969
 51
180.0
  0
LINE
  5
87B
330
2
100
AcDbEntity
  8
0
100
AcDbLine
 10
82.24122825086203
 20
147.8380939629778
 30
0.0
 11
96.53822825086203
 21
147.8380939629778
 31
0.0
  0
LINE
  5
87C
330
2
100
AcDbEntity
  8
0
100
AcDbLine
 10
81.38942825086203
 20
140.1380969629778
 30
0.0
 11
96.53822825086203
 21
140.1380969629778
 31
0.0
  0
LINE
  5
87D
330
2
100
AcDbEntity
  8
0
100
AcDbLine
 10
77.53707125086208
 20
122.6917509629777
 30
0.0
 11
106.038963250862
 21
123.4380959629777
 31
0.0
  0
LINE
  5
87E
330
2
100
AcDbEntity
  8
0
100
AcDbLine
 10
75.86128925086206
 20
122.0890749629777
 30
0.0
 11
77.53707125086208
 21
122.6917509629777
 31
0.0
  0
LINE
  5
87F
330
2
100
AcDbEntity
  8
HOJO
100
AcDbLine
 10
82.24122825086203
 20
147.8380939629778
 30
0.0
 11
81.50542825086203
 21
145.0029959629778
 31
0.0
  0
LINE
  5
880
330
2
100
AcDbEntity
  8
HOJO
100
AcDbLine
 10
82.31752825086203
 20
142.5279969629779
 30
0.0
 11
81.38942825086203
 21
140.1380969629778
 31
0.0
  0
LINE
  5
881
330
2
100
AcDbEntity
  8
HOJO
100
AcDbLine
 10
81.50542825086203
 20
145.0029959629778
 30
0.0
 11
82.31752825086203
 21
142.5279969629779
 31
0.0
  0
ARC
  5
882
330
2
100
AcDbEntity
  8
0
100
AcDbCircle
 10
103.288228250862
 20
149.6272939629778
 30
0.0
 40
1.0
100
AcDbArc
 50
0.0
 51
73.04309800000067
  0
ARC
  5
883
330
2
100
AcDbEntity
  8
0
100
AcDbCircle
 10
101.538228250862
 20
143.8880969629779
 30
0.0
 40
7.0
100
AcDbArc
 50
73.04348799999949
 51
106.9580000000012
  0
ARC
  5
884
330
2
100
AcDbEntity
  8
0
100
AcDbCircle
 10
104.537986250862
 20
148.6880919629778
 30
0.0
 40
0.5
100
AcDbArc
 50
270.0
 51
0.0
  0
LINE
  5
885
330
2
100
AcDbEntity
  8
0
100
AcDbLine
 10
106.779701250862
 20
121.8515599629778
 30
0.0
 11
108.037801250862
 21
122.1880919629778
 31
0.0
  0
ARC
  5
886
330
2
100
AcDbEntity
  8
0
100
AcDbCircle
 10
107.038106250862
 20
120.8855259629779
 30
0.0
 40
1.0
100
AcDbArc
 50
104.9756160000008
 51
180.0
  0
ARC
  5
887
330
2
100
AcDbEntity
  8
0
100
AcDbCircle
 10
105.038108250862
 20
123.2270329629779
 30
0.0
 40
1.0
100
AcDbArc
 50
0.0
 51
88.49999999999972
  0
LINE
  5
888
330
2
100
AcDbEntity
  8
0
100
AcDbLine
 10
105.064285250862
 20
124.2266899629778
 30
0.0
 11
100.485874250862
 21
124.3465779629779
 31
0.0
  0
LINE
  5
889
330
2
100
AcDbEntity
  8
0
100
AcDbLine
 10
105.037986250862
 20
148.6880919629778
 30
0.0
 11
105.037986250862
 21
151.0598269629779
 31
0.0
  0
LINE
  5
88A
330
2
100
AcDbEntity
  8
0
100
AcDbLine
 10
104.288228250862
 20
148.1878939629779
 30
0.0
 11
104.288228250862
 21
149.6272939629778
 31
0.0
  0
LINE
  5
88B
330
2
100
AcDbEntity
  8
0
100
AcDbLine
 10
98.03822825086204
 20
149.6880919629778
 30
0.0
 11
97.53822825086203
 21
149.6880919629778
 31
0.0
  0
ARC
  5
88C
330
2
100
AcDbEntity
  8
0
100
AcDbCircle
 10
98.03822825086204
 20
150.1880919629778
 30
0.0
 40
0.5
100
AcDbArc
 50
270.0
 51
0.0
  0
ARC
  5
88D
330
2
100
AcDbEntity
  8
0
100
AcDbCircle
 10
99.03822825086203
 20
150.7664159629778
 30
0.0
 40
0.5
100
AcDbArc
 50
93.33169600000003
 51
180.0
  0
LINE
  5
88E
330
2
100
AcDbEntity
  8
0
100
AcDbLine
 10
99.03822825086203
 20
144.1880919629778
 30
0.0
 11
99.03822825086203
 21
143.1880919629778
 31
0.0
  0
ARC
  5
88F
330
2
100
AcDbEntity
  8
0
100
AcDbCircle
 10
99.03798625086205
 20
147.6880919629778
 30
0.0
 40
0.5
100
AcDbArc
 50
90.0
 51
180.0
  0
LINE
  5
890
330
2
100
AcDbEntity
  8
0
100
AcDbLine
 10
96.53822825086203
 20
148.6880919629778
 30
0.0
 11
96.53822825086203
 21
144.1880919629778
 31
0.0
  0
LINE
  5
891
330
2
100
AcDbEntity
  8
0
100
AcDbLine
 10
98.03822825086204
 20
137.6880919629778
 30
0.0
 11
97.53822825086203
 21
137.6880919629778
 31
0.0
  0
ARC
  5
892
330
2
100
AcDbEntity
  8
0
100
AcDbCircle
 10
98.03822825086204
 20
137.1880919629778
 30
0.0
 40
0.5
100
AcDbArc
 50
0.0
 51
90.0
  0
ARC
  5
893
330
2
100
AcDbEntity
  8
0
100
AcDbCircle
 10
97.53822825086203
 20
138.6880919629778
 30
0.0
 40
1.0
100
AcDbArc
 50
180.0
 51
270.0
  0
LINE
  5
894
330
2
100
AcDbEntity
  8
0
100
AcDbLine
 10
98.53822825086204
 20
126.3458909629778
 30
0.0
 11
98.53822825086204
 21
143.1880919629778
 31
0.0
  0
LINE
  5
895
330
2
100
AcDbEntity
  8
0
100
AcDbLine
 10
96.53822825086203
 20
143.1880919629778
 30
0.0
 11
96.53822825086203
 21
138.6880919629778
 31
0.0
  0
ARC
  5
896
330
2
100
AcDbEntity
  8
0
100
AcDbCircle
 10
97.53822825086203
 20
148.6880919629778
 30
0.0
 40
1.0
100
AcDbArc
 50
90.0
 51
180.0
  0
LINE
  5
897
330
2
100
AcDbEntity
  8
0
100
AcDbLine
 10
98.53822825086204
 20
144.1880919629778
 30
0.0
 11
98.53822825086204
 21
150.7664159629778
 31
0.0
  0
LINE
  5
898
330
2
100
AcDbEntity
  8
0
100
AcDbLine
 10
98.78822825086203
 20
148.1880919629778
 30
0.0
 11
98.78822825086203
 21
149.6272939629778
 31
0.0
  0
ARC
  5
899
330
2
100
AcDbEntity
  8
0
100
AcDbCircle
 10
99.78822825086204
 20
149.6272939629778
 30
0.0
 40
1.0
100
AcDbArc
 50
106.9581989999983
 51
180.0
  0
LINE
  5
89A
330
2
100
AcDbEntity
  8
0
100
AcDbLine
 10
104.537986250862
 20
148.1880919629778
 30
0.0
 11
99.03798625086205
 21
148.1880919629778
 31
0.0
  0
LINE
  5
89B
330
2
100
AcDbEntity
  8
0
100
AcDbLine
 10
98.78822825086203
 20
148.8880969629778
 30
0.0
 11
104.288228250862
 21
148.8880969629778
 31
0.0
  0
ARC
  5
89C
330
2
100
AcDbEntity
  8
0
100
AcDbCircle
 10
100.538228250862
 20
126.3458909629778
 30
0.0
 40
2.0
100
AcDbArc
 50
180.0
 51
268.4999999999997
  0
LINE
  5
89D
330
2
100
AcDbEntity
  8
0
100
AcDbLine
 10
102.038108250862
 20
114.0293779629778
 30
0.0
 11
106.038108250862
 21
114.0293779629778
 31
0.0
  0
LINE
  5
89E
330
2
100
AcDbEntity
  8
0
100
AcDbLine
 10
102.038108250862
 20
112.1880919629778
 30
0.0
 11
100.598838250862
 21
112.1880919629778
 31
0.0
  0
ARC
  5
89F
330
2
100
AcDbEntity
  8
0
100
AcDbCircle
 10
100.598838250862
 20
111.1880919629778
 30
0.0
 40
1.0
100
AcDbArc
 50
90.0
 51
163.0431059999969
  0
LINE
  5
8A0
330
2
100
AcDbEntity
  8
0
100
AcDbLine
 10
74.53810825086202
 20
322.3715259109896
 30
0.0
 11
74.53810825086202
 21
267.3335459109896
 31
0.0
  0
LINE
  5
8A1
330
2
100
AcDbEntity
  8
0
100
AcDbLine
 10
98.53800725086205
 20
273.8525359109897
 30
0.0
 11
98.53800725086205
 21
315.8525209109898
 31
0.0
  0
LINE
  5
8A2
330
2
100
AcDbEntity
  8
0
100
AcDbLine
 10
102.038108250862
 20
269.6563239109898
 30
0.0
 11
74.53810825086202
 21
268.9361999109899
 31
0.0
  0
LINE
  5
8A3
330
2
100
AcDbEntity
  8
0
100
AcDbLine
 10
99.34366225086206
 20
266.1212439109898
 30
0.0
 11
74.53810825086202
 21
266.7708249109898
 31
0.0
  0
ARC
  5
8A4
330
2
100
AcDbEntity
  8
0
100
AcDbCircle
 10
76.53810825086202
 20
267.3335459109896
 30
0.0
 40
2.0
100
AcDbArc
 50
180.0
 51
250.2197109999988
  0
LINE
  5
8A5
330
2
100
AcDbEntity
  8
0
100
AcDbLine
 10
77.53707125086208
 20
264.8488809109896
 30
0.0
 11
99.515745321047
 21
264.2733516268667
 31
0.0
  0
LINE
  5
8A6
330
2
100
AcDbEntity
  8
0
100
AcDbLine
 10
75.86128925086206
 20
265.4515569109896
 30
0.0
 11
77.53707125086208
 21
264.8488809109896
 31
0.0
  0
ARC
  5
8A7
330
2
100
AcDbEntity
  8
0
100
AcDbCircle
 10
106.338035250862
 20
265.8406339109898
 30
0.0
 40
7.0
100
AcDbArc
 50
163.0435029999974
 51
196.9579929999972
  0
CIRCLE
  5
8A8
330
2
100
AcDbEntity
  8
0
100
AcDbCircle
 10
101.538108250862
 20
274.8525359109897
 30
0.0
 40
2.75
  0
ARC
  5
8A9
330
2
100
AcDbEntity
  8
0
100
AcDbCircle
 10
100.538007250862
 20
273.8525359109897
 30
0.0
 40
2.0
100
AcDbArc
 50
180.0
 51
270.0
  0
ARC
  5
8AA
330
2
100
AcDbEntity
  8
0
100
AcDbCircle
 10
99.53800725086205
 20
279.3525359109898
 30
0.0
 40
1.0
100
AcDbArc
 50
180.0
 51
270.0
  0
LINE
  5
8AB
330
2
100
AcDbEntity
  8
0
100
AcDbLine
 10
102.038108250862
 20
262.3754089109898
 30
0.0
 11
102.038108250862
 21
271.8525359109897
 31
0.0
  0
LINE
  5
8AC
330
2
100
AcDbEntity
  8
0
100
AcDbLine
 10
106.038108250862
 20
258.5566379109898
 30
0.0
 11
106.038108250862
 21
271.8525359109897
 31
0.0
  0
ARC
  5
8AD
330
2
100
AcDbEntity
  8
0
100
AcDbCircle
 10
100.598838250862
 20
264.0906339109898
 30
0.0
 40
1.0
100
AcDbArc
 50
196.9580990000021
 51
270.0
  0
ARC
  5
8AE
330
2
100
AcDbEntity
  8
0
100
AcDbCircle
 10
100.598838250862
 20
267.5906339109898
 30
0.0
 40
1.0
100
AcDbArc
 50
90.0
 51
163.0431059999969
  0
LINE
  5
8AF
330
2
100
AcDbEntity
  8
0
100
AcDbLine
 10
101.338035250862
 20
263.0906339109898
 30
0.0
 11
101.338035250862
 21
268.5906339109898
 31
0.0
  0
LINE
  5
8B0
330
2
100
AcDbEntity
  8
0
100
AcDbLine
 10
102.038108250862
 20
263.0906339109898
 30
0.0
 11
100.598838250862
 21
263.0906339109898
 31
0.0
  0
ARC
  5
8B1
330
2
100
AcDbEntity
  8
0
100
AcDbCircle
 10
107.038106250862
 20
258.5566379109898
 30
0.0
 40
1.0
100
AcDbArc
 50
180.0
 51
255.0256040000013
  0
LINE
  5
8B2
330
2
100
AcDbEntity
  8
0
100
AcDbLine
 10
106.779708250862
 20
257.5906339109898
 30
0.0
 11
108.037809250862
 21
257.2540259109898
 31
0.0
  0
LINE
  5
8B3
330
2
100
AcDbEntity
  8
0
100
AcDbLine
 10
102.525024250862
 20
261.8755919109897
 30
0.0
 11
106.038108250862
 21
261.7836279109898
 31
0.0
  0
ARC
  5
8B4
330
2
100
AcDbEntity
  8
0
100
AcDbCircle
 10
102.538108250862
 20
262.3754089109898
 30
0.0
 40
0.5
100
AcDbArc
 50
180.0
 51
268.500519
  0
LINE
  5
8B5
330
2
100
AcDbEntity
  8
0
100
AcDbLine
 10
102.038108250862
 20
268.5906339109898
 30
0.0
 11
100.598838250862
 21
268.5906339109898
 31
0.0
  0
LINE
  5
8B6
330
2
100
AcDbEntity
  8
0
100
AcDbLine
 10
102.038108250862
 20
268.5906339109898
 30
0.0
 11
100.598838250862
 21
268.5906339109898
 31
0.0
  0
ARC
  5
8B7
330
2
100
AcDbEntity
  8
0
100
AcDbCircle
 10
99.78810825086203
 20
273.1025359109898
 30
0.0
 40
1.35
100
AcDbArc
 50
0.0
 51
90.0
  0
ARC
  5
8B8
330
2
100
AcDbEntity
  8
0
100
AcDbCircle
 10
99.78810825086203
 20
276.6025359109897
 30
0.0
 40
1.35
100
AcDbArc
 50
270.0
 51
0.0
  0
LINE
  5
8B9
330
2
100
AcDbEntity
  8
0
100
AcDbLine
 10
99.53800725086205
 20
278.3525359109897
 30
0.0
 11
101.538108250862
 21
278.3525359109897
 31
0.0
  0
LINE
  5
8BA
330
2
100
AcDbEntity
  8
0
100
AcDbLine
 10
99.78810825086203
 20
275.2525299109897
 30
0.0
 11
99.78810825086203
 21
274.4525119109897
 31
0.0
  0
ARC
  5
8BB
330
2
100
AcDbEntity
  8
0
100
AcDbCircle
 10
103.288108250862
 20
273.1025359109898
 30
0.0
 40
1.35
100
AcDbArc
 50
90.0
 51
180.0
  0
LINE
  5
8BC
330
2
100
AcDbEntity
  8
0
100
AcDbLine
 10
103.288108250862
 20
275.2525299109897
 30
0.0
 11
103.288108250862
 21
274.4525119109897
 31
0.0
  0
LINE
  5
8BD
330
2
100
AcDbEntity
  8
0
100
AcDbLine
 10
105.038108250862
 20
272.8525359109898
 30
0.0
 11
105.038108250862
 21
274.8525359109897
 31
0.0
  0
LINE
  5
8BE
330
2
100
AcDbEntity
  8
0
100
AcDbLine
 10
101.138084250862
 20
273.1025359109898
 30
0.0
 11
101.938102250862
 21
273.1025359109898
 31
0.0
  0
ARC
  5
8BF
330
2
100
AcDbEntity
  8
0
100
AcDbCircle
 10
106.038108250862
 20
272.8525359109898
 30
0.0
 40
1.0
100
AcDbArc
 50
180.0
 51
270.0
  0
ARC
  5
8C0
330
2
100
AcDbEntity
  8
0
100
AcDbCircle
 10
101.538108250862
 20
274.8525359109897
 30
0.0
 40
3.5
100
AcDbArc
 50
0.0
 51
90.0
  0
ARC
  5
8C1
330
2
100
AcDbEntity
  8
0
100
AcDbCircle
 10
103.288108250862
 20
276.6025359109897
 30
0.0
 40
1.35
100
AcDbArc
 50
180.0
 51
270.0
  0
LINE
  5
8C2
330
2
100
AcDbEntity
  8
0
100
AcDbLine
 10
101.138084250862
 20
276.6025359109897
 30
0.0
 11
101.938102250862
 21
276.6025359109897
 31
0.0
  0
LINE
  5
8C3
330
2
100
AcDbEntity
  8
0
100
AcDbLine
 10
102.038108250862
 20
320.0487489109898
 30
0.0
 11
74.53810825086202
 21
320.7688719109899
 31
0.0
  0
LINE
  5
8C4
330
2
100
AcDbEntity
  8
0
100
AcDbLine
 10
99.34366225086206
 20
323.5838139109898
 30
0.0
 11
74.53810825086202
 21
322.9342469109899
 31
0.0
  0
ARC
  5
8C5
330
2
100
AcDbEntity
  8
0
100
AcDbCircle
 10
76.53810825086202
 20
322.3715259109896
 30
0.0
 40
2.0
100
AcDbArc
 50
109.7802889999996
 51
180.0
  0
ARC
  5
8C6
330
2
100
AcDbEntity
  8
0
100
AcDbCircle
 10
106.338035250862
 20
323.8644229109898
 30
0.0
 40
7.0
100
AcDbArc
 50
163.0420070000027
 51
196.9564970000025
  0
LINE
  5
8C7
330
2
100
AcDbEntity
  8
0
100
AcDbLine
 10
102.038108250862
 20
327.3296629109897
 30
0.0
 11
102.038108250862
 21
317.8525209109898
 31
0.0
  0
LINE
  5
8C8
330
2
100
AcDbEntity
  8
0
100
AcDbLine
 10
101.338035250862
 20
326.6144229109897
 30
0.0
 11
101.338035250862
 21
321.1144229109898
 31
0.0
  0
LINE
  5
8C9
330
2
100
AcDbEntity
  8
0
100
AcDbLine
 10
106.038108250862
 20
331.1484189109898
 30
0.0
 11
106.038108250862
 21
317.8525209109898
 31
0.0
  0
LINE
  5
8CA
330
2
100
AcDbEntity
  8
0
100
AcDbLine
 10
82.24122825086203
 20
298.7025269109897
 30
0.0
 11
96.53822825086203
 21
298.7025269109897
 31
0.0
  0
LINE
  5
8CB
330
2
100
AcDbEntity
  8
0
100
AcDbLine
 10
81.38942825086202
 20
291.0025299109897
 30
0.0
 11
96.53822825086203
 21
291.0025299109897
 31
0.0
  0
LINE
  5
8CC
330
2
100
AcDbEntity
  8
HOJO
100
AcDbLine
 10
82.24122825086203
 20
298.7025269109897
 30
0.0
 11
81.50542825086199
 21
295.8674289109898
 31
0.0
  0
LINE
  5
8CD
330
2
100
AcDbEntity
  8
HOJO
100
AcDbLine
 10
82.31752825086203
 20
293.3924379109898
 30
0.0
 11
81.38942825086202
 21
291.0025299109897
 31
0.0
  0
LINE
  5
8CE
330
2
100
AcDbEntity
  8
HOJO
100
AcDbLine
 10
81.50542825086199
 20
295.8674289109898
 30
0.0
 11
82.31752825086203
 21
293.3924379109898
 31
0.0
  0
CIRCLE
  5
8CF
330
2
100
AcDbEntity
  8
0
100
AcDbCircle
 10
101.538108250862
 20
314.8525209109898
 30
0.0
 40
2.75
  0
ARC
  5
8D0
330
2
100
AcDbEntity
  8
0
100
AcDbCircle
 10
100.538007250862
 20
315.8525209109898
 30
0.0
 40
2.0
100
AcDbArc
 50
90.0
 51
180.0
  0
ARC
  5
8D1
330
2
100
AcDbEntity
  8
0
100
AcDbCircle
 10
99.53800725086205
 20
310.3525209109898
 30
0.0
 40
1.0
100
AcDbArc
 50
90.0
 51
180.0
  0
LINE
  5
8D2
330
2
100
AcDbEntity
  8
0
100
AcDbLine
 10
96.53810825086203
 20
299.8525359109896
 30
0.0
 11
96.53810825086203
 21
289.8525359109898
 31
0.0
  0
ARC
  5
8D3
330
2
100
AcDbEntity
  8
0
100
AcDbCircle
 10
97.53810825086203
 20
289.8525359109898
 30
0.0
 40
1.0
100
AcDbArc
 50
180.0
 51
270.0
  0
ARC
  5
8D4
330
2
100
AcDbEntity
  8
0
100
AcDbCircle
 10
98.03810825086202
 20
288.3525359109897
 30
0.0
 40
0.5
100
AcDbArc
 50
0.0
 51
90.0
  0
LINE
  5
8D5
330
2
100
AcDbEntity
  8
0
100
AcDbLine
 10
98.03810825086202
 20
288.8525359109897
 30
0.0
 11
97.53810825086203
 21
288.8525359109897
 31
0.0
  0
ARC
  5
8D6
330
2
100
AcDbEntity
  8
0
100
AcDbCircle
 10
97.53810825086203
 20
299.8525359109896
 30
0.0
 40
1.0
100
AcDbArc
 50
90.0
 51
180.0
  0
ARC
  5
8D7
330
2
100
AcDbEntity
  8
0
100
AcDbCircle
 10
98.03810825086202
 20
301.3525359109896
 30
0.0
 40
0.5
100
AcDbArc
 50
270.0
 51
0.0
  0
LINE
  5
8D8
330
2
100
AcDbEntity
  8
0
100
AcDbLine
 10
98.03810825086202
 20
300.8525359109896
 30
0.0
 11
97.53810825086203
 21
300.8525359109896
 31
0.0
  0
ARC
  5
8D9
330
2
100
AcDbEntity
  8
0
100
AcDbCircle
 10
99.78810825086203
 20
313.1025209109898
 30
0.0
 40
1.35
100
AcDbArc
 50
0.0
 51
90.0
  0
ARC
  5
8DA
330
2
100
AcDbEntity
  8
0
100
AcDbCircle
 10
99.78810825086203
 20
316.6025209109898
 30
0.0
 40
1.35
100
AcDbArc
 50
270.0
 51
0.0
  0
LINE
  5
8DB
330
2
100
AcDbEntity
  8
0
100
AcDbLine
 10
99.53800725086205
 20
311.3525209109898
 30
0.0
 11
101.538108250862
 21
311.3525209109898
 31
0.0
  0
LINE
  5
8DC
330
2
100
AcDbEntity
  8
0
100
AcDbLine
 10
99.78810825086203
 20
315.2525149109899
 30
0.0
 11
99.78810825086203
 21
314.4524969109898
 31
0.0
  0
LINE
  5
8DD
330
2
100
AcDbEntity
  8
0
100
AcDbLine
 10
103.288108250862
 20
315.2525149109899
 30
0.0
 11
103.288108250862
 21
314.4524969109898
 31
0.0
  0
ARC
  5
8DE
330
2
100
AcDbEntity
  8
0
100
AcDbCircle
 10
101.538108250862
 20
314.8525209109898
 30
0.0
 40
3.5
100
AcDbArc
 50
270.0
 51
0.0
  0
ARC
  5
8DF
330
2
100
AcDbEntity
  8
0
100
AcDbCircle
 10
103.288108250862
 20
313.1025209109898
 30
0.0
 40
1.35
100
AcDbArc
 50
90.0
 51
180.0
  0
LINE
  5
8E0
330
2
100
AcDbEntity
  8
0
100
AcDbLine
 10
101.138084250862
 20
313.1025209109898
 30
0.0
 11
101.938102250862
 21
313.1025209109898
 31
0.0
  0
ARC
  5
8E1
330
2
100
AcDbEntity
  8
0
100
AcDbCircle
 10
103.288108250862
 20
316.6025209109898
 30
0.0
 40
1.35
100
AcDbArc
 50
180.0
 51
270.0
  0
LINE
  5
8E2
330
2
100
AcDbEntity
  8
0
100
AcDbLine
 10
101.138084250862
 20
316.6025209109898
 30
0.0
 11
101.938102250862
 21
316.6025209109898
 31
0.0
  0
ARC
  5
8E3
330
2
100
AcDbEntity
  8
0
100
AcDbCircle
 10
106.038108250862
 20
316.8525209109898
 30
0.0
 40
1.0
100
AcDbArc
 50
90.0
 51
180.0
  0
LINE
  5
8E4
330
2
100
AcDbEntity
  8
0
100
AcDbLine
 10
105.038108250862
 20
316.8525209109898
 30
0.0
 11
105.038108250862
 21
314.8525209109898
 31
0.0
  0
ARC
  5
8E5
330
2
100
AcDbEntity
  8
0
100
AcDbCircle
 10
100.598838250862
 20
322.1144229109897
 30
0.0
 40
1.0
100
AcDbArc
 50
196.956894000003
 51
270.0
  0
LINE
  5
8E6
330
2
100
AcDbEntity
  8
0
100
AcDbLine
 10
102.038108250862
 20
321.1144229109898
 30
0.0
 11
100.598838250862
 21
321.1144229109898
 31
0.0
  0
LINE
  5
8E7
330
2
100
AcDbEntity
  8
0
100
AcDbLine
 10
77.53707125086208
 20
324.8561909109896
 30
0.0
 11
99.515745321047
 21
325.4317201951128
 31
0.0
  0
LINE
  5
8E8
330
2
100
AcDbEntity
  8
0
100
AcDbLine
 10
75.86128925086206
 20
324.2535149109897
 30
0.0
 11
77.53707125086208
 21
324.8561909109896
 31
0.0
  0
ARC
  5
8E9
330
2
100
AcDbEntity
  8
0
100
AcDbCircle
 10
107.038106250862
 20
331.1484189109898
 30
0.0
 40
1.0
100
AcDbArc
 50
104.9743959999986
 51
180.0
  0
LINE
  5
8EA
330
2
100
AcDbEntity
  8
0
100
AcDbLine
 10
106.779708250862
 20
332.1144229109898
 30
0.0
 11
108.037809250862
 21
332.4509399109897
 31
0.0
  0
ARC
  5
8EB
330
2
100
AcDbEntity
  8
0
100
AcDbCircle
 10
100.598838250862
 20
325.6144229109898
 30
0.0
 40
1.0
100
AcDbArc
 50
90.0
 51
163.0419009999978
  0
LINE
  5
8EC
330
2
100
AcDbEntity
  8
0
100
AcDbLine
 10
102.038108250862
 20
326.6144229109897
 30
0.0
 11
100.598838250862
 21
326.6144229109897
 31
0.0
  0
LINE
  5
8ED
330
2
100
AcDbEntity
  8
0
100
AcDbLine
 10
102.525024250862
 20
327.8294799109896
 30
0.0
 11
106.038108250862
 21
327.9214299109896
 31
0.0
  0
ARC
  5
8EE
330
2
100
AcDbEntity
  8
0
100
AcDbCircle
 10
102.538108250862
 20
327.3296629109897
 30
0.0
 40
0.5
100
AcDbArc
 50
91.49948099999999
 51
180.0
  0
TEXT
  5
8EF
330
2
100
AcDbEntity
  8
TITLE
100
AcDbText
 10
348.9510137798035
 20
272.4737903880876
 30
0.0
 40
5.0
  1
HFV-15R-10~240-S25
100
AcDbText
  0
TEXT
  5
8F0
330
2
100
AcDbEntity
  8
TITLE
100
AcDbText
 10
348.9510137798035
 20
296.4737903880876
 30
0.0
 40
5.0
  1
HFV-15R-10~240-T25
100
AcDbText
  0
TEXT
  5
8F1
330
2
100
AcDbEntity
  8
TITLE
100
AcDbText
 10
348.9510137798035
 20
304.4737903880875
 30
0.0
 40
5.0
  1
HFV-15R-10~240-T15
100
AcDbText
  0
TEXT
  5
8F2
330
2
100
AcDbEntity
  8
TITLE
100
AcDbText
 10
348.9510137798035
 20
288.4737903880876
 30
0.0
 40
5.0
  1
HFV-15R-10~120-T40
100
AcDbText
  0
TEXT
  5
8F3
330
2
100
AcDbEntity
  8
TITLE
100
AcDbText
 10
348.9510137798035
 20
280.4737903880876
 30
0.0
 40
5.0
  1
HFV-15R-10~240-S15
100
AcDbText
  0
ARC
  5
8F4
330
2
100
AcDbEntity
  8
0
100
AcDbCircle
 10
392.0462726134487
 20
114.9880949629778
 30
0.0
 40
2.5
100
AcDbArc
 50
270.0
 51
0.0
  0
ARC
  5
8F5
330
2
100
AcDbEntity
  8
0
100
AcDbCircle
 10
392.0462726134487
 20
114.9880949629778
 30
0.0
 40
2.5
100
AcDbArc
 50
0.0
 51
90.0
  0
LINE
  5
8F6
330
2
100
AcDbEntity
  8
0
100
AcDbLine
 10
397.5462726134487
 20
122.4880949629778
 30
0.0
 11
370.5462726134487
 21
122.4880949629778
 31
0.0
  0
LINE
  5
8F8
330
2
100
AcDbEntity
  8
0
100
AcDbLine
 10
397.5462726134487
 20
107.4880949629778
 30
0.0
 11
370.5462726134487
 21
107.4880949629778
 31
0.0
  0
LINE
  5
8FC
330
2
100
AcDbEntity
  8
CENTER
100
AcDbLine
 10
387.5462726134486
 20
92.68809596297797
 30
0.0
 11
479.5462726134486
 21
92.68809596297785
 31
0.0
  0
LINE
  5
8FD
330
2
100
AcDbEntity
  8
CENTER
100
AcDbLine
 10
363.5462726134487
 20
114.9880949629778
 30
0.0
 11
476.5462726134486
 21
114.9880949629778
 31
0.0
  0
LINE
  5
8FE
330
2
100
AcDbEntity
  8
CENTER
100
AcDbLine
 10
391.0462726134486
 20
58.98812596297819
 30
0.0
 11
407.0462726134486
 21
58.98812596297762
 31
0.0
  0
LINE
  5
8FF
330
2
100
AcDbEntity
  8
CENTER
100
AcDbLine
 10
391.0462726134487
 20
144.9880949629778
 30
0.0
 11
407.0462726134486
 21
144.9880949629777
 31
0.0
  0
LINE
  5
901
330
2
100
AcDbEntity
  8
0
100
AcDbLine
 10
203.538103250862
 20
254.8525359109897
 30
0.0
 11
288.538103250862
 21
254.8525359109897
 31
0.0
  0
LINE
  5
902
330
2
100
AcDbEntity
  8
0
100
AcDbLine
 10
204.328966250862
 20
263.8525359109897
 30
0.0
 11
287.328279250862
 21
263.8525359109897
 31
0.0
  0
LINE
  5
903
330
2
100
AcDbEntity
  8
0
100
AcDbLine
 10
284.730592250862
 20
325.8525209109898
 30
0.0
 11
205.486421250862
 21
325.8525209109898
 31
0.0
  0
LINE
  5
904
330
2
100
AcDbEntity
  8
0
100
AcDbLine
 10
238.538103250862
 20
230.8525359109897
 30
0.0
 11
255.538103250862
 21
230.8525359109897
 31
0.0
  0
LINE
  5
905
330
2
100
AcDbEntity
  8
0
100
AcDbLine
 10
231.038103250862
 20
265.1725279109898
 30
0.0
 11
261.038103250862
 21
265.1725279109898
 31
0.0
  0
LINE
  5
909
330
2
100
AcDbEntity
  8
CENTER
100
AcDbLine
 10
219.038103250862
 20
114.9880949629778
 30
0.0
 11
273.038103250862
 21
114.9880949629778
 31
0.0
  0
LINE
  5
90A
330
2
100
AcDbEntity
  8
0
100
AcDbLine
 10
250.538103250862
 20
117.4880949629778
 30
0.0
 11
255.538103250862
 21
117.4880949629778
 31
0.0
  0
LINE
  5
90B
330
2
100
AcDbEntity
  8
0
100
AcDbLine
 10
226.038103250862
 20
148.9880949629778
 30
0.0
 11
266.038103250862
 21
148.9880949629778
 31
0.0
  0
LINE
  5
90C
330
2
100
AcDbEntity
  8
0
100
AcDbLine
 10
214.038103250862
 20
152.9880949629779
 30
0.0
 11
278.038103250862
 21
152.9880949629779
 31
0.0
  0
ARC
  5
90D
330
2
100
AcDbEntity
  8
0
100
AcDbCircle
 10
246.038103250862
 20
101.9880949629778
 30
0.0
 40
42.5
100
AcDbArc
 50
19.74990099999923
 51
160.2501069999981
  0
LINE
  5
90E
330
2
100
AcDbEntity
  8
0
100
AcDbLine
 10
250.538103250862
 20
112.4880949629778
 30
0.0
 11
255.538103250862
 21
112.4880949629778
 31
0.0
  0
LINE
  5
90F
330
2
100
AcDbEntity
  8
0
100
AcDbLine
 10
226.038103250862
 20
54.98809596297792
 30
0.0
 11
266.038103250862
 21
54.98809596297792
 31
0.0
  0
LINE
  5
910
330
2
100
AcDbEntity
  8
0
100
AcDbLine
 10
214.038103250862
 20
50.98809596297792
 30
0.0
 11
278.038103250862
 21
50.98809596297792
 31
0.0
  0
ARC
  5
911
330
2
100
AcDbEntity
  8
0
100
AcDbCircle
 10
246.038103250862
 20
101.9880949629778
 30
0.0
 40
42.5
100
AcDbArc
 50
199.7498930000018
 51
340.250092000002
  0
ARC
  5
912
330
2
100
AcDbEntity
  8
0
100
AcDbCircle
 10
246.038103250862
 20
114.9880949629778
 30
0.0
 40
7.5
100
AcDbArc
 50
19.47120100000065
 51
340.5288089999991
  0
CIRCLE
  5
913
330
2
100
AcDbEntity
  8
0
100
AcDbCircle
 10
246.038103250862
 20
114.9880949629778
 30
0.0
 40
20.0
  0
LINE
  5
914
330
2
100
AcDbEntity
  8
0
100
AcDbLine
 10
131.038106250862
 20
130.6880919629778
 30
0.0
 11
203.958101250862
 21
130.6880919629778
 31
0.0
  0
LINE
  5
915
330
2
100
AcDbEntity
  8
0
100
AcDbLine
 10
131.038106250862
 20
122.9370619629778
 30
0.0
 11
202.788110250862
 21
122.9370619629778
 31
0.0
  0
LINE
  5
916
330
2
100
AcDbEntity
  8
0
100
AcDbLine
 10
201.538110250862
 20
54.68809596297785
 30
0.0
 11
131.038106250862
 21
54.68809596297785
 31
0.0
  0
LINE
  5
917
330
2
100
AcDbEntity
  8
0
100
AcDbLine
 10
131.038106250862
 20
62.43913596297784
 30
0.0
 11
203.038103250862
 21
62.43913596297784
 31
0.0
  0
LINE
  5
919
330
2
100
AcDbEntity
  8
0
100
AcDbLine
 10
131.038106250862
 20
54.68811596297792
 30
0.0
 11
131.038106250862
 21
130.6880919629778
 31
0.0
  0
LINE
  5
91A
330
2
100
AcDbEntity
  8
0
100
AcDbLine
 10
131.038106250862
 20
62.43912596297787
 30
0.0
 11
117.038106250862
 21
62.43912596297787
 31
0.0
  0
ARC
  5
91B
330
2
100
AcDbEntity
  8
0
100
AcDbCircle
 10
117.538106250862
 20
55.42381596297786
 30
0.0
 40
0.5
100
AcDbArc
 50
180.0
 51
268.9999999999998
  0
LINE
  5
91C
330
2
100
AcDbEntity
  8
0
100
AcDbLine
 10
117.038106250862
 20
62.18809596297785
 30
0.0
 11
117.038106250862
 21
55.54168596297791
 31
0.0
  0
LINE
  5
91D
330
2
100
AcDbEntity
  8
0
100
AcDbLine
 10
117.038106250862
 20
62.30616696297784
 30
0.0
 11
117.038106250862
 21
55.18809596297785
 31
0.0
  0
LINE
  5
91E
330
2
100
AcDbEntity
  8
0
100
AcDbLine
 10
116.038106250862
 20
62.18809596297785
 30
0.0
 11
116.038106250862
 21
55.18809596297785
 31
0.0
  0
LINE
  5
91F
330
2
100
AcDbEntity
  8
0
100
AcDbLine
 10
117.038106250862
 20
62.18809596297785
 30
0.0
 11
115.059102250862
 21
62.18809596297785
 31
0.0
  0
LINE
  5
920
330
2
100
AcDbEntity
  8
0
100
AcDbLine
 10
117.038106250862
 20
55.18809596297785
 30
0.0
 11
115.059102250862
 21
55.18809596297785
 31
0.0
  0
ARC
  5
921
330
2
100
AcDbEntity
  8
0
100
AcDbCircle
 10
116.038106250862
 20
62.18809596297785
 30
0.0
 40
1.0
100
AcDbArc
 50
0.0
 51
90.0
  0
ARC
  5
922
330
2
100
AcDbEntity
  8
0
100
AcDbCircle
 10
122.438096250862
 20
58.68809596297785
 30
0.0
 40
8.999999
100
AcDbArc
 50
163.3984990000014
 51
196.6009979999981
  0
ARC
  5
923
330
2
100
AcDbEntity
  8
0
100
AcDbCircle
 10
115.059102250862
 20
56.48808596297783
 30
0.0
 40
1.3
100
AcDbArc
 50
196.6009059999969
 51
270.0
  0
ARC
  5
924
330
2
100
AcDbEntity
  8
0
100
AcDbCircle
 10
115.059102250862
 20
60.88807596297783
 30
0.0
 40
1.3
100
AcDbArc
 50
90.0
 51
163.3984070000009
  0
ARC
  5
925
330
2
100
AcDbEntity
  8
0
100
AcDbCircle
 10
121.538228250862
 20
151.0598269629779
 30
0.0
 40
0.5
100
AcDbArc
 50
0.0
 51
88.16254400000032
  0
LINE
  5
926
330
2
100
AcDbEntity
  8
CENTER
100
AcDbLine
 10
113.538106250862
 20
154.7136129629778
 30
0.0
 11
113.538228250862
 21
136.9147919629779
 31
0.0
  0
ARC
  5
927
330
2
100
AcDbEntity
  8
0
100
AcDbCircle
 10
128.038228250862
 20
150.7664159629778
 30
0.0
 40
0.5
100
AcDbArc
 50
0.0
 51
86.66830399999998
  0
ARC
  5
928
330
2
100
AcDbEntity
  8
0
100
AcDbCircle
 10
127.288228250862
 20
149.6272939629778
 30
0.0
 40
1.0
100
AcDbArc
 50
0.0
 51
73.04309800000067
  0
LINE
  5
929
330
2
100
AcDbEntity
  8
0
100
AcDbLine
 10
122.788228250862
 20
148.8880969629778
 30
0.0
 11
128.288228250862
 21
148.8880969629778
 31
0.0
  0
ARC
  5
92A
330
2
100
AcDbEntity
  8
0
100
AcDbCircle
 10
128.038228250862
 20
147.6880919629778
 30
0.0
 40
0.5
100
AcDbArc
 50
0.0
 51
90.0
  0
LINE
  5
92B
330
2
100
AcDbEntity
  8
0
100
AcDbLine
 10
131.038106250862
 20
122.9370619629778
 30
0.0
 11
117.038106250862
 21
122.9370619629778
 31
0.0
  0
ARC
  5
92C
330
2
100
AcDbEntity
  8
0
100
AcDbCircle
 10
123.788228250862
 20
149.6272939629778
 30
0.0
 40
1.0
100
AcDbArc
 50
106.9581989999983
 51
180.0
  0
ARC
  5
92D
330
2
100
AcDbEntity
  8
0
100
AcDbCircle
 10
125.538228250862
 20
143.8880969629779
 30
0.0
 40
7.0
100
AcDbArc
 50
73.04348799999949
 51
106.9580000000012
  0
ARC
  5
92E
330
2
100
AcDbEntity
  8
0
100
AcDbCircle
 10
122.538228250862
 20
148.6880919629778
 30
0.0
 40
0.5
100
AcDbArc
 50
180.0
 51
270.0
  0
LINE
  5
92F
330
2
100
AcDbEntity
  8
0
100
AcDbLine
 10
122.538228250862
 20
148.1880919629778
 30
0.0
 11
128.038228250862
 21
148.1880919629778
 31
0.0
  0
LINE
  5
930
330
2
100
AcDbEntity
  8
0
100
AcDbLine
 10
117.038106250862
 20
122.6880919629778
 30
0.0
 11
117.038106250862
 21
130.1880919629778
 31
0.0
  0
LINE
  5
931
330
2
100
AcDbEntity
  8
0
100
AcDbLine
 10
116.038106250862
 20
123.1880919629778
 30
0.0
 11
116.038106250862
 21
130.1880919629778
 31
0.0
  0
ARC
  5
932
330
2
100
AcDbEntity
  8
0
100
AcDbCircle
 10
116.538106250862
 20
122.6880919629778
 30
0.0
 40
0.5
100
AcDbArc
 50
270.0
 51
0.0
  0
LINE
  5
933
330
2
100
AcDbEntity
  8
0
100
AcDbLine
 10
117.038106250862
 20
123.1880919629778
 30
0.0
 11
115.059102250862
 21
123.1880919629778
 31
0.0
  0
LINE
  5
934
330
2
100
AcDbEntity
  8
0
100
AcDbLine
 10
117.038106250862
 20
130.1880919629778
 30
0.0
 11
115.059102250862
 21
130.1880919629778
 31
0.0
  0
ARC
  5
935
330
2
100
AcDbEntity
  8
0
100
AcDbCircle
 10
116.038106250862
 20
130.1880919629778
 30
0.0
 40
1.0
100
AcDbArc
 50
0.0
 51
90.0
  0
ARC
  5
936
330
2
100
AcDbEntity
  8
0
100
AcDbCircle
 10
122.438096250862
 20
126.6880919629778
 30
0.0
 40
8.999999
100
AcDbArc
 50
163.3990020000018
 51
196.6015009999986
  0
ARC
  5
937
330
2
100
AcDbEntity
  8
0
100
AcDbCircle
 10
115.059102250862
 20
128.8881049629778
 30
0.0
 40
1.3
100
AcDbArc
 50
90.0
 51
163.399094000003
  0
ARC
  5
938
330
2
100
AcDbEntity
  8
0
100
AcDbCircle
 10
115.059102250862
 20
124.4881179629778
 30
0.0
 40
1.3
100
AcDbArc
 50
196.601592999999
 51
270.0
  0
LINE
  5
939
330
2
100
AcDbEntity
  8
0
100
AcDbLine
 10
122.038228250862
 20
148.6880919629778
 30
0.0
 11
122.038228250862
 21
151.0598269629779
 31
0.0
  0
LINE
  5
93A
330
2
100
AcDbEntity
  8
0
100
AcDbLine
 10
122.788228250862
 20
148.1880919629778
 30
0.0
 11
122.788228250862
 21
149.6272939629778
 31
0.0
  0
LINE
  5
93B
330
2
100
AcDbEntity
  8
0
100
AcDbLine
 10
130.038228250862
 20
144.1880919629778
 30
0.0
 11
130.038228250862
 21
143.1880919629778
 31
0.0
  0
LINE
  5
93C
330
2
100
AcDbEntity
  8
0
100
AcDbLine
 10
130.538228250862
 20
148.6880919629778
 30
0.0
 11
130.538228250862
 21
144.1880919629778
 31
0.0
  0
LINE
  5
93D
330
2
100
AcDbEntity
  8
0
100
AcDbLine
 10
130.538228250862
 20
143.1880919629778
 30
0.0
 11
130.538228250862
 21
138.6880919629778
 31
0.0
  0
LINE
  5
93E
330
2
100
AcDbEntity
  8
0
100
AcDbLine
 10
129.038228250862
 20
149.6880919629778
 30
0.0
 11
129.538228250862
 21
149.6880919629778
 31
0.0
  0
ARC
  5
93F
330
2
100
AcDbEntity
  8
0
100
AcDbCircle
 10
129.038228250862
 20
150.1880919629778
 30
0.0
 40
0.5
100
AcDbArc
 50
180.0
 51
270.0
  0
LINE
  5
940
330
2
100
AcDbEntity
  8
0
100
AcDbLine
 10
129.038228250862
 20
137.6880919629778
 30
0.0
 11
129.538228250862
 21
137.6880919629778
 31
0.0
  0
ARC
  5
941
330
2
100
AcDbEntity
  8
0
100
AcDbCircle
 10
129.038228250862
 20
137.1880919629778
 30
0.0
 40
0.5
100
AcDbArc
 50
90.0
 51
180.0
  0
ARC
  5
942
330
2
100
AcDbEntity
  8
0
100
AcDbCircle
 10
129.538106250862
 20
131.7277039629779
 30
0.0
 40
1.0
100
AcDbArc
 50
180.0
 51
268.4999080000003
  0
LINE
  5
943
330
2
100
AcDbEntity
  8
0
100
AcDbLine
 10
128.538228250862
 20
131.7277039629779
 30
0.0
 11
128.538228250862
 21
143.1880919629778
 31
0.0
  0
LINE
  5
944
330
2
100
AcDbEntity
  8
0
100
AcDbLine
 10
128.538228250862
 20
144.1880919629778
 30
0.0
 11
128.538228250862
 21
150.7664159629778
 31
0.0
  0
LINE
  5
945
330
2
100
AcDbEntity
  8
0
100
AcDbLine
 10
128.288228250862
 20
148.1878939629779
 30
0.0
 11
128.288228250862
 21
149.6272939629778
 31
0.0
  0
ARC
  5
946
330
2
100
AcDbEntity
  8
0
100
AcDbCircle
 10
129.538228250862
 20
148.6880919629778
 30
0.0
 40
1.0
100
AcDbArc
 50
0.0
 51
90.0
  0
ARC
  5
947
330
2
100
AcDbEntity
  8
0
100
AcDbCircle
 10
129.538228250862
 20
138.6880919629778
 30
0.0
 40
1.0
100
AcDbArc
 50
270.0
 51
0.0
  0
LINE
  5
948
330
2
100
AcDbEntity
  8
0
100
AcDbLine
 10
129.511899250862
 20
130.7280779629778
 30
0.0
 11
131.038106250862
 21
130.6880919629778
 31
0.0
  0
LINE
  5
94A
330
2
100
AcDbEntity
  8
CENTER
100
AcDbLine
 10
246.038103250862
 20
159.9880949629779
 30
0.0
 11
246.038103250862
 21
43.98809596297792
 31
0.0
  0
LINE
  5
94B
330
2
100
AcDbEntity
  8
0
100
AcDbLine
 10
206.038103250862
 20
116.3493629629779
 30
0.0
 11
206.038103250862
 21
87.62655796297782
 31
0.0
  0
LINE
  5
94C
330
2
100
AcDbEntity
  8
0
100
AcDbLine
 10
203.538103250862
 20
127.6880919629778
 30
0.0
 11
203.538103250862
 21
76.28809696297787
 31
0.0
  0
LINE
  5
94D
330
2
100
AcDbEntity
  8
CENTER
100
AcDbLine
 10
208.194414250862
 20
58.98809596297792
 30
0.0
 11
219.881792250862
 21
58.98809596297792
 31
0.0
  0
CIRCLE
  5
94E
330
2
100
AcDbEntity
  8
0
100
AcDbCircle
 10
214.038103250862
 20
58.98809596297792
 30
0.0
 40
3.25
  0
ARC
  5
94F
330
2
100
AcDbEntity
  8
0
100
AcDbCircle
 10
214.038103250862
 20
58.98809596297792
 30
0.0
 40
8.0
100
AcDbArc
 50
0.0
 51
97.96981799999914
  0
ARC
  5
950
330
2
100
AcDbEntity
  8
0
100
AcDbCircle
 10
212.374315250862
 20
70.87219496297791
 30
0.0
 40
4.0
100
AcDbArc
 50
187.9696960000021
 51
277.9697570000001
  0
ARC
  5
951
330
2
100
AcDbEntity
  8
0
100
AcDbCircle
 10
208.538133250862
 20
62.68811496297792
 30
0.0
 40
5.0
100
AcDbArc
 50
135.7928010000007
 51
180.0
  0
LINE
  5
952
330
2
100
AcDbEntity
  8
0
100
AcDbLine
 10
206.115373250862
 20
57.87889596297782
 30
0.0
 11
203.538103250862
 21
76.28809696297787
 31
0.0
  0
LINE
  5
953
330
2
100
AcDbEntity
  8
CENTER
100
AcDbLine
 10
214.038103250862
 20
53.14440696297788
 30
0.0
 11
214.038103250862
 21
64.83178496297796
 31
0.0
  0
ARC
  5
954
330
2
100
AcDbEntity
  8
0
100
AcDbCircle
 10
201.538110250862
 20
56.68809596297785
 30
0.0
 40
2.0
100
AcDbArc
 50
270.0
 51
0.0
  0
LINE
  5
955
330
2
100
AcDbEntity
  8
0
100
AcDbLine
 10
203.538103250862
 20
56.68809596297785
 30
0.0
 11
203.538103250862
 21
62.68810596297782
 31
0.0
  0
ARC
  5
956
330
2
100
AcDbEntity
  8
0
100
AcDbCircle
 10
214.038103250862
 20
58.98809596297792
 30
0.0
 40
8.0
100
AcDbArc
 50
187.9696039999989
 51
270.0
  0
LINE
  5
957
330
2
100
AcDbEntity
  8
0
100
AcDbLine
 10
206.088640250862
 20
86.92017496297784
 30
0.0
 11
208.4129802508619
 21
70.31760496297784
 31
0.0
  0
ARC
  5
958
330
2
100
AcDbEntity
  8
0
100
AcDbCircle
 10
226.038103250862
 20
58.98809596297792
 30
0.0
 40
4.0
100
AcDbArc
 50
180.0
 51
270.0
  0
LINE
  5
959
330
2
100
AcDbEntity
  8
0
100
AcDbLine
 10
234.445512250862
 20
86.55059896297791
 30
0.0
 11
233.288103250862
 21
85.06859696297784
 31
0.0
  0
LINE
  5
95A
330
2
100
AcDbEntity
  8
0
100
AcDbLine
 10
233.288103250862
 20
78.22895496297793
 30
0.0
 11
234.517915250862
 21
76.98809496297781
 31
0.0
  0
LINE
  5
95B
330
2
100
AcDbEntity
  8
0
100
AcDbLine
 10
233.288103250862
 20
85.06859696297784
 30
0.0
 11
233.288103250862
 21
78.22895496297793
 31
0.0
  0
LINE
  5
95C
330
2
100
AcDbEntity
  8
0
100
AcDbLine
 10
248.560609250862
 20
84.55841196297786
 30
0.0
 11
249.225603250862
 21
84.55841196297786
 31
0.0
  0
LINE
  5
95D
330
2
100
AcDbEntity
  8
0
100
AcDbLine
 10
249.225603250862
 20
84.55841196297786
 30
0.0
 11
249.225603250862
 21
86.55059896297791
 31
0.0
  0
LINE
  5
95E
330
2
100
AcDbEntity
  8
0
100
AcDbLine
 10
248.271913250862
 20
85.38018896297785
 30
0.0
 11
248.560609250862
 21
84.55841196297786
 31
0.0
  0
LINE
  5
95F
330
2
100
AcDbEntity
  8
0
100
AcDbLine
 10
245.415513250862
 20
85.38018896297785
 30
0.0
 11
243.900606250862
 21
85.38018896297785
 31
0.0
  0
LINE
  5
960
330
2
100
AcDbEntity
  8
0
100
AcDbLine
 10
238.7321032508619
 20
86.55059896297791
 30
0.0
 11
239.663103250862
 21
85.51745696297791
 31
0.0
  0
LINE
  5
961
330
2
100
AcDbEntity
  8
0
100
AcDbLine
 10
242.850603250862
 20
84.55841196297786
 30
0.0
 11
243.5582142508621
 21
84.55841196297786
 31
0.0
  0
LINE
  5
962
330
2
100
AcDbEntity
  8
0
100
AcDbLine
 10
238.741701250862
 20
84.70913096297783
 30
0.0
 11
238.138505250862
 21
85.28057996297787
 31
0.0
  0
LINE
  5
963
330
2
100
AcDbEntity
  8
0
100
AcDbLine
 10
238.741701250862
 20
84.70913096297783
 30
0.0
 11
238.741701250862
 21
84.55841196297786
 31
0.0
  0
LINE
  5
964
330
2
100
AcDbEntity
  8
0
100
AcDbLine
 10
238.741701250862
 20
84.55841196297786
 30
0.0
 11
239.663103250862
 21
84.55841196297786
 31
0.0
  0
LINE
  5
965
330
2
100
AcDbEntity
  8
0
100
AcDbLine
 10
242.850603250862
 20
84.55841196297786
 30
0.0
 11
242.850603250862
 21
86.55059896297791
 31
0.0
  0
LINE
  5
966
330
2
100
AcDbEntity
  8
0
100
AcDbLine
 10
239.663103250862
 20
85.51745696297791
 30
0.0
 11
239.663103250862
 21
84.55841196297786
 31
0.0
  0
LINE
  5
967
330
2
100
AcDbEntity
  8
0
100
AcDbLine
 10
243.900606250862
 20
85.38018896297785
 30
0.0
 11
243.5582142508621
 21
84.55841196297786
 31
0.0
  0
LINE
  5
968
330
2
100
AcDbEntity
  8
0
100
AcDbLine
 10
242.850603250862
 20
86.55059896297791
 30
0.0
 11
249.225603250862
 21
86.55059896297791
 31
0.0
  0
LINE
  5
969
330
2
100
AcDbEntity
  8
0
100
AcDbLine
 10
246.610902250862
 20
85.38018896297785
 30
0.0
 11
248.271913250862
 21
85.38018896297785
 31
0.0
  0
LINE
  5
96A
330
2
100
AcDbEntity
  8
0
100
AcDbLine
 10
235.078706250862
 20
85.28057996297787
 30
0.0
 11
234.3589032508619
 21
84.38806996297785
 31
0.0
  0
LINE
  5
96B
330
2
100
AcDbEntity
  8
0
100
AcDbLine
 10
234.445512250862
 20
86.55059896297791
 30
0.0
 11
238.7321032508619
 21
86.55059896297791
 31
0.0
  0
LINE
  5
96C
330
2
100
AcDbEntity
  8
0
100
AcDbLine
 10
238.150606250862
 20
85.28057996297787
 30
0.0
 11
235.078706250862
 21
85.28057996297787
 31
0.0
  0
LINE
  5
96D
330
2
100
AcDbEntity
  8
0
100
AcDbLine
 10
246.610902250862
 20
78.03399796297788
 30
0.0
 11
247.009309250862
 21
78.03399796297788
 31
0.0
  0
LINE
  5
96E
330
2
100
AcDbEntity
  8
0
100
AcDbLine
 10
244.942415250862
 20
78.03399796297788
 30
0.0
 11
244.942415250862
 21
76.98809496297781
 31
0.0
  0
LINE
  5
96F
330
2
100
AcDbEntity
  8
0
100
AcDbLine
 10
247.009309250862
 20
78.03399796297788
 30
0.0
 11
247.009309250862
 21
76.98809496297781
 31
0.0
  0
LINE
  5
970
330
2
100
AcDbEntity
  8
0
100
AcDbLine
 10
244.942415250862
 20
76.98809496297781
 30
0.0
 11
247.009309250862
 21
76.98809496297781
 31
0.0
  0
LINE
  5
971
330
2
100
AcDbEntity
  8
0
100
AcDbLine
 10
244.942415250862
 20
78.03399796297788
 30
0.0
 11
245.415513250862
 21
78.03399796297788
 31
0.0
  0
LINE
  5
972
330
2
100
AcDbEntity
  8
0
100
AcDbLine
 10
239.663103250862
 20
82.54132596297791
 30
0.0
 11
239.663103250862
 21
76.98809496297781
 31
0.0
  0
LINE
  5
973
330
2
100
AcDbEntity
  8
0
100
AcDbLine
 10
238.741701250862
 20
81.49542696297784
 30
0.0
 11
237.073305250862
 21
81.49542696297784
 31
0.0
  0
LINE
  5
974
330
2
100
AcDbEntity
  8
0
100
AcDbLine
 10
238.741701250862
 20
80.49932596297788
 30
0.0
 11
238.741701250862
 21
81.29620496297787
 31
0.0
  0
LINE
  5
975
330
2
100
AcDbEntity
  8
0
100
AcDbLine
 10
238.741701250862
 20
81.49542696297784
 30
0.0
 11
238.741701250862
 21
80.10088496297782
 31
0.0
  0
LINE
  5
976
330
2
100
AcDbEntity
  8
0
100
AcDbLine
 10
237.073305250862
 20
82.54132596297791
 30
0.0
 11
237.073305250862
 21
81.49542696297784
 31
0.0
  0
LINE
  5
977
330
2
100
AcDbEntity
  8
0
100
AcDbLine
 10
238.741701250862
 20
77.75035596297789
 30
0.0
 11
238.741701250862
 21
76.98809496297781
 31
0.0
  0
LINE
  5
978
330
2
100
AcDbEntity
  8
0
100
AcDbLine
 10
238.741701250862
 20
77.75035596297789
 30
0.0
 11
237.833207250862
 21
76.98809496297781
 31
0.0
  0
ARC
  5
979
330
2
100
AcDbEntity
  8
0
100
AcDbCircle
 10
236.749513250862
 20
80.10088496297782
 30
0.0
 40
1.992186999999999
100
AcDbArc
 50
270.0002139999998
 51
0.0001090000031536
  0
LINE
  5
97A
330
2
100
AcDbEntity
  8
0
100
AcDbLine
 10
238.741701250862
 20
76.98809496297781
 30
0.0
 11
239.663103250862
 21
76.98809496297781
 31
0.0
  0
LINE
  5
97B
330
2
100
AcDbEntity
  8
0
100
AcDbLine
 10
237.073305250862
 20
82.54132596297791
 30
0.0
 11
239.663103250862
 21
82.54132596297791
 31
0.0
  0
LINE
  5
97C
330
2
100
AcDbEntity
  8
0
100
AcDbLine
 10
234.3589032508619
 20
78.87901396297786
 30
0.0
 11
235.090211250862
 21
78.10870496297787
 31
0.0
  0
LINE
  5
97D
330
2
100
AcDbEntity
  8
0
100
AcDbLine
 10
236.749513250862
 20
78.10870496297787
 30
0.0
 11
235.090211250862
 21
78.10870496297787
 31
0.0
  0
LINE
  5
97E
330
2
100
AcDbEntity
  8
0
100
AcDbLine
 10
234.517915250862
 20
76.98809496297781
 30
0.0
 11
237.833207250862
 21
76.98809496297781
 31
0.0
  0
LINE
  5
97F
330
2
100
AcDbEntity
  8
0
100
AcDbLine
 10
234.3589032508619
 20
84.38806996297785
 30
0.0
 11
234.3589032508619
 21
78.87901396297786
 31
0.0
  0
LINE
  5
980
330
2
100
AcDbEntity
  8
0
100
AcDbLine
 10
245.415513250862
 20
85.38018896297785
 30
0.0
 11
245.415513250862
 21
78.03399796297788
 31
0.0
  0
LINE
  5
981
330
2
100
AcDbEntity
  8
0
100
AcDbLine
 10
246.610902250862
 20
85.38018896297785
 30
0.0
 11
246.610902250862
 21
78.03399796297788
 31
0.0
  0
LINE
  5
982
330
2
100
AcDbEntity
  8
CENTER
100
AcDbLine
 10
208.194414250862
 20
144.9880949629778
 30
0.0
 11
219.881792250862
 21
144.9880949629778
 31
0.0
  0
CIRCLE
  5
983
330
2
100
AcDbEntity
  8
0
100
AcDbCircle
 10
214.038103250862
 20
144.9880949629778
 30
0.0
 40
3.25
  0
ARC
  5
984
330
2
100
AcDbEntity
  8
0
100
AcDbCircle
 10
214.038103250862
 20
144.9880949629778
 30
0.0
 40
8.0
100
AcDbArc
 50
262.0304030000006
 51
0.0
  0
ARC
  5
985
330
2
100
AcDbEntity
  8
0
100
AcDbCircle
 10
214.038103250862
 20
144.9880949629778
 30
0.0
 40
8.0
100
AcDbArc
 50
90.0
 51
172.0305020000024
  0
LINE
  5
986
330
2
100
AcDbEntity
  8
CENTER
100
AcDbLine
 10
214.038103250862
 20
139.1444059629777
 30
0.0
 11
214.038103250862
 21
150.8317839629778
 31
0.0
  0
ARC
  5
987
330
2
100
AcDbEntity
  8
0
100
AcDbCircle
 10
212.374315250862
 20
133.1039939629778
 30
0.0
 40
4.0
100
AcDbArc
 50
82.03024299999984
 51
172.0303039999978
  0
LINE
  5
988
330
2
100
AcDbEntity
  8
0
100
AcDbLine
 10
208.4129802508619
 20
133.6585899629778
 30
0.0
 11
205.9547742508619
 21
116.0997749629778
 31
0.0
  0
LINE
  5
989
330
2
100
AcDbEntity
  8
0
100
AcDbLine
 10
206.115373250862
 20
146.0972489629779
 30
0.0
 11
203.538103250862
 21
127.6880919629778
 31
0.0
  0
ARC
  5
98A
330
2
100
AcDbEntity
  8
0
100
AcDbCircle
 10
226.038103250862
 20
144.9880949629778
 30
0.0
 40
4.0
100
AcDbArc
 50
90.0
 51
180.0
  0
LINE
  5
98B
330
2
100
AcDbEntity
  8
0
100
AcDbLine
 10
250.538103250862
 20
112.4880949629778
 30
0.0
 11
250.538103250862
 21
117.4880949629778
 31
0.0
  0
LINE
  5
98C
330
2
100
AcDbEntity
  8
0
100
AcDbLine
 10
131.038106250862
 20
271.8525359109897
 30
0.0
 11
203.092943250862
 21
271.8525359109897
 31
0.0
  0
LINE
  5
98D
330
2
100
AcDbEntity
  8
0
100
AcDbLine
 10
202.024499250862
 20
256.8525359109897
 30
0.0
 11
131.038106250862
 21
256.8525359109897
 31
0.0
  0
LINE
  5
98E
330
2
100
AcDbEntity
  8
0
100
AcDbLine
 10
131.038106250862
 20
317.8525209109898
 30
0.0
 11
206.957796250862
 21
317.8525209109898
 31
0.0
  0
LINE
  5
98F
330
2
100
AcDbEntity
  8
0
100
AcDbLine
 10
201.406495250862
 20
332.8525209109898
 30
0.0
 11
131.038106250862
 21
332.8525209109898
 31
0.0
  0
LINE
  5
990
330
2
100
AcDbEntity
  8
0
100
AcDbLine
 10
131.038106250862
 20
256.8525359109897
 30
0.0
 11
131.038106250862
 21
332.8525209109898
 31
0.0
  0
LINE
  5
991
330
2
100
AcDbEntity
  8
0
100
AcDbLine
 10
128.538106250862
 20
315.8525209109898
 30
0.0
 11
128.538106250862
 21
273.8525359109897
 31
0.0
  0
LINE
  5
992
330
2
100
AcDbEntity
  8
CENTER
100
AcDbLine
 10
113.538106250862
 20
324.8525209109898
 30
0.0
 11
113.538106250862
 21
264.8525359109898
 31
0.0
  0
LINE
  5
993
330
2
100
AcDbEntity
  8
0
100
AcDbLine
 10
126.915792250862
 20
271.8885159109897
 30
0.0
 11
131.038106250862
 21
271.8525359109897
 31
0.0
  0
CIRCLE
  5
994
330
2
100
AcDbEntity
  8
0
100
AcDbCircle
 10
125.538106250862
 20
274.8525359109897
 30
0.0
 40
2.75
  0
ARC
  5
995
330
2
100
AcDbEntity
  8
0
100
AcDbCircle
 10
126.538106250862
 20
273.8525359109897
 30
0.0
 40
2.0
100
AcDbArc
 50
270.0
 51
0.0
  0
ARC
  5
996
330
2
100
AcDbEntity
  8
0
100
AcDbCircle
 10
127.538209250862
 20
279.3525359109898
 30
0.0
 40
1.0
100
AcDbArc
 50
270.0
 51
0.0
  0
ARC
  5
997
330
2
100
AcDbEntity
  8
0
100
AcDbCircle
 10
123.788106250862
 20
273.1025359109898
 30
0.0
 40
1.35
100
AcDbArc
 50
0.0
 51
90.0
  0
ARC
  5
998
330
2
100
AcDbEntity
  8
0
100
AcDbCircle
 10
123.788106250862
 20
276.6025359109897
 30
0.0
 40
1.35
100
AcDbArc
 50
270.0
 51
0.0
  0
ARC
  5
999
330
2
100
AcDbEntity
  8
0
100
AcDbCircle
 10
125.538106250862
 20
274.8525359109897
 30
0.0
 40
3.5
100
AcDbArc
 50
90.0
 51
180.0
  0
LINE
  5
99A
330
2
100
AcDbEntity
  8
0
100
AcDbLine
 10
123.788106250862
 20
275.2525299109897
 30
0.0
 11
123.788106250862
 21
274.4525119109897
 31
0.0
  0
LINE
  5
99B
330
2
100
AcDbEntity
  8
0
100
AcDbLine
 10
122.038106250862
 20
272.8525359109898
 30
0.0
 11
122.038106250862
 21
274.8525359109897
 31
0.0
  0
ARC
  5
99C
330
2
100
AcDbEntity
  8
0
100
AcDbCircle
 10
121.038106250862
 20
272.8525359109898
 30
0.0
 40
1.0
100
AcDbArc
 50
270.0
 51
0.0
  0
ARC
  5
99D
330
2
100
AcDbEntity
  8
0
100
AcDbCircle
 10
127.288106250862
 20
273.1025359109898
 30
0.0
 40
1.35
100
AcDbArc
 50
90.0
 51
180.0
  0
LINE
  5
99E
330
2
100
AcDbEntity
  8
0
100
AcDbLine
 10
127.288106250862
 20
275.2525299109897
 30
0.0
 11
127.288106250862
 21
274.4525119109897
 31
0.0
  0
LINE
  5
99F
330
2
100
AcDbEntity
  8
0
100
AcDbLine
 10
125.138086250862
 20
273.1025359109898
 30
0.0
 11
125.938100250862
 21
273.1025359109898
 31
0.0
  0
ARC
  5
9A0
330
2
100
AcDbEntity
  8
0
100
AcDbCircle
 10
127.288106250862
 20
276.6025359109897
 30
0.0
 40
1.35
100
AcDbArc
 50
180.0
 51
270.0
  0
LINE
  5
9A1
330
2
100
AcDbEntity
  8
0
100
AcDbLine
 10
125.138086250862
 20
276.6025359109897
 30
0.0
 11
125.938100250862
 21
276.6025359109897
 31
0.0
  0
LINE
  5
9A2
330
2
100
AcDbEntity
  8
0
100
AcDbLine
 10
127.538209250862
 20
278.3525359109897
 30
0.0
 11
125.538106250862
 21
278.3525359109897
 31
0.0
  0
LINE
  5
9A3
330
2
100
AcDbEntity
  8
0
100
AcDbLine
 10
126.915792250862
 20
317.8165409109897
 30
0.0
 11
131.038106250862
 21
317.8525209109898
 31
0.0
  0
CIRCLE
  5
9A4
330
2
100
AcDbEntity
  8
0
100
AcDbCircle
 10
125.538106250862
 20
314.8525209109898
 30
0.0
 40
2.75
  0
ARC
  5
9A5
330
2
100
AcDbEntity
  8
0
100
AcDbCircle
 10
127.538209250862
 20
310.3525209109898
 30
0.0
 40
1.0
100
AcDbArc
 50
0.0
 51
90.0
  0
ARC
  5
9A6
330
2
100
AcDbEntity
  8
0
100
AcDbCircle
 10
126.538106250862
 20
315.8525209109898
 30
0.0
 40
2.0
100
AcDbArc
 50
0.0
 51
90.0
  0
ARC
  5
9A7
330
2
100
AcDbEntity
  8
0
100
AcDbCircle
 10
123.788106250862
 20
313.1025209109898
 30
0.0
 40
1.35
100
AcDbArc
 50
0.0
 51
90.0
  0
ARC
  5
9A8
330
2
100
AcDbEntity
  8
0
100
AcDbCircle
 10
123.788106250862
 20
316.6025209109898
 30
0.0
 40
1.35
100
AcDbArc
 50
270.0
 51
0.0
  0
ARC
  5
9A9
330
2
100
AcDbEntity
  8
0
100
AcDbCircle
 10
125.538106250862
 20
314.8525209109898
 30
0.0
 40
3.5
100
AcDbArc
 50
180.0
 51
270.0
  0
LINE
  5
9AA
330
2
100
AcDbEntity
  8
0
100
AcDbLine
 10
123.788106250862
 20
315.2525149109899
 30
0.0
 11
123.788106250862
 21
314.4524969109898
 31
0.0
  0
ARC
  5
9AB
330
2
100
AcDbEntity
  8
0
100
AcDbCircle
 10
121.038106250862
 20
316.8525209109898
 30
0.0
 40
1.0
100
AcDbArc
 50
0.0
 51
90.0
  0
LINE
  5
9AC
330
2
100
AcDbEntity
  8
0
100
AcDbLine
 10
122.038106250862
 20
316.8525209109898
 30
0.0
 11
122.038106250862
 21
314.8525209109898
 31
0.0
  0
LINE
  5
9AD
330
2
100
AcDbEntity
  8
0
100
AcDbLine
 10
127.288106250862
 20
315.2525149109899
 30
0.0
 11
127.288106250862
 21
314.4524969109898
 31
0.0
  0
ARC
  5
9AE
330
2
100
AcDbEntity
  8
0
100
AcDbCircle
 10
127.288106250862
 20
313.1025209109898
 30
0.0
 40
1.35
100
AcDbArc
 50
90.0
 51
180.0
  0
LINE
  5
9AF
330
2
100
AcDbEntity
  8
0
100
AcDbLine
 10
125.138086250862
 20
313.1025209109898
 30
0.0
 11
125.938100250862
 21
313.1025209109898
 31
0.0
  0
LINE
  5
9B0
330
2
100
AcDbEntity
  8
0
100
AcDbLine
 10
127.538209250862
 20
311.3525209109898
 30
0.0
 11
125.538106250862
 21
311.3525209109898
 31
0.0
  0
ARC
  5
9B1
330
2
100
AcDbEntity
  8
0
100
AcDbCircle
 10
127.288106250862
 20
316.6025209109898
 30
0.0
 40
1.35
100
AcDbArc
 50
180.0
 51
270.0
  0
LINE
  5
9B2
330
2
100
AcDbEntity
  8
0
100
AcDbLine
 10
125.138086250862
 20
316.6025209109898
 30
0.0
 11
125.938100250862
 21
316.6025209109898
 31
0.0
  0
ARC
  5
9B3
330
2
100
AcDbEntity
  8
0
100
AcDbCircle
 10
129.538106250862
 20
289.8525359109898
 30
0.0
 40
1.0
100
AcDbArc
 50
270.0
 51
0.0
  0
ARC
  5
9B4
330
2
100
AcDbEntity
  8
0
100
AcDbCircle
 10
129.538106250862
 20
299.8525359109896
 30
0.0
 40
1.0
100
AcDbArc
 50
0.0
 51
90.0
  0
ARC
  5
9B5
330
2
100
AcDbEntity
  8
0
100
AcDbCircle
 10
129.038106250862
 20
288.3525359109897
 30
0.0
 40
0.5
100
AcDbArc
 50
90.0
 51
180.0
  0
LINE
  5
9B6
330
2
100
AcDbEntity
  8
0
100
AcDbLine
 10
129.038106250862
 20
288.8525359109897
 30
0.0
 11
129.538106250862
 21
288.8525359109897
 31
0.0
  0
ARC
  5
9B7
330
2
100
AcDbEntity
  8
0
100
AcDbCircle
 10
129.038106250862
 20
301.3525359109896
 30
0.0
 40
0.5
100
AcDbArc
 50
180.0
 51
270.0
  0
LINE
  5
9B8
330
2
100
AcDbEntity
  8
0
100
AcDbLine
 10
129.038106250862
 20
300.8525359109896
 30
0.0
 11
129.538106250862
 21
300.8525359109896
 31
0.0
  0
LINE
  5
9B9
330
2
100
AcDbEntity
  8
0
100
AcDbLine
 10
130.538106250862
 20
299.8525359109896
 30
0.0
 11
130.538106250862
 21
289.8525359109898
 31
0.0
  0
LINE
  5
9BA
330
2
100
AcDbEntity
  8
0
100
AcDbLine
 10
207.812715250862
 20
265.0337799109897
 30
0.0
 11
207.812715250862
 21
315.8527959109899
 31
0.0
  0
LINE
  5
9BB
330
2
100
AcDbEntity
  8
0
100
AcDbLine
 10
202.490671250862
 20
294.8525359109897
 30
0.0
 11
203.538103250862
 21
254.8525359109897
 31
0.0
  0
LINE
  5
9BC
330
2
100
AcDbEntity
  8
0
100
AcDbLine
 10
231.038103250862
 20
264.8525359109898
 30
0.0
 11
231.038103250862
 21
323.8874329109896
 31
0.0
  0
LINE
  5
9BD
330
2
100
AcDbEntity
  8
CENTER
100
AcDbLine
 10
246.038103250862
 20
336.8525359109898
 30
0.0
 11
246.038103250862
 21
223.8525359109896
 31
0.0
  0
ARC
  5
9BE
330
2
100
AcDbEntity
  8
0
100
AcDbCircle
 10
204.328966250862
 20
262.8525359109898
 30
0.0
 40
1.0
100
AcDbArc
 50
90.0
 51
181.5000000000027
  0
ARC
  5
9BF
330
2
100
AcDbEntity
  8
0
100
AcDbCircle
 10
202.024499250862
 20
255.3525359109897
 30
0.0
 40
1.5
100
AcDbArc
 50
1.499998999997348
 51
90.0
  0
LINE
  5
9C0
330
2
100
AcDbEntity
  8
0
100
AcDbLine
 10
206.115404250862
 20
254.8525359109897
 30
0.0
 11
206.115404250862
 21
262.5422179109898
 31
0.0
  0
LINE
  5
9C1
330
2
100
AcDbEntity
  8
HIDS
  6
SEKKEI_H
100
AcDbLine
 10
210.788103250862
 20
263.8525359109897
 30
0.0
 11
210.788103250862
 21
254.8525359109897
 31
0.0
  0
LINE
  5
9C2
330
2
100
AcDbEntity
  8
CENTER
100
AcDbLine
 10
214.038103250862
 20
251.3525359109897
 30
0.0
 11
214.0381032508619
 21
267.3525359109897
 31
0.0
  0
LINE
  5
9C3
330
2
100
AcDbEntity
  8
0
100
AcDbLine
 10
238.538103250862
 20
230.8525359109897
 30
0.0
 11
238.538103250862
 21
254.8525359109897
 31
0.0
  0
ARC
  5
9C4
330
2
100
AcDbEntity
  8
0
100
AcDbCircle
 10
230.038103250862
 20
264.8525359109898
 30
0.0
 40
1.0
100
AcDbArc
 50
270.0
 51
0.0
  0
LINE
  5
9C5
330
2
100
AcDbEntity
  8
HIDS
  6
SEKKEI_H
100
AcDbLine
 10
217.288103250862
 20
263.8525359109897
 30
0.0
 11
217.288103250862
 21
254.8525359109897
 31
0.0
  0
LINE
  5
9C6
330
2
100
AcDbEntity
  8
0
100
AcDbLine
 10
203.328691250862
 20
317.8552679109898
 30
0.0
 11
203.487108250862
 21
323.9048889109897
 31
0.0
  0
ARC
  5
9C7
330
2
100
AcDbEntity
  8
0
100
AcDbCircle
 10
201.406495250862
 20
330.8525209109898
 30
0.0
 40
2.0
100
AcDbArc
 50
1.500000000002716
 51
90.0
  0
ARC
  5
9C8
330
2
100
AcDbEntity
  8
0
100
AcDbCircle
 10
205.486421250862
 20
327.8525209109898
 30
0.0
 40
2.0
100
AcDbArc
 50
181.5000000000027
 51
270.0
  0
ARC
  5
9C9
330
2
100
AcDbEntity
  8
0
100
AcDbCircle
 10
205.486421250862
 20
323.8525209109898
 30
0.0
 40
2.0
100
AcDbArc
 50
90.0
 51
178.4999999999973
  0
LINE
  5
9CA
330
2
100
AcDbEntity
  8
0
100
AcDbLine
 10
203.405809250862
 20
330.9048889109897
 30
0.0
 11
203.487108250862
 21
327.8001829109898
 31
0.0
  0
LINE
  5
9CE
330
2
100
AcDbEntity
  8
0
100
AcDbLine
 10
286.038103250862
 20
116.3494919629778
 30
0.0
 11
286.038103250862
 21
87.62695796297782
 31
0.0
  0
LINE
  5
9CF
330
2
100
AcDbEntity
  8
0
100
AcDbLine
 10
288.538103250862
 20
127.6880919629778
 30
0.0
 11
288.538103250862
 21
76.28810596297785
 31
0.0
  0
LINE
  5
9D1
330
2
100
AcDbEntity
  8
0
100
AcDbLine
 10
285.960801250862
 20
57.87897596297785
 30
0.0
 11
288.538103250862
 21
76.28810596297785
 31
0.0
  0
ARC
  5
9D2
330
2
100
AcDbEntity
  8
0
100
AcDbCircle
 10
278.038103250862
 20
58.98809596297792
 30
0.0
 40
8.0
100
AcDbArc
 50
270.0
 51
352.0303039999978
  0
ARC
  5
9D3
330
2
100
AcDbEntity
  8
0
100
AcDbCircle
 10
278.038103250862
 20
58.98809596297792
 30
0.0
 40
8.0
100
AcDbArc
 50
82.03035000000038
 51
180.0
  0
ARC
  5
9D4
330
2
100
AcDbEntity
  8
0
100
AcDbCircle
 10
279.701906250862
 20
70.87219496297791
 30
0.0
 40
4.0
100
AcDbArc
 50
262.0302429999998
 51
352.030298999998
  0
ARC
  5
9D5
330
2
100
AcDbEntity
  8
0
100
AcDbCircle
 10
266.038103250862
 20
58.98809596297792
 30
0.0
 40
4.0
100
AcDbArc
 50
270.0
 51
0.0
  0
LINE
  5
9D6
330
2
100
AcDbEntity
  8
CENTER
100
AcDbLine
 10
272.194414250862
 20
58.98809596297792
 30
0.0
 11
283.881792250862
 21
58.98809596297792
 31
0.0
  0
LINE
  5
9D7
330
2
100
AcDbEntity
  8
CENTER
100
AcDbLine
 10
278.038103250862
 20
53.14440696297788
 30
0.0
 11
278.038103250862
 21
64.83178496297796
 31
0.0
  0
CIRCLE
  5
9D8
330
2
100
AcDbEntity
  8
0
100
AcDbCircle
 10
278.038103250862
 20
58.98809596297792
 30
0.0
 40
3.25
  0
LINE
  5
9D9
330
2
100
AcDbEntity
  8
0
100
AcDbLine
 10
252.413103250862
 20
86.55059896297791
 30
0.0
 11
252.413103250862
 21
85.38018896297785
 31
0.0
  0
LINE
  5
9DA
330
2
100
AcDbEntity
  8
0
100
AcDbLine
 10
252.413103250862
 20
85.38018896297785
 30
0.0
 11
252.886201250862
 21
85.38018896297785
 31
0.0
  0
LINE
  5
9DB
330
2
100
AcDbEntity
  8
0
100
AcDbLine
 10
252.413103250862
 20
86.55059896297791
 30
0.0
 11
256.2356122508619
 21
86.55059896297791
 31
0.0
  0
LINE
  5
9DC
330
2
100
AcDbEntity
  8
0
100
AcDbLine
 10
253.981904250862
 20
85.38018896297785
 30
0.0
 11
256.956804250862
 21
85.37824396297787
 31
0.0
  0
LINE
  5
9DD
330
2
100
AcDbEntity
  8
0
100
AcDbLine
 10
258.788103250862
 20
77.98419696297788
 30
0.0
 11
258.788103250862
 21
76.98809496297781
 31
0.0
  0
LINE
  5
9DE
330
2
100
AcDbEntity
  8
0
100
AcDbLine
 10
257.318910250862
 20
77.98419696297788
 30
0.0
 11
257.517412250862
 21
77.98419696297788
 31
0.0
  0
LINE
  5
9DF
330
2
100
AcDbEntity
  8
0
100
AcDbLine
 10
257.318910250862
 20
77.98419696297788
 30
0.0
 11
257.318910250862
 21
76.98809496297781
 31
0.0
  0
LINE
  5
9E0
330
2
100
AcDbEntity
  8
0
100
AcDbLine
 10
258.519807250862
 20
77.98419696297788
 30
0.0
 11
258.788103250862
 21
77.98419696297788
 31
0.0
  0
LINE
  5
9E1
330
2
100
AcDbEntity
  8
0
100
AcDbLine
 10
257.318910250862
 20
76.98809496297781
 30
0.0
 11
258.788103250862
 21
76.98809496297781
 31
0.0
  0
LINE
  5
9E2
330
2
100
AcDbEntity
  8
0
100
AcDbLine
 10
256.939912250862
 20
81.54471696297788
 30
0.0
 11
258.519807250862
 21
77.98419696297788
 31
0.0
  0
LINE
  5
9E3
330
2
100
AcDbEntity
  8
0
100
AcDbLine
 10
256.022401250862
 20
81.45806596297791
 30
0.0
 11
257.517412250862
 21
77.98419696297788
 31
0.0
  0
LINE
  5
9E4
330
2
100
AcDbEntity
  8
0
100
AcDbLine
 10
252.413103250862
 20
77.98419696297788
 30
0.0
 11
252.886201250862
 21
77.98419696297788
 31
0.0
  0
LINE
  5
9E5
330
2
100
AcDbEntity
  8
0
100
AcDbLine
 10
253.981904250862
 20
77.98419696297788
 30
0.0
 11
254.417711250862
 21
77.98419696297788
 31
0.0
  0
LINE
  5
9E6
330
2
100
AcDbEntity
  8
0
100
AcDbLine
 10
254.417711250862
 20
76.98809496297781
 30
0.0
 11
252.413103250862
 21
76.98809496297781
 31
0.0
  0
LINE
  5
9E7
330
2
100
AcDbEntity
  8
0
100
AcDbLine
 10
254.417711250862
 20
77.98419696297788
 30
0.0
 11
254.417711250862
 21
76.98809496297781
 31
0.0
  0
LINE
  5
9E8
330
2
100
AcDbEntity
  8
0
100
AcDbLine
 10
252.413103250862
 20
77.98419696297788
 30
0.0
 11
252.413103250862
 21
76.98809496297781
 31
0.0
  0
LINE
  5
9E9
330
2
100
AcDbEntity
  8
0
100
AcDbLine
 10
253.981904250862
 20
81.45806596297791
 30
0.0
 11
253.981904250862
 21
77.98419696297788
 31
0.0
  0
LINE
  5
9EA
330
2
100
AcDbEntity
  8
0
100
AcDbLine
 10
253.981904250862
 20
82.45393496297788
 30
0.0
 11
256.436601250862
 21
82.45393496297788
 31
0.0
  0
LINE
  5
9EB
330
2
100
AcDbEntity
  8
0
100
AcDbLine
 10
253.981904250862
 20
81.45806596297791
 30
0.0
 11
256.022401250862
 21
81.45806596297791
 31
0.0
  0
LINE
  5
9EC
330
2
100
AcDbEntity
  8
0
100
AcDbLine
 10
252.886201250862
 20
85.38018896297785
 30
0.0
 11
252.886201250862
 21
77.98419696297788
 31
0.0
  0
ARC
  5
9ED
330
2
100
AcDbEntity
  8
0
100
AcDbCircle
 10
256.2356122508619
 20
83.99810896297788
 30
0.0
 40
2.55249
100
AcDbArc
 50
286.0181270000003
 51
90.00350999999964
  0
ARC
  5
9EE
330
2
100
AcDbEntity
  8
0
100
AcDbCircle
 10
256.2356122508619
 20
83.99810896297788
 30
0.0
 40
1.557193
100
AcDbArc
 50
277.4147260000004
 51
62.41184999999767
  0
LINE
  5
9EF
330
2
100
AcDbEntity
  8
0
100
AcDbLine
 10
253.981904250862
 20
85.38018896297785
 30
0.0
 11
253.981904250862
 21
82.45393496297788
 31
0.0
  0
LINE
  5
9F0
330
2
100
AcDbEntity
  8
0
100
AcDbLine
 10
286.0405132508619
 20
87.29782996297785
 30
0.0
 11
283.663209250862
 21
70.31759596297786
 31
0.0
  0
LINE
  5
9F3
330
2
100
AcDbEntity
  8
0
100
AcDbLine
 10
285.960801250862
 20
146.0972569629779
 30
0.0
 11
288.538103250862
 21
127.6880919629778
 31
0.0
  0
ARC
  5
9F4
330
2
100
AcDbEntity
  8
0
100
AcDbCircle
 10
278.038103250862
 20
144.9880949629778
 30
0.0
 40
8.0
100
AcDbArc
 50
7.969647000001804
 51
90.0
  0
ARC
  5
9F5
330
2
100
AcDbEntity
  8
0
100
AcDbCircle
 10
278.038103250862
 20
144.9880949629778
 30
0.0
 40
8.0
100
AcDbArc
 50
180.0
 51
277.9695129999993
  0
ARC
  5
9F6
330
2
100
AcDbEntity
  8
0
100
AcDbCircle
 10
266.038103250862
 20
144.9880949629778
 30
0.0
 40
4.0
100
AcDbArc
 50
0.0
 51
90.0
  0
LINE
  5
9F7
330
2
100
AcDbEntity
  8
0
100
AcDbLine
 10
255.538103250862
 20
117.4880949629778
 30
0.0
 11
255.538103250862
 21
112.4880949629778
 31
0.0
  0
LINE
  5
9F8
330
2
100
AcDbEntity
  8
CENTER
100
AcDbLine
 10
272.194414250862
 20
144.9880949629778
 30
0.0
 11
283.881792250862
 21
144.9880949629778
 31
0.0
  0
LINE
  5
9F9
330
2
100
AcDbEntity
  8
CENTER
100
AcDbLine
 10
278.038103250862
 20
139.1444059629777
 30
0.0
 11
278.038103250862
 21
150.8317839629778
 31
0.0
  0
LINE
  5
9FA
330
2
100
AcDbEntity
  8
0
100
AcDbLine
 10
283.663209250862
 20
133.6585969629778
 30
0.0
 11
286.062410250862
 21
116.5215279629778
 31
0.0
  0
CIRCLE
  5
9FB
330
2
100
AcDbEntity
  8
0
100
AcDbCircle
 10
278.038103250862
 20
144.9880949629778
 30
0.0
 40
3.25
  0
ARC
  5
9FC
330
2
100
AcDbEntity
  8
0
100
AcDbCircle
 10
279.701906250862
 20
133.1039939629778
 30
0.0
 40
4.0
100
AcDbArc
 50
7.969701000001917
 51
97.96975700000015
  0
LINE
  5
9FE
330
2
100
AcDbEntity
  8
0
100
AcDbLine
 10
370.5462726134487
 20
107.4880949629778
 30
0.0
 11
370.5462726134487
 21
122.4880949629778
 31
0.0
  0
LINE
  5
A00
330
2
100
AcDbEntity
  8
0
100
AcDbLine
 10
392.0462726134487
 20
117.4880949629778
 30
0.0
 11
370.5462726134487
 21
117.4880949629778
 31
0.0
  0
LINE
  5
A01
330
2
100
AcDbEntity
  8
0
100
AcDbLine
 10
392.0462726134487
 20
112.4880949629778
 30
0.0
 11
370.5462726134487
 21
112.4880949629778
 31
0.0
  0
LINE
  5
A02
330
2
100
AcDbEntity
  8
0
100
AcDbLine
 10
392.0462726134487
 20
117.4880949629778
 30
0.0
 11
392.0462726134487
 21
112.4880949629778
 31
0.0
  0
LINE
  5
A03
330
2
100
AcDbEntity
  8
0
100
AcDbLine
 10
261.038103250862
 20
264.8525359109898
 30
0.0
 11
261.038103250862
 21
323.8874329109896
 31
0.0
  0
LINE
  5
A04
330
2
100
AcDbEntity
  8
0
100
AcDbLine
 10
286.729905250862
 20
323.9048889109897
 30
0.0
 11
288.538103250862
 21
254.8525359109897
 31
0.0
  0
LINE
  5
A05
330
2
100
AcDbEntity
  8
0
100
AcDbLine
 10
253.109102250862
 20
252.3525359109898
 30
0.0
 11
253.109102250862
 21
230.8525359109897
 31
0.0
  0
LINE
  5
A06
330
2
100
AcDbEntity
  8
0
100
AcDbLine
 10
255.538103250862
 20
252.3525359109898
 30
0.0
 11
255.538103250862
 21
230.8525359109897
 31
0.0
  0
LINE
  5
A07
330
2
100
AcDbEntity
  8
0
100
AcDbLine
 10
253.538103250862
 20
254.8525359109897
 30
0.0
 11
253.538103250862
 21
252.3525359109898
 31
0.0
  0
LINE
  5
A08
330
2
100
AcDbEntity
  8
0
100
AcDbLine
 10
253.109102250862
 20
252.3525359109898
 30
0.0
 11
255.538103250862
 21
252.3525359109898
 31
0.0
  0
ARC
  5
A09
330
2
100
AcDbEntity
  8
0
100
AcDbCircle
 10
262.038103250862
 20
264.8525359109898
 30
0.0
 40
1.0
100
AcDbArc
 50
180.0
 51
270.0
  0
LINE
  5
A0A
330
2
100
AcDbEntity
  8
0
100
AcDbLine
 10
285.960801250862
 20
254.8525359109897
 30
0.0
 11
285.960801250862
 21
262.5422179109898
 31
0.0
  0
LINE
  5
A0B
330
2
100
AcDbEntity
  8
HIDS
  6
SEKKEI_H
100
AcDbLine
 10
274.788103250862
 20
263.8525359109897
 30
0.0
 11
274.788103250862
 21
254.8525359109897
 31
0.0
  0
LINE
  5
A0C
330
2
100
AcDbEntity
  8
HIDS
  6
SEKKEI_H
100
AcDbLine
 10
281.288103250862
 20
263.8525359109897
 30
0.0
 11
281.288103250862
 21
254.8525359109897
 31
0.0
  0
LINE
  5
A0D
330
2
100
AcDbEntity
  8
CENTER
100
AcDbLine
 10
278.038103250862
 20
251.3525359109896
 30
0.0
 11
278.038103250862
 21
267.3525359109897
 31
0.0
  0
ARC
  5
A0E
330
2
100
AcDbEntity
  8
0
100
AcDbCircle
 10
287.328279250862
 20
262.8525359109898
 30
0.0
 40
1.0
100
AcDbArc
 50
1.499997999998513
 51
90.0
  0
ARC
  5
A0F
330
2
100
AcDbEntity
  8
0
100
AcDbCircle
 10
284.730592250862
 20
323.8525209109898
 30
0.0
 40
2.0
100
AcDbArc
 50
1.500000000002716
 51
90.0
  0
LINE
  5
A10
330
2
100
AcDbEntity
  8
0
100
AcDbLine
 10
463.5811846134487
 20
147.0223969629778
 30
0.0
 11
405.5113906134486
 21
148.0357939629779
 31
0.0
  0
LINE
  5
A11
330
2
100
AcDbEntity
  8
0
100
AcDbLine
 10
407.0472796134486
 20
127.6880919629778
 30
0.0
 11
463.5775836134487
 21
127.6880919629778
 31
0.0
  0
ARC
  5
A12
330
2
100
AcDbEntity
  8
HIDS
100
AcDbCircle
 10
434.5462726134487
 20
92.68809596297785
 30
0.0
 40
38.0
100
AcDbArc
 50
309.3567010000031
 51
324.6655009999977
  0
LINE
  5
A13
330
2
100
AcDbEntity
  8
0
100
AcDbLine
 10
463.5811846134487
 20
56.93635596297781
 30
0.0
 11
405.5113906134486
 21
55.92253596297791
 31
0.0
  0
LINE
  5
A14
330
2
100
AcDbEntity
  8
0
100
AcDbLine
 10
406.5462726134486
 20
76.28812496297792
 30
0.0
 11
464.1087726134486
 21
76.28812496297792
 31
0.0
  0
ARC
  5
A16
330
2
100
AcDbEntity
  8
HIDS
100
AcDbCircle
 10
434.5462726134487
 20
92.68809596297785
 30
0.0
 40
38.0
100
AcDbArc
 50
22.91953999999799
 51
50.64329899999686
  0
LINE
  5
A17
330
2
100
AcDbEntity
  8
0
100
AcDbLine
 10
403.5462726134487
 20
152.4499939629778
 30
0.0
 11
403.5462726134487
 21
91.32549796297793
 31
0.0
  0
LINE
  5
A18
330
2
100
AcDbEntity
  8
0
100
AcDbLine
 10
399.5462726134487
 20
95.9880949629778
 30
0.0
 11
399.5462726134487
 21
133.9880949629778
 31
0.0
  0
LINE
  5
A19
330
2
100
AcDbEntity
  8
CENTER
100
AcDbLine
 10
434.5462726134487
 20
47.688125962978
 30
0.0
 11
434.5462726134487
 21
158.6881529629778
 31
0.0
  0
LINE
  5
A1A
330
2
100
AcDbEntity
  8
0
100
AcDbLine
 10
397.5462726134487
 20
123.4880949629778
 30
0.0
 11
397.5462726134487
 21
106.4880949629778
 31
0.0
  0
LWPOLYLINE
  5
A1B
330
2
100
AcDbEntity
  8
HOJO
100
AcDbPolyline
 90
       14
 70
     0
 43
0.0
 10
394.5462726134487
 20
138.1977969629779
 10
400.4368976134487
 20
136.9849979629778
 10
405.6868976134486
 20
133.7349979629778
 10
406.1868976134487
 20
128.6099979629778
 10
407.9368976134487
 20
126.7349979629779
 10
408.3118976134486
 20
123.1099979629779
 10
408.6868976134486
 20
117.4849979629779
 10
409.4368976134487
 20
112.2349979629779
 10
407.4368976134486
 20
105.8599939629779
 10
408.0618976134487
 20
99.35999396297791
 10
406.5618976134486
 20
93.6099939629779
 10
402.4368976134486
 20
90.48500596297788
 10
397.5618976134487
 20
89.86000596297788
 10
394.5462726134487
 20
88.63141696297782
  0
ARC
  5
A1C
330
2
100
AcDbEntity
  8
HIDS
100
AcDbCircle
 10
434.5462726134487
 20
92.68809596297785
 30
0.0
 40
38.0
100
AcDbArc
 50
129.3567049999994
 51
230.6432950000005
  0
LINE
  5
A1D
330
2
100
AcDbEntity
  8
0
100
AcDbLine
 10
413.5462726134487
 20
54.68812596297789
 30
0.0
 11
455.5462726134486
 21
54.68812596297789
 31
0.0
  0
LINE
  5
A1E
330
2
100
AcDbEntity
  8
0
100
AcDbLine
 10
403.5462726134487
 20
73.28814596297786
 30
0.0
 11
403.5462726134487
 21
52.48812596297785
 31
0.0
  0
LINE
  5
A1F
330
2
100
AcDbEntity
  8
0
100
AcDbLine
 10
394.5462726134487
 20
50.98812596297785
 30
0.0
 11
394.5462726134487
 21
107.4880949629778
 31
0.0
  0
LINE
  5
A20
330
2
100
AcDbEntity
  8
0
100
AcDbLine
 10
403.9434896134487
 20
52.47048596297782
 30
0.0
 11
404.2802816134487
 21
53.72761596297789
 31
0.0
  0
ARC
  5
A21
330
2
100
AcDbEntity
  8
0
100
AcDbCircle
 10
402.0462726134486
 20
52.48812596297785
 30
0.0
 40
1.5
100
AcDbArc
 50
270.0
 51
0.0
  0
ARC
  5
A22
330
2
100
AcDbEntity
  8
0
100
AcDbCircle
 10
402.0115746134487
 20
52.98812596297785
 30
0.0
 40
2.0
100
AcDbArc
 50
270.0
 51
345.0000920000023
  0
ARC
  5
A23
330
2
100
AcDbEntity
  8
0
100
AcDbCircle
 10
405.5462726134487
 20
53.9228559629779
 30
0.0
 40
2.0
100
AcDbArc
 50
91.00064099999967
 51
180.0
  0
ARC
  5
A24
330
2
100
AcDbEntity
  8
0
100
AcDbCircle
 10
407.1780786134486
 20
52.95119596297786
 30
0.0
 40
3.0
100
AcDbArc
 50
91.00048800000001
 51
165.0003969999997
  0
LINE
  5
A25
330
2
100
AcDbEntity
  8
HIDS
  6
SEKKEI_H
100
AcDbLine
 10
394.5462726134487
 20
62.23812596297785
 30
0.0
 11
403.5462726134487
 21
62.23812596297785
 31
0.0
  0
LINE
  5
A26
330
2
100
AcDbEntity
  8
HIDS
  6
SEKKEI_H
100
AcDbLine
 10
394.5462726134487
 20
55.73812596297784
 30
0.0
 11
403.5462726134487
 21
55.73812596297784
 31
0.0
  0
LINE
  5
A27
330
2
100
AcDbEntity
  8
0
100
AcDbLine
 10
402.0115746134487
 20
50.98812596297785
 30
0.0
 11
394.5462726134487
 21
50.98812596297785
 31
0.0
  0
LINE
  5
A28
330
2
100
AcDbEntity
  8
HIDS
100
AcDbLine
 10
411.5462726134486
 20
56.68812596297789
 30
0.0
 11
411.5462726134486
 21
60.9863959629779
 31
0.0
  0
ARC
  5
A29
330
2
100
AcDbEntity
  8
HIDS
100
AcDbCircle
 10
413.5462726134487
 20
56.68812596297789
 30
0.0
 40
2.0
100
AcDbArc
 50
180.0
 51
199.2167049999971
  0
ARC
  5
A2A
330
2
100
AcDbEntity
  8
HIDS
100
AcDbCircle
 10
408.5462726134487
 20
60.9863959629779
 30
0.0
 40
3.0
100
AcDbArc
 50
0.0
 51
50.64329899999686
  0
ARC
  5
A2B
330
2
100
AcDbEntity
  8
0
100
AcDbCircle
 10
413.5462726134487
 20
56.68812596297789
 30
0.0
 40
2.0
100
AcDbArc
 50
199.2167049999971
 51
270.0
  0
LINE
  5
A2C
330
2
100
AcDbEntity
  8
0
100
AcDbLine
 10
400.5462726134487
 20
94.98809496297781
 30
0.0
 11
401.5462726134487
 21
94.98809496297781
 31
0.0
  0
ARC
  5
A2D
330
2
100
AcDbEntity
  8
0
100
AcDbCircle
 10
406.5462726134486
 20
73.28814596297786
 30
0.0
 40
3.0
100
AcDbArc
 50
90.0
 51
180.0
  0
LINE
  5
A2E
330
2
100
AcDbEntity
  8
0
100
AcDbLine
 10
397.5462726134487
 20
106.4880949629778
 30
0.0
 11
399.5462726134487
 21
106.4880949629778
 31
0.0
  0
ARC
  5
A2F
330
2
100
AcDbEntity
  8
0
100
AcDbCircle
 10
400.5462726134487
 20
95.9880949629778
 30
0.0
 40
1.0
100
AcDbArc
 50
180.0
 51
270.0
  0
LINE
  5
A30
330
2
100
AcDbEntity
  8
HIDS
100
AcDbLine
 10
457.5462726134486
 20
56.83099596297791
 30
0.0
 11
457.5462726134486
 21
60.9863959629779
 31
0.0
  0
ARC
  5
A31
330
2
100
AcDbEntity
  8
HIDS
100
AcDbCircle
 10
460.5462726134486
 20
60.9863959629779
 30
0.0
 40
3.0
100
AcDbArc
 50
129.3567049999994
 51
180.0
  0
LINE
  5
A32
330
2
100
AcDbEntity
  8
0
100
AcDbLine
 10
457.5462726134486
 20
56.68812596297789
 30
0.0
 11
457.5462726134486
 21
56.83099596297791
 31
0.0
  0
ARC
  5
A33
330
2
100
AcDbEntity
  8
0
100
AcDbCircle
 10
455.5462726134486
 20
56.68812596297789
 30
0.0
 40
2.0
100
AcDbArc
 50
270.0
 51
0.0
  0
LINE
  5
A34
330
2
100
AcDbEntity
  8
HIDS
100
AcDbLine
 10
413.5113906134487
 20
130.3209969629779
 30
0.0
 11
434.5462726134487
 21
130.6880919629778
 31
0.0
  0
ARC
  5
A36
330
2
100
AcDbEntity
  8
0
100
AcDbCircle
 10
434.5462726134487
 20
-98.31184703702218
 30
0.0
 40
250.0
100
AcDbArc
 50
84.82601899999977
 51
95.17398100000022
  0
LINE
  5
A37
330
2
100
AcDbEntity
  8
0
100
AcDbLine
 10
403.8441856134487
 20
151.8763939629779
 30
0.0
 11
404.2839746134487
 21
150.2349979629778
 31
0.0
  0
LINE
  5
A38
330
2
100
AcDbEntity
  8
0
100
AcDbLine
 10
394.5462726134487
 20
152.9880949629779
 30
0.0
 11
394.5462726134487
 21
122.4880949629778
 31
0.0
  0
LINE
  5
A39
330
2
100
AcDbEntity
  8
0
100
AcDbLine
 10
400.5462726134487
 20
134.9880949629778
 30
0.0
 11
401.5462726134487
 21
134.9880949629778
 31
0.0
  0
ARC
  5
A3A
330
2
100
AcDbEntity
  8
0
100
AcDbCircle
 10
407.1793906134486
 20
151.0071999629778
 30
0.0
 40
3.0
100
AcDbArc
 50
194.9326019999977
 51
269.0006099999996
  0
ARC
  5
A3B
330
2
100
AcDbEntity
  8
0
100
AcDbCircle
 10
405.5462726134487
 20
150.0354969629778
 30
0.0
 40
2.0
100
AcDbArc
 50
180.0
 51
269.0006099999996
  0
LINE
  5
A3C
330
2
100
AcDbEntity
  8
HIDS
  6
SEKKEI_H
100
AcDbLine
 10
394.5462726134487
 20
148.2380949629778
 30
0.0
 11
403.5462726134487
 21
148.2380949629778
 31
0.0
  0
LINE
  5
A3D
330
2
100
AcDbEntity
  8
HIDS
  6
SEKKEI_H
100
AcDbLine
 10
394.5462726134487
 20
141.7380949629778
 30
0.0
 11
403.5462726134487
 21
141.7380949629778
 31
0.0
  0
ARC
  5
A3E
330
2
100
AcDbEntity
  8
0
100
AcDbCircle
 10
400.5462726134487
 20
133.9880949629778
 30
0.0
 40
1.0
100
AcDbArc
 50
90.0
 51
180.0
  0
LINE
  5
A3F
330
2
100
AcDbEntity
  8
0
100
AcDbLine
 10
397.5462726134487
 20
123.4880949629778
 30
0.0
 11
399.5462726134487
 21
123.4880949629778
 31
0.0
  0
ARC
  5
A40
330
2
100
AcDbEntity
  8
0
100
AcDbCircle
 10
418.5462726134486
 20
150.6745959629778
 30
0.0
 40
0.5
100
AcDbArc
 50
93.67680399999988
 51
180.0
  0
ARC
  5
A41
330
2
100
AcDbEntity
  8
0
100
AcDbCircle
 10
417.5462726134487
 20
148.6880919629778
 30
0.0
 40
0.5
100
AcDbArc
 50
270.0
 51
0.0
  0
LINE
  5
A42
330
2
100
AcDbEntity
  8
0
100
AcDbLine
 10
418.0462726134487
 20
150.6745959629778
 30
0.0
 11
418.0462726134487
 21
148.6880919629778
 31
0.0
  0
LINE
  5
A43
330
2
100
AcDbEntity
  8
0
100
AcDbLine
 10
417.2962726134486
 20
148.1878939629779
 30
0.0
 11
417.2962726134486
 21
149.6272939629778
 31
0.0
  0
ARC
  5
A44
330
2
100
AcDbEntity
  8
0
100
AcDbCircle
 10
412.7962726134486
 20
149.6272939629778
 30
0.0
 40
1.0
100
AcDbArc
 50
106.9581989999983
 51
180.0
  0
ARC
  5
A45
330
2
100
AcDbEntity
  8
0
100
AcDbCircle
 10
412.0462726134487
 20
150.1715979629778
 30
0.0
 40
0.5
100
AcDbArc
 50
95.17398100000022
 51
180.0
  0
ARC
  5
A46
330
2
100
AcDbEntity
  8
0
100
AcDbCircle
 10
414.5462726134486
 20
143.8880969629779
 30
0.0
 40
7.0
100
AcDbArc
 50
73.04350299999896
 51
106.9580000000012
  0
LINE
  5
A47
330
2
100
AcDbEntity
  8
HIDS
100
AcDbLine
 10
412.0462726134487
 20
143.1880919629778
 30
0.0
 11
412.0462726134487
 21
144.1880919629778
 31
0.0
  0
LINE
  5
A48
330
2
100
AcDbEntity
  8
HIDS
100
AcDbLine
 10
412.0462726134487
 20
144.1880919629778
 30
0.0
 11
411.5462726134486
 21
144.1880919629778
 31
0.0
  0
LINE
  5
A49
330
2
100
AcDbEntity
  8
HIDS
100
AcDbLine
 10
412.0462726134487
 20
143.1880919629778
 30
0.0
 11
411.5462726134486
 21
143.1880919629778
 31
0.0
  0
LINE
  5
A4A
330
2
100
AcDbEntity
  8
HIDS
100
AcDbLine
 10
411.5462726134486
 20
147.6880919629778
 30
0.0
 11
411.5462726134486
 21
144.1880919629778
 31
0.0
  0
ARC
  5
A4B
330
2
100
AcDbEntity
  8
HIDS
100
AcDbCircle
 10
413.5462726134487
 20
128.3212939629778
 30
0.0
 40
2.0
100
AcDbArc
 50
90.99986299999994
 51
180.0
  0
ARC
  5
A4C
330
2
100
AcDbEntity
  8
HIDS
100
AcDbCircle
 10
408.5462726134487
 20
124.3898979629779
 30
0.0
 40
3.0
100
AcDbArc
 50
309.3567010000031
 51
0.0
  0
LINE
  5
A4D
330
2
100
AcDbEntity
  8
HIDS
100
AcDbLine
 10
411.5462726134486
 20
128.3212939629778
 30
0.0
 11
411.5462726134486
 21
124.3898979629779
 31
0.0
  0
LINE
  5
A4E
330
2
100
AcDbEntity
  8
HIDS
100
AcDbLine
 10
411.5462726134486
 20
143.1880919629778
 30
0.0
 11
411.5462726134486
 21
128.3212939629778
 31
0.0
  0
ARC
  5
A4F
330
2
100
AcDbEntity
  8
0
100
AcDbCircle
 10
412.0462726134487
 20
147.6880919629778
 30
0.0
 40
0.5
100
AcDbArc
 50
90.0
 51
180.0
  0
LINE
  5
A50
330
2
100
AcDbEntity
  8
0
100
AcDbLine
 10
411.5462726134486
 20
147.6880919629778
 30
0.0
 11
411.5462726134486
 21
150.1715979629778
 31
0.0
  0
LINE
  5
A51
330
2
100
AcDbEntity
  8
0
100
AcDbLine
 10
411.7962726134487
 20
148.1880919629778
 30
0.0
 11
411.7962726134487
 21
149.6272939629778
 31
0.0
  0
ARC
  5
A52
330
2
100
AcDbEntity
  8
0
100
AcDbCircle
 10
416.2962726134487
 20
149.6272939629778
 30
0.0
 40
1.0
100
AcDbArc
 50
0.0
 51
73.04309800000067
  0
LINE
  5
A53
330
2
100
AcDbEntity
  8
0
100
AcDbLine
 10
411.7962726134487
 20
148.8880969629778
 30
0.0
 11
417.2962726134486
 21
148.8880969629778
 31
0.0
  0
LINE
  5
A54
330
2
100
AcDbEntity
  8
0
100
AcDbLine
 10
411.7962726134487
 20
148.1880919629778
 30
0.0
 11
417.5462726134487
 21
148.1880919629778
 31
0.0
  0
ARC
  5
A55
330
2
100
AcDbEntity
  8
0
100
AcDbCircle
 10
402.3952716134487
 20
151.4880949629779
 30
0.0
 40
1.5
100
AcDbArc
 50
15.00006999999681
 51
90.0
  0
LINE
  5
A56
330
2
100
AcDbEntity
  8
0
100
AcDbLine
 10
394.5462726134487
 20
152.9880949629779
 30
0.0
 11
402.3952716134487
 21
152.9880949629779
 31
0.0
  0
LINE
  5
A57
330
2
100
AcDbEntity
  8
HIDS
100
AcDbLine
 10
455.5811846134487
 20
130.3209969629779
 30
0.0
 11
434.5462726134487
 21
130.6880919629778
 31
0.0
  0
ARC
  5
A58
330
2
100
AcDbEntity
  8
0
100
AcDbCircle
 10
434.5462726134487
 20
143.6880919629778
 30
0.0
 40
6.0
100
AcDbArc
 50
38.79706999999894
 51
139.2034000000025
  0
ARC
  5
A59
330
2
100
AcDbEntity
  8
0
100
AcDbCircle
 10
456.2962726134486
 20
149.6272939629778
 30
0.0
 40
1.0
100
AcDbArc
 50
0.0
 51
73.04184700000201
  0
ARC
  5
A5A
330
2
100
AcDbEntity
  8
0
100
AcDbCircle
 10
457.0462726134486
 20
150.1715979629778
 30
0.0
 40
0.5
100
AcDbArc
 50
0.0
 51
84.82601899999977
  0
ARC
  5
A5B
330
2
100
AcDbEntity
  8
0
100
AcDbCircle
 10
454.5462726134486
 20
143.8880969629779
 30
0.0
 40
7.0
100
AcDbArc
 50
73.04197699999971
 51
106.956497000001
  0
LINE
  5
A5C
330
2
100
AcDbEntity
  8
HIDS
100
AcDbLine
 10
457.0462726134486
 20
143.1880919629778
 30
0.0
 11
457.0462726134486
 21
144.1880919629778
 31
0.0
  0
LINE
  5
A5D
330
2
100
AcDbEntity
  8
HIDS
100
AcDbLine
 10
457.0462726134486
 20
144.1880919629778
 30
0.0
 11
457.5462726134486
 21
144.1880919629778
 31
0.0
  0
LINE
  5
A5E
330
2
100
AcDbEntity
  8
HIDS
100
AcDbLine
 10
457.0462726134486
 20
143.1880919629778
 30
0.0
 11
457.5462726134486
 21
143.1880919629778
 31
0.0
  0
LINE
  5
A5F
330
2
100
AcDbEntity
  8
HIDS
100
AcDbLine
 10
457.5462726134486
 20
147.1276979629778
 30
0.0
 11
457.5462726134486
 21
144.1880919629778
 31
0.0
  0
ARC
  5
A60
330
2
100
AcDbEntity
  8
HIDS
100
AcDbCircle
 10
460.5462726134486
 20
124.3898979629779
 30
0.0
 40
3.0
100
AcDbArc
 50
180.0
 51
230.6432950000005
  0
LINE
  5
A61
330
2
100
AcDbEntity
  8
HIDS
100
AcDbLine
 10
457.5462726134486
 20
128.3212939629778
 30
0.0
 11
457.5462726134486
 21
124.3898979629779
 31
0.0
  0
ARC
  5
A62
330
2
100
AcDbEntity
  8
HIDS
100
AcDbCircle
 10
455.5462726134486
 20
128.3212939629778
 30
0.0
 40
2.0
100
AcDbArc
 50
0.0
 51
89.00013700000007
  0
LINE
  5
A63
330
2
100
AcDbEntity
  8
HIDS
100
AcDbLine
 10
457.5462726134486
 20
143.1880919629778
 30
0.0
 11
457.5462726134486
 21
128.3212939629778
 31
0.0
  0
ARC
  5
A64
330
2
100
AcDbEntity
  8
0
100
AcDbCircle
 10
457.0462726134486
 20
147.6880919629778
 30
0.0
 40
0.5
100
AcDbArc
 50
0.0
 51
90.0
  0
LINE
  5
A65
330
2
100
AcDbEntity
  8
0
100
AcDbLine
 10
457.2962726134486
 20
148.1880919629778
 30
0.0
 11
457.2962726134486
 21
149.6272939629778
 31
0.0
  0
LINE
  5
A66
330
2
100
AcDbEntity
  8
0
100
AcDbLine
 10
457.5462726134486
 20
147.1276979629778
 30
0.0
 11
457.5462726134486
 21
150.1715979629778
 31
0.0
  0
ARC
  5
A67
330
2
100
AcDbEntity
  8
0
100
AcDbCircle
 10
451.5462726134486
 20
148.6880919629778
 30
0.0
 40
0.5
100
AcDbArc
 50
180.0
 51
270.0
  0
LINE
  5
A68
330
2
100
AcDbEntity
  8
0
100
AcDbLine
 10
451.0462726134486
 20
150.6745959629778
 30
0.0
 11
451.0462726134486
 21
148.6880919629778
 31
0.0
  0
LINE
  5
A69
330
2
100
AcDbEntity
  8
0
100
AcDbLine
 10
451.7962726134486
 20
148.1878939629779
 30
0.0
 11
451.7962726134486
 21
149.6272939629778
 31
0.0
  0
ARC
  5
A6A
330
2
100
AcDbEntity
  8
0
100
AcDbCircle
 10
450.5462726134486
 20
150.6745959629778
 30
0.0
 40
0.5
100
AcDbArc
 50
0.0
 51
86.32319600000011
  0
ARC
  5
A6B
330
2
100
AcDbEntity
  8
0
100
AcDbCircle
 10
452.7962726134486
 20
149.6272939629778
 30
0.0
 40
1.0
100
AcDbArc
 50
106.9569019999993
 51
180.0
  0
LINE
  5
A6C
330
2
100
AcDbEntity
  8
0
100
AcDbLine
 10
457.2962726134486
 20
148.8880969629778
 30
0.0
 11
451.7962726134486
 21
148.8880969629778
 31
0.0
  0
LINE
  5
A6D
330
2
100
AcDbEntity
  8
0
100
AcDbLine
 10
457.2962726134486
 20
148.1880919629778
 30
0.0
 11
451.5462726134486
 21
148.1880919629778
 31
0.0
  0
LINE
  5
A6E
330
2
100
AcDbEntity
  8
0
100
AcDbLine
 10
469.5462726134486
 20
95.9880949629778
 30
0.0
 11
469.5462726134486
 21
133.9880949629778
 31
0.0
  0
LINE
  5
A6F
330
2
100
AcDbEntity
  8
0
100
AcDbLine
 10
465.5462726134486
 20
58.93606596297786
 30
0.0
 11
465.5462726134486
 21
145.0226949629778
 31
0.0
  0
ARC
  5
A70
330
2
100
AcDbEntity
  8
0
100
AcDbCircle
 10
463.5462726134486
 20
58.93604596297791
 30
0.0
 40
2.0
100
AcDbArc
 50
271.0003659999995
 51
0.0
  0
LINE
  5
A71
330
2
100
AcDbEntity
  8
0
100
AcDbLine
 10
468.5462726134486
 20
94.98809496297781
 30
0.0
 11
467.5462726134486
 21
94.98809496297781
 31
0.0
  0
ARC
  5
A72
330
2
100
AcDbEntity
  8
0
100
AcDbCircle
 10
468.5462726134486
 20
95.9880949629778
 30
0.0
 40
1.0
100
AcDbArc
 50
270.0
 51
0.0
  0
ARC
  5
A73
330
2
100
AcDbEntity
  8
0
100
AcDbCircle
 10
467.5462726134486
 20
92.98809496297781
 30
0.0
 40
2.0
100
AcDbArc
 50
90.0
 51
180.0
  0
ARC
  5
A74
330
2
100
AcDbEntity
  8
0
100
AcDbCircle
 10
434.5462726134487
 20
92.68809596297785
 30
0.0
 40
38.0
100
AcDbArc
 50
324.6655009999977
 51
22.91953999999799
  0
LINE
  5
A75
330
2
100
AcDbEntity
  8
0
100
AcDbLine
 10
468.5462726134486
 20
134.9880949629778
 30
0.0
 11
467.5462726134486
 21
134.9880949629778
 31
0.0
  0
ARC
  5
A76
330
2
100
AcDbEntity
  8
0
100
AcDbCircle
 10
468.5462726134486
 20
133.9880949629778
 30
0.0
 40
1.0
100
AcDbArc
 50
0.0
 51
90.0
  0
ARC
  5
A77
330
2
100
AcDbEntity
  8
0
100
AcDbCircle
 10
463.5462726134486
 20
145.0226949629778
 30
0.0
 40
2.0
100
AcDbArc
 50
0.0
 51
89.00035899999958
  0
ARC
  5
A78
330
2
100
AcDbEntity
  8
0
100
AcDbCircle
 10
467.5462726134486
 20
136.9880949629778
 30
0.0
 40
2.0
100
AcDbArc
 50
180.0
 51
270.0
  0
ARC
  5
10E1
330
2
100
AcDbEntity
  8
0
100
AcDbCircle
 10
401.5462726134487
 20
136.9880949629778
 30
0.0
 40
2.0
100
AcDbArc
 50
270.0
 51
311.1861549266384
  0
ARC
  5
10E2
330
2
100
AcDbEntity
  8
0
100
AcDbCircle
 10
401.5462726134487
 20
92.98809496297781
 30
0.0
 40
2.0
100
AcDbArc
 50
0.000000000000007
 51
90.0
  0
LINE
  5
10E3
330
2
100
AcDbEntity
  8
0
100
AcDbLine
 10
265.038103250862
 20
329.8525359109896
 30
0.0
 11
227.038103250862
 21
329.8525359109896
 31
0.0
  0
ARC
  5
10E4
330
2
100
AcDbEntity
  8
0
100
AcDbCircle
 10
268.038103250862
 20
327.8525359109897
 30
0.0
 40
2.0
100
AcDbArc
 50
180.0
 51
270.0
  0
ARC
  5
10E5
330
2
100
AcDbEntity
  8
0
100
AcDbCircle
 10
265.038103250862
 20
328.8525359109897
 30
0.0
 40
1.0
100
AcDbArc
 50
0.0
 51
90.0
  0
LINE
  5
10E6
330
2
100
AcDbEntity
  8
0
100
AcDbLine
 10
266.038103250862
 20
328.8525359109896
 30
0.0
 11
266.038103250862
 21
327.8525359109896
 31
0.0
  0
ARC
  5
10E7
330
2
100
AcDbEntity
  8
0
100
AcDbCircle
 10
227.038103250862
 20
328.8525359109897
 30
0.0
 40
1.0
100
AcDbArc
 50
90.0
 51
180.0
  0
ARC
  5
10E8
330
2
100
AcDbEntity
  8
0
100
AcDbCircle
 10
224.038103250862
 20
327.8525359109897
 30
0.0
 40
2.0
100
AcDbArc
 50
270.0
 51
0.0
  0
LINE
  5
10E9
330
2
100
AcDbEntity
  8
0
100
AcDbLine
 10
226.038103250862
 20
328.8525359109896
 30
0.0
 11
226.038103250862
 21
327.8525359109896
 31
0.0
  0
ENDSEC
  0
SECTION
  2
OBJECTS
  0
DICTIONARY
  5
7
330
0
100
AcDbDictionary
  3
ACAD_GROUP
350
75
  3
ACAD_LAYOUT
350
61
  3
ACAD_MLINESTYLE
350
76
  3
ACAD_PLOTSETTINGS
350
77
  3
ACAD_PLOTSTYLENAME
350
6
  3
ACADDIM
350
480
  3
ACDBHEADERROUNDTRIPXREC
350
112D
  3
ACDBVARIABLEDICTIONARY
350
102
  3
DWGPROPS
350
3D2
  0
DICTIONARY
  5
114E
330
2
100
AcDbDictionary
280
     1
  3
ACAD_LAYOUTSELFREF
360
114F
  0
DICTIONARY
  5
1150
330
1127
100
AcDbDictionary
280
     1
  3
ACAD_LAYOUTSELFREF
360
1151
  0
DICTIONARY
  5
75
102
{ACAD_REACTORS
330
7
102
}
330
7
100
AcDbDictionary
  0
DICTIONARY
  5
61
102
{ACAD_REACTORS
330
7
102
}
330
7
100
AcDbDictionary
  0
DICTIONARY
  5
76
102
{ACAD_REACTORS
330
7
102
}
330
7
100
AcDbDictionary
  3
STANDARD
350
78
  0
DICTIONARY
  5
77
102
{ACAD_REACTORS
330
7
102
}
330
7
100
AcDbDictionary
  0
ACDBDICTIONARYWDFLT
  5
6
102
{ACAD_REACTORS
330
7
102
}
330
7
100
AcDbDictionary
281
     1
  3
Normal
350
5
100
AcDbDictionaryWithDefault
340
5
  0
XRECORD
  5
480
102
{ACAD_REACTORS
330
7
102
}
330
7
100
AcDbXrecord
 90
   990106
  3

 60
     0
 61
     0
 62
     1
 63
     3
 64
     1
 65
     0
 66
     0
 67
     3
 68
     1
 69
     0
 70
     0
 71
     0
 72
     0
 40
0.0
170
     2
340
0
  0
DICTIONARY
  5
112D
102
{ACAD_REACTORS
330
7
102
}
330
7
100
AcDbDictionary
  3
CEPSNTYPE
350
1137
  3
DIMSTYLEDATA
350
113B
  3
FINGERPRINTGUID
350
1138
  3
HYPERLINKBASE
350
1130
  3
INSUNITS
350
1136
  3
LAYOUTDICT
350
1132
  3
LWETCUNION
350
1135
  3
PLOTSETDICT
350
1133
  3
PLOTSTYLNAMDICT
350
1134
  3
PSVPSCALE
350
113A
  3
PUCSBASE
350
113E
  3
PUCSORGBACK
350
1144
  3
PUCSORGBOTTOM
350
1140
  3
PUCSORGFRONT
350
1143
  3
PUCSORGLEFT
350
1141
  3
PUCSORGRIGHT
350
1142
  3
PUCSORGTOP
350
113F
  3
PUCSORTHOREF
350
113C
  3
PUCSORTHOVIEW
350
113D
  3
STYLESHEET
350
1131
  3
TSTACKALIGN
350
112E
  3
TSTACKSIZE
350
112F
  3
UCSBASE
350
1147
  3
UCSORGBACK
350
114D
  3
UCSORGBOTTOM
350
1149
  3
UCSORGFRONT
350
114C
  3
UCSORGLEFT
350
114A
  3
UCSORGRIGHT
350
114B
  3
UCSORGTOP
350
1148
  3
UCSORTHOREF
350
1145
  3
UCSORTHOVIEW
350
1146
  3
VERSIONGUID
350
1139
  0
DICTIONARY
  5
102
102
{ACAD_REACTORS
330
7
102
}
330
7
100
AcDbDictionary
  3
DIMASSOC
350
103
  0
XRECORD
  5
3D2
102
{ACAD_REACTORS
330
7
102
}
330
7
100
AcDbXrecord
  1
DWGPROPS COOKIE
  2

  3

  4

  6

  7

  8

  9

300
=
301
=
302
=
303
=
304
=
305
=
306
=
307
=
308
=
309
=
 40
0.5353330671296296
 41
2452052.431989363
 42
2453406.550756377
  1

 90
        0
  0
XRECORD
  5
114F
102
{ACAD_REACTORS
330
114E
102
}
330
114E
100
AcDbXrecord
340
2
  0
XRECORD
  5
1151
102
{ACAD_REACTORS
330
1150
102
}
330
1150
100
AcDbXrecord
340
1127
  0
MLINESTYLE
  5
78
102
{ACAD_REACTORS
330
76
102
}
330
76
100
AcDbMlineStyle
  2
STANDARD
 70
     0
  3

 62
     0
 51
90.0
 52
90.0
 71
     2
 49
0.5
 62
   256
  6
BYLAYER
 49
-0.5
 62
   256
  6
BYLAYER
  0
ACDBPLACEHOLDER
  5
5
102
{ACAD_REACTORS
330
6
102
}
330
6
100
AcDbPlaceHolder
280
     0
  0
XRECORD
  5
1137
102
{ACAD_REACTORS
330
112D
102
}
330
112D
100
AcDbXrecord
 90
        0
  0
XRECORD
  5
113B
102
{ACAD_REACTORS
330
112D
102
}
330
112D
100
AcDbXrecord
1000
DSTYLE
1002
{
1070
   179
 70
     2
1070
   277
 70
     6
1002
}
  0
XRECORD
  5
1138
102
{ACAD_REACTORS
330
112D
102
}
330
112D
100
AcDbXrecord
  1
{6385560B-F4B1-4644-A7C2-A3E32AC3D232}
  0
XRECORD
  5
1130
102
{ACAD_REACTORS
330
112D
102
}
330
112D
100
AcDbXrecord
  1

  0
XRECORD
  5
1136
102
{ACAD_REACTORS
330
112D
102
}
330
112D
100
AcDbXrecord
 90
        0
  0
XRECORD
  5
1132
102
{ACAD_REACTORS
330
112D
102
}
330
112D
100
AcDbXrecord
340
61
  0
XRECORD
  5
1135
102
{ACAD_REACTORS
330
112D
102
}
330
112D
100
AcDbXrecord
 90
    10781
  0
XRECORD
  5
1133
102
{ACAD_REACTORS
330
112D
102
}
330
112D
100
AcDbXrecord
340
77
  0
XRECORD
  5
1134
102
{ACAD_REACTORS
330
112D
102
}
330
112D
100
AcDbXrecord
340
6
  0
XRECORD
  5
113A
102
{ACAD_REACTORS
330
112D
102
}
330
112D
100
AcDbXrecord
 40
0.0
  0
XRECORD
  5
113E
102
{ACAD_REACTORS
330
112D
102
}
330
112D
100
AcDbXrecord
340
0
  0
XRECORD
  5
1144
102
{ACAD_REACTORS
330
112D
102
}
330
112D
100
AcDbXrecord
 10
0.0
 20
0.0
 30
0.0
  0
XRECORD
  5
1140
102
{ACAD_REACTORS
330
112D
102
}
330
112D
100
AcDbXrecord
 10
0.0
 20
0.0
 30
0.0
  0
XRECORD
  5
1143
102
{ACAD_REACTORS
330
112D
102
}
330
112D
100
AcDbXrecord
 10
0.0
 20
0.0
 30
0.0
  0
XRECORD
  5
1141
102
{ACAD_REACTORS
330
112D
102
}
330
112D
100
AcDbXrecord
 10
0.0
 20
0.0
 30
0.0
  0
XRECORD
  5
1142
102
{ACAD_REACTORS
330
112D
102
}
330
112D
100
AcDbXrecord
 10
0.0
 20
0.0
 30
0.0
  0
XRECORD
  5
113F
102
{ACAD_REACTORS
330
112D
102
}
330
112D
100
AcDbXrecord
 10
0.0
 20
0.0
 30
0.0
  0
XRECORD
  5
113C
102
{ACAD_REACTORS
330
112D
102
}
330
112D
100
AcDbXrecord
340
0
  0
XRECORD
  5
113D
102
{ACAD_REACTORS
330
112D
102
}
330
112D
100
AcDbXrecord
 70
     0
  0
XRECORD
  5
1131
102
{ACAD_REACTORS
330
112D
102
}
330
112D
100
AcDbXrecord
  1
Sekkei.ctb
  0
XRECORD
  5
112E
102
{ACAD_REACTORS
330
112D
102
}
330
112D
100
AcDbXrecord
 90
        1
  0
XRECORD
  5
112F
102
{ACAD_REACTORS
330
112D
102
}
330
112D
100
AcDbXrecord
 90
       70
  0
XRECORD
  5
1147
102
{ACAD_REACTORS
330
112D
102
}
330
112D
100
AcDbXrecord
340
0
  0
XRECORD
  5
114D
102
{ACAD_REACTORS
330
112D
102
}
330
112D
100
AcDbXrecord
 10
0.0
 20
0.0
 30
0.0
  0
XRECORD
  5
1149
102
{ACAD_REACTORS
330
112D
102
}
330
112D
100
AcDbXrecord
 10
0.0
 20
0.0
 30
0.0
  0
XRECORD
  5
114C
102
{ACAD_REACTORS
330
112D
102
}
330
112D
100
AcDbXrecord
 10
0.0
 20
0.0
 30
0.0
  0
XRECORD
  5
114A
102
{ACAD_REACTORS
330
112D
102
}
330
112D
100
AcDbXrecord
 10
0.0
 20
0.0
 30
0.0
  0
XRECORD
  5
114B
102
{ACAD_REACTORS
330
112D
102
}
330
112D
100
AcDbXrecord
 10
0.0
 20
0.0
 30
0.0
  0
XRECORD
  5
1148
102
{ACAD_REACTORS
330
112D
102
}
330
112D
100
AcDbXrecord
 10
0.0
 20
0.0
 30
0.0
  0
XRECORD
  5
1145
102
{ACAD_REACTORS
330
112D
102
}
330
112D
100
AcDbXrecord
340
0
  0
XRECORD
  5
1146
102
{ACAD_REACTORS
330
112D
102
}
330
112D
100
AcDbXrecord
 70
     0
  0
XRECORD
  5
1139
102
{ACAD_REACTORS
330
112D
102
}
330
112D
100
AcDbXrecord
  1
{D349AD19-282B-4FA9-8676-74CC3F754828}
  0
DICTIONARYVAR
  5
103
102
{ACAD_REACTORS
330
102
102
}
330
102
100
DictionaryVariables
280
     0
  1
1
  0
ENDSEC
  0
EOF
