  0
SECTION
  2
HEADER
  9
$CLAYER
  8
1
  9
$LTSCALE
 40
3.0
  0
ENDSEC
  0
SECTION
  2
TABLES
  0
TABLE
  2
LTYPE
 70
     4
  0
LTYPE
  2
CONTINUOUS
  3
solid line
 70
    64
 72
    65
 73
     0
 40
0.0
  0
LTYPE
  2
DASHED
  3
__ __ __ __ __ __ __ __ __ __ __ __ __ __ __
 70
    64
 72
    65
 73
     2
 40
0.75
 49
0.5
 49
-0.25
  0
LTYPE
  2
CENTER
  3
____ _ ____ _ ____ _ ____ _ ____ _ ____ _ ____
 70
    64
 72
    65
 73
     4
 40
2.0
 49
1.25
 49
-0.25
 49
0.25
 49
-0.25
  0
LTYPE
  2
PHANTOM
  3
_____ _ _ _____ _ _ _____ _ _ _____ _ _ ____
 70
    64
 72
    65
 73
     6
 40
2.5
 49
1.25
 49
-0.25
 49
0.25
 49
-0.25
 49
0.25
 49
-0.25
  0
ENDTAB
  0
TABLE
  2
LAYER
 70
     1
  0
LAYER
  2
0
 70
    64
 62
     7
  6
CONTINUOUS
  0
ENDTAB
  0
TABLE
  2
STYLE
 70
     1
  0
STYLE
  2
STANDARD
 70
     0
 40
0.000000
 41
1.000000
 50
0.000000
 71
     0
 42
3.000000
  3
txt
  4
BIGFONT
  0
ENDTAB
  0
ENDSEC
  0
SECTION
  2
BLOCKS
  0
ENDSEC
  0
SECTION
  2
ENTITIES
  0
LINE
  8
0
  6
CENTER
 10
-6.392500
 20
40.971561
 11
148.367493
 21
40.971561
  0
LINE
  8
0
  6
CONTINUOUS
 10
58.067501
 20
78.971565
 11
130.987503
 21
78.971565
  0
LINE
  8
0
  6
CONTINUOUS
 10
128.567505
 20
2.971563
 11
58.067501
 21
2.971563
  0
LINE
  8
0
  6
CONTINUOUS
 10
141.067505
 20
-0.728437
 11
205.067505
 21
-0.728437
  0
LINE
  8
0
  6
CONTINUOUS
 10
141.067505
 20
101.271561
 11
205.067505
 21
101.271561
  0
LINE
  8
0
  6
CONTINUOUS
 10
130.567505
 20
75.971565
 11
130.567505
 21
24.571564
  0
LINE
  8
0
  6
CENTER
 10
173.067505
 20
113.659065
 11
173.067505
 21
-9.965937
  0
LINE
  8
0
  6
CENTER
 10
205.067505
 20
13.409063
 11
205.067505
 21
1.909063
  0
LINE
  8
0
  6
CENTER
 10
199.223801
 20
7.271563
 11
211.473801
 21
7.271563
  0
CIRCLE
  8
0
  6
CONTINUOUS
 10
205.067505
 20
7.271563
 40
3.250000
  0
LINE
  8
0
  6
CENTER
 10
205.067505
 20
87.134064
 11
205.067505
 21
99.894531
  0
LINE
  8
0
  6
CENTER
 10
199.223801
 20
93.271561
 11
211.473801
 21
93.271561
  0
CIRCLE
  8
0
  6
CONTINUOUS
 10
205.067505
 20
93.271561
 40
3.250000
  0
LINE
  8
0
  6
CENTER
 10
141.067505
 20
87.134064
 11
141.067505
 21
98.634064
  0
LINE
  8
0
  6
CENTER
 10
146.911301
 20
93.271561
 11
134.661301
 21
93.271561
  0
CIRCLE
  8
0
  6
CONTINUOUS
 10
141.067505
 20
93.271561
 40
3.250000
  0
LINE
  8
0
  6
CENTER
 10
141.067505
 20
13.409063
 11
141.067505
 21
1.909063
  0
LINE
  8
0
  6
CENTER
 10
146.911301
 20
7.271563
 11
134.661301
 21
7.271563
  0
CIRCLE
  8
0
  6
CONTINUOUS
 10
141.067505
 20
7.271563
 40
3.250000
  0
LINE
  8
0
  6
CONTINUOUS
 10
213.067505
 20
64.632965
 11
213.067505
 21
35.910423
  0
LINE
  8
0
  6
CONTINUOUS
 10
133.067505
 20
64.632835
 11
133.067505
 21
35.910023
  0
ARC
  8
0
  6
CONTINUOUS
 10
173.067505
 20
50.271561
 40
42.500000
 50
19.749901
 51
160.250107
  0
ARC
  8
0
  6
CONTINUOUS
 10
173.067505
 20
50.271561
 40
42.500000
 50
199.749893
 51
340.250092
  0
LINE
  8
0
  6
CONTINUOUS
 10
215.567505
 20
75.971565
 11
215.567505
 21
24.571573
  0
LINE
  8
0
  6
CONTINUOUS
 10
212.990204
 20
94.380722
 11
215.567505
 21
75.971565
  0
LINE
  8
0
  6
CONTINUOUS
 10
212.990204
 20
6.162443
 11
215.567505
 21
24.571573
  0
LINE
  8
0
  6
CONTINUOUS
 10
133.144806
 20
6.162363
 11
130.567505
 21
24.571564
  0
LINE
  8
0
  6
CONTINUOUS
 10
133.144806
 20
94.380714
 11
130.567505
 21
75.971565
  0
LINE
  8
0
  6
CENTER
 10
142.330002
 20
63.271564
 11
202.121567
 21
63.271564
  0
LINE
  8
0
  6
CONTINUOUS
 10
182.567505
 20
65.771561
 11
182.567505
 21
60.771564
  0
LINE
  8
0
  6
CONTINUOUS
 10
177.567505
 20
60.771564
 11
177.567505
 21
65.771561
  0
LINE
  8
0
  6
CONTINUOUS
 10
177.567505
 20
65.771561
 11
182.567505
 21
65.771561
  0
LINE
  8
0
  6
CONTINUOUS
 10
177.567505
 20
60.771564
 11
182.567505
 21
60.771564
  0
ARC
  8
0
  6
CONTINUOUS
 10
173.067505
 20
63.271564
 40
7.500000
 50
19.471201
 51
340.528809
  0
LINE
  8
0
  6
CONTINUOUS
 10
153.067505
 20
97.271561
 11
193.067505
 21
97.271561
  0
LINE
  8
0
  6
CONTINUOUS
 10
153.067505
 20
3.271563
 11
193.067505
 21
3.271563
  0
LINE
  8
0
  6
CONTINUOUS
 10
210.692596
 20
81.942062
 11
213.091797
 21
64.804993
  0
LINE
  8
0
  6
CONTINUOUS
 10
213.069901
 20
35.581299
 11
210.692596
 21
18.601063
  0
LINE
  8
0
  6
CONTINUOUS
 10
133.117996
 20
35.203644
 11
135.442398
 21
18.601072
  0
LINE
  8
0
  6
CONTINUOUS
 10
135.442398
 20
81.942055
 11
132.984161
 21
64.383240
  0
ARC
  8
0
  6
CONTINUOUS
 10
193.067505
 20
93.271561
 40
4.000000
 50
0.000000
 51
90.000000
  0
ARC
  8
0
  6
CONTINUOUS
 10
153.067505
 20
93.271561
 40
4.000000
 50
90.000000
 51
180.000000
  0
ARC
  8
0
  6
CONTINUOUS
 10
193.067505
 20
7.271563
 40
4.000000
 50
-90.000000
 51
0.000000
  0
ARC
  8
0
  6
CONTINUOUS
 10
153.067505
 20
7.271563
 40
4.000000
 50
-180.000000
 51
-90.000000
  0
ARC
  8
0
  6
CONTINUOUS
 10
206.731293
 20
81.387466
 40
4.000000
 50
7.969701
 51
97.969757
  0
ARC
  8
0
  6
CONTINUOUS
 10
205.067505
 20
93.271561
 40
8.000000
 50
180.000000
 51
277.969513
  0
ARC
  8
0
  6
CONTINUOUS
 10
205.067505
 20
93.271561
 40
8.000000
 50
7.969647
 51
90.000000
  0
ARC
  8
0
  6
CONTINUOUS
 10
139.403702
 20
81.387466
 40
4.000000
 50
82.030243
 51
172.030304
  0
ARC
  8
0
  6
CONTINUOUS
 10
206.731293
 20
19.155663
 40
4.000000
 50
-97.969757
 51
-7.969701
  0
ARC
  8
0
  6
CONTINUOUS
 10
139.403702
 20
19.155663
 40
4.000000
 50
-172.030304
 51
-82.030243
  0
ARC
  8
0
  6
CONTINUOUS
 10
141.067505
 20
93.271561
 40
8.000000
 50
90.000000
 51
172.030502
  0
ARC
  8
0
  6
CONTINUOUS
 10
141.067505
 20
93.271561
 40
8.000000
 50
-97.969597
 51
0.000000
  0
ARC
  8
0
  6
CONTINUOUS
 10
141.067505
 20
7.271563
 40
8.000000
 50
0.000000
 51
97.969818
  0
ARC
  8
0
  6
CONTINUOUS
 10
141.067505
 20
7.271563
 40
8.000000
 50
187.969604
 51
270.000000
  0
ARC
  8
0
  6
CONTINUOUS
 10
205.067505
 20
7.271563
 40
8.000000
 50
270.000000
 51
352.030304
  0
ARC
  8
0
  6
CONTINUOUS
 10
205.067505
 20
7.271563
 40
8.000000
 50
82.030350
 51
180.000000
  0
LINE
  8
0
  6
CONTINUOUS
 10
130.567505
 20
4.971563
 11
130.567505
 21
10.971573
  0
ARC
  8
0
  6
CONTINUOUS
 10
128.567505
 20
4.971563
 40
2.000000
 50
-90.000000
 51
0.000000
  0
ARC
  8
0
  6
CONTINUOUS
 10
135.567505
 20
10.971583
 40
5.000000
 50
135.792801
 51
180.000000
  0
LINE
  8
0
  6
CONTINUOUS
 10
58.067501
 20
71.220535
 11
129.817505
 21
71.220535
  0
LINE
  8
0
  6
CONTINUOUS
 10
58.067501
 20
10.722603
 11
130.067505
 21
10.722603
  0
CIRCLE
  8
0
  6
CONTINUOUS
 10
173.067505
 20
63.271564
 40
20.000000
  0
LINE
  8
0
  6
CONTINUOUS
 10
166.692505
 20
30.824793
 11
166.692505
 21
25.271563
  0
LINE
  8
0
  6
CONTINUOUS
 10
169.880005
 20
32.841881
 11
169.880005
 21
34.834064
  0
LINE
  8
0
  6
CONTINUOUS
 10
176.255005
 20
32.841881
 11
176.255005
 21
34.834064
  0
LINE
  8
0
  6
CONTINUOUS
 10
172.444901
 20
33.663654
 11
172.444901
 21
26.317463
  0
LINE
  8
0
  6
CONTINUOUS
 10
173.640305
 20
33.663654
 11
173.640305
 21
26.317463
  0
LINE
  8
0
  6
CONTINUOUS
 10
179.915604
 20
33.663654
 11
179.915604
 21
26.267662
  0
LINE
  8
0
  6
CONTINUOUS
 10
181.011307
 20
29.741533
 11
181.011307
 21
26.267662
  0
LINE
  8
0
  6
CONTINUOUS
 10
165.179993
 20
33.564049
 11
162.108093
 21
33.564049
  0
LINE
  8
0
  6
CONTINUOUS
 10
162.108093
 20
33.564049
 11
161.388306
 21
32.671535
  0
LINE
  8
0
  6
CONTINUOUS
 10
161.474899
 20
34.834064
 11
160.317505
 21
33.352062
  0
LINE
  8
0
  6
CONTINUOUS
 10
161.388306
 20
27.162483
 11
162.119598
 21
26.392174
  0
LINE
  8
0
  6
CONTINUOUS
 10
160.317505
 20
26.512423
 11
161.547302
 21
25.271563
  0
LINE
  8
0
  6
CONTINUOUS
 10
160.317505
 20
33.352062
 11
160.317505
 21
26.512423
  0
LINE
  8
0
  6
CONTINUOUS
 10
161.388306
 20
32.671535
 11
161.388306
 21
27.162483
  0
LINE
  8
0
  6
CONTINUOUS
 10
165.771103
 20
32.992596
 11
165.167892
 21
33.564049
  0
LINE
  8
0
  6
CONTINUOUS
 10
165.761505
 20
34.834064
 11
166.692505
 21
33.800922
  0
LINE
  8
0
  6
CONTINUOUS
 10
165.771103
 20
32.841881
 11
166.692505
 21
32.841881
  0
LINE
  8
0
  6
CONTINUOUS
 10
161.474899
 20
34.834064
 11
165.761505
 21
34.834064
  0
LINE
  8
0
  6
CONTINUOUS
 10
165.771103
 20
29.778893
 11
164.102707
 21
29.778893
  0
LINE
  8
0
  6
CONTINUOUS
 10
165.771103
 20
28.782793
 11
165.771103
 21
29.579674
  0
LINE
  8
0
  6
CONTINUOUS
 10
163.778900
 20
26.392174
 11
162.119598
 21
26.392174
  0
ARC
  8
0
  6
CONTINUOUS
 10
163.778900
 20
28.384354
 40
1.992187
 50
-89.999786
 51
0.000109
  0
LINE
  8
0
  6
CONTINUOUS
 10
165.771103
 20
26.033823
 11
165.771103
 21
25.271563
  0
LINE
  8
0
  6
CONTINUOUS
 10
166.692505
 20
33.800922
 11
166.692505
 21
32.841881
  0
LINE
  8
0
  6
CONTINUOUS
 10
165.771103
 20
29.778893
 11
165.771103
 21
28.384354
  0
LINE
  8
0
  6
CONTINUOUS
 10
164.102707
 20
30.824793
 11
164.102707
 21
29.778893
  0
LINE
  8
0
  6
CONTINUOUS
 10
165.771103
 20
25.271563
 11
166.692505
 21
25.271563
  0
LINE
  8
0
  6
CONTINUOUS
 10
165.771103
 20
26.033823
 11
164.862595
 21
25.271563
  0
LINE
  8
0
  6
CONTINUOUS
 10
173.640305
 20
26.317463
 11
174.038696
 21
26.317463
  0
LINE
  8
0
  6
CONTINUOUS
 10
171.971802
 20
26.317463
 11
171.971802
 21
25.271563
  0
LINE
  8
0
  6
CONTINUOUS
 10
174.038696
 20
26.317463
 11
174.038696
 21
25.271563
  0
LINE
  8
0
  6
CONTINUOUS
 10
175.589996
 20
32.841881
 11
176.255005
 21
32.841881
  0
LINE
  8
0
  6
CONTINUOUS
 10
169.880005
 20
32.841881
 11
170.587601
 21
32.841881
  0
LINE
  8
0
  6
CONTINUOUS
 10
169.880005
 20
34.834064
 11
176.255005
 21
34.834064
  0
LINE
  8
0
  6
CONTINUOUS
 10
171.971802
 20
25.271563
 11
174.038696
 21
25.271563
  0
LINE
  8
0
  6
CONTINUOUS
 10
171.971802
 20
26.317463
 11
172.444901
 21
26.317463
  0
ARC
  8
0
  6
CONTINUOUS
 10
183.264999
 20
32.281574
 40
2.552490
 50
-73.981873
 51
90.003510
  0
ARC
  8
0
  6
CONTINUOUS
 10
183.264999
 20
32.281574
 40
1.557193
 50
-82.585274
 51
62.411850
  0
LINE
  8
0
  6
CONTINUOUS
 10
179.442505
 20
34.834064
 11
183.264999
 21
34.834064
  0
LINE
  8
0
  6
CONTINUOUS
 10
179.442505
 20
34.834064
 11
179.442505
 21
33.663654
  0
LINE
  8
0
  6
CONTINUOUS
 10
181.011307
 20
33.663654
 11
181.011307
 21
30.737404
  0
LINE
  8
0
  6
CONTINUOUS
 10
183.969299
 20
29.828182
 11
185.549194
 21
26.267662
  0
LINE
  8
0
  6
CONTINUOUS
 10
183.051804
 20
29.741533
 11
184.546799
 21
26.267662
  0
LINE
  8
0
  6
CONTINUOUS
 10
179.442505
 20
26.267662
 11
179.915604
 21
26.267662
  0
LINE
  8
0
  6
CONTINUOUS
 10
181.011307
 20
26.267662
 11
181.447098
 21
26.267662
  0
LINE
  8
0
  6
CONTINUOUS
 10
181.447098
 20
25.271563
 11
179.442505
 21
25.271563
  0
LINE
  8
0
  6
CONTINUOUS
 10
184.348297
 20
26.267662
 11
184.546799
 21
26.267662
  0
LINE
  8
0
  6
CONTINUOUS
 10
185.549194
 20
26.267662
 11
185.817505
 21
26.267662
  0
LINE
  8
0
  6
CONTINUOUS
 10
184.348297
 20
25.271563
 11
185.817505
 21
25.271563
  0
LINE
  8
0
  6
CONTINUOUS
 10
185.817505
 20
26.267662
 11
185.817505
 21
25.271563
  0
LINE
  8
0
  6
CONTINUOUS
 10
184.348297
 20
26.267662
 11
184.348297
 21
25.271563
  0
LINE
  8
0
  6
CONTINUOUS
 10
181.447098
 20
26.267662
 11
181.447098
 21
25.271563
  0
LINE
  8
0
  6
CONTINUOUS
 10
179.442505
 20
26.267662
 11
179.442505
 21
25.271563
  0
LINE
  8
0
  6
CONTINUOUS
 10
170.929993
 20
33.663654
 11
170.587601
 21
32.841881
  0
LINE
  8
0
  6
CONTINUOUS
 10
175.301300
 20
33.663654
 11
175.589996
 21
32.841881
  0
LINE
  8
0
  6
CONTINUOUS
 10
173.640305
 20
33.663654
 11
175.301300
 21
33.663654
  0
LINE
  8
0
  6
CONTINUOUS
 10
172.444901
 20
33.663654
 11
170.929993
 21
33.663654
  0
LINE
  8
0
  6
CONTINUOUS
 10
179.442505
 20
33.663654
 11
179.915604
 21
33.663654
  0
LINE
  8
0
  6
CONTINUOUS
 10
181.011307
 20
33.663654
 11
183.986206
 21
33.661709
  0
LINE
  8
0
  6
CONTINUOUS
 10
165.771103
 20
32.992596
 11
165.771103
 21
32.841881
  0
LINE
  8
0
  6
CONTINUOUS
 10
161.547302
 20
25.271563
 11
164.862595
 21
25.271563
  0
LINE
  8
0
  6
CONTINUOUS
 10
181.011307
 20
30.737404
 11
183.466003
 21
30.737404
  0
LINE
  8
0
  6
CONTINUOUS
 10
181.011307
 20
29.741533
 11
183.051804
 21
29.741533
  0
LINE
  8
0
  6
CONTINUOUS
 10
164.102707
 20
30.824793
 11
166.692505
 21
30.824793
  0
LINE
  8
0
  6
CENTER
 10
173.067505
 20
305.752502
 11
173.067505
 21
169.252502
  0
LINE
  8
0
  6
CENTER
 10
-4.936250
 20
237.252502
 11
221.567505
 21
237.252502
  0
LINE
  8
0
  6
CONTINUOUS
 10
211.759979
 20
268.252502
 11
132.515808
 21
268.252502
  0
LINE
  8
0
  6
CONTINUOUS
 10
128.435883
 20
275.252502
 11
58.067501
 21
275.252502
  0
LINE
  8
0
  6
CONTINUOUS
 10
58.067501
 20
260.252502
 11
133.987183
 21
260.252502
  0
LINE
  8
0
  6
CONTINUOUS
 10
131.358353
 20
206.252502
 11
214.357666
 21
206.252502
  0
LINE
  8
0
  6
CONTINUOUS
 10
129.053894
 20
199.252502
 11
58.067501
 21
199.252502
  0
LINE
  8
0
  6
CONTINUOUS
 10
58.067501
 20
214.252502
 11
130.122345
 21
214.252502
  0
LINE
  8
0
  6
CONTINUOUS
 10
153.067505
 20
271.252502
 11
153.067505
 21
268.252502
  0
LINE
  8
0
  6
CONTINUOUS
 10
193.067505
 20
271.252502
 11
193.067505
 21
268.252502
  0
LINE
  8
0
  6
CONTINUOUS
 10
192.067505
 20
272.252502
 11
154.067505
 21
272.252502
  0
ARC
  8
0
  6
CONTINUOUS
 10
154.067505
 20
271.252502
 40
1.000000
 50
90.000000
 51
180.000000
  0
ARC
  8
0
  6
CONTINUOUS
 10
192.067505
 20
271.252502
 40
1.000000
 50
0.000000
 51
90.000000
  0
LINE
  8
0
  6
CONTINUOUS
 10
165.567505
 20
301.252502
 11
165.567505
 21
274.252502
  0
LINE
  8
0
  6
CONTINUOUS
 10
165.567505
 20
301.252502
 11
182.567505
 21
301.252502
  0
LINE
  8
0
  6
CONTINUOUS
 10
164.567505
 20
274.252502
 11
181.567505
 21
274.252502
  0
LINE
  8
0
  6
CONTINUOUS
 10
164.567505
 20
274.252502
 11
164.567505
 21
272.252502
  0
LINE
  8
0
  6
CONTINUOUS
 10
181.567505
 20
274.252502
 11
181.567505
 21
272.252502
  0
LINE
  8
0
  6
CONTINUOUS
 10
182.567505
 20
279.752502
 11
182.567505
 21
301.252502
  0
LINE
  8
0
  6
CONTINUOUS
 10
180.138504
 20
279.752502
 11
180.138504
 21
301.252502
  0
LINE
  8
0
  6
CONTINUOUS
 10
180.138504
 20
279.752502
 11
182.567505
 21
279.752502
  0
LINE
  8
0
  6
CONTINUOUS
 10
180.567505
 20
279.752502
 11
180.567505
 21
274.252502
  0
LINE
  8
0
  6
CONTINUOUS
 10
188.067505
 20
207.252502
 11
188.067505
 21
266.287415
  0
LINE
  8
0
  6
CONTINUOUS
 10
158.067505
 20
207.252502
 11
158.067505
 21
266.287415
  0
LINE
  8
0
  6
CONTINUOUS
 10
130.358078
 20
260.255249
 11
130.516495
 21
266.304840
  0
LINE
  8
0
  6
CONTINUOUS
 10
134.842117
 20
207.433746
 11
134.842117
 21
258.252777
  0
LINE
  8
0
  6
CONTINUOUS
 10
130.567505
 20
197.252502
 11
215.567505
 21
197.252502
  0
LINE
  8
0
  6
CONTINUOUS
 10
213.759293
 20
266.304840
 11
215.567505
 21
197.252502
  0
ARC
  8
0
  6
CONTINUOUS
 10
211.759979
 20
266.252502
 40
2.000000
 50
1.500000
 51
90.000000
  0
LINE
  8
0
  6
CONTINUOUS
 10
129.520065
 20
237.252502
 11
130.567505
 21
197.252502
  0
LINE
  8
0
  6
CONTINUOUS
 10
212.990204
 20
197.252502
 11
212.990204
 21
204.942184
  0
LINE
  8
0
  6
CONTINUOUS
 10
133.144806
 20
197.252502
 11
133.144806
 21
204.942184
  0
ARC
  8
0
  6
CONTINUOUS
 10
157.067505
 20
207.252502
 40
1.000000
 50
-90.000000
 51
0.000000
  0
ARC
  8
0
  6
CONTINUOUS
 10
189.067505
 20
207.252502
 40
1.000000
 50
180.000000
 51
270.000000
  0
LINE
  8
0
  6
CONTINUOUS
 10
158.067505
 20
207.572495
 11
188.067505
 21
207.572495
  0
ARC
  8
0
  6
CONTINUOUS
 10
214.357666
 20
205.252502
 40
1.000000
 50
1.499998
 51
90.000000
  0
LINE
  8
0
  6
CONTINUOUS
 10
130.435196
 20
273.304840
 11
130.516495
 21
270.200134
  0
ARC
  8
0
  6
CONTINUOUS
 10
131.358353
 20
205.252502
 40
1.000000
 50
90.000000
 51
181.500000
  0
ARC
  8
0
  6
CONTINUOUS
 10
129.053894
 20
197.752502
 40
1.500000
 50
1.499999
 51
90.000000
  0
ARC
  8
0
  6
CONTINUOUS
 10
128.435883
 20
273.252502
 40
2.000000
 50
1.500000
 51
90.000000
  0
ARC
  8
0
  6
CONTINUOUS
 10
132.515808
 20
270.252502
 40
2.000000
 50
181.500000
 51
270.000000
  0
ARC
  8
0
  6
CONTINUOUS
 10
132.515808
 20
266.252502
 40
2.000000
 50
90.000000
 51
178.500000
  0
LINE
  8
0
  6
CENTER
 10
205.067505
 20
193.362350
 11
205.067505
 21
210.503128
  0
LINE
  8
0
  6
DASHED
 10
208.317505
 20
206.252502
 11
208.317505
 21
197.252502
  0
LINE
  8
0
  6
DASHED
 10
201.817505
 20
206.252502
 11
201.817505
 21
197.252502
  0
LINE
  8
0
  6
CENTER
 10
141.067505
 20
193.362350
 11
141.067505
 21
210.503128
  0
LINE
  8
0
  6
DASHED
 10
137.817505
 20
206.252502
 11
137.817505
 21
197.252502
  0
LINE
  8
0
  6
DASHED
 10
144.317505
 20
206.252502
 11
144.317505
 21
197.252502
  0
LINE
  8
0
  6
CONTINUOUS
 10
165.567505
 20
173.252502
 11
165.567505
 21
197.252502
  0
LINE
  8
0
  6
CONTINUOUS
 10
165.567505
 20
173.252502
 11
182.567505
 21
173.252502
  0
LINE
  8
0
  6
CONTINUOUS
 10
182.567505
 20
194.752502
 11
182.567505
 21
173.252502
  0
LINE
  8
0
  6
CONTINUOUS
 10
180.138504
 20
194.752502
 11
180.138504
 21
173.252502
  0
LINE
  8
0
  6
CONTINUOUS
 10
180.138504
 20
194.752502
 11
182.567505
 21
194.752502
  0
LINE
  8
0
  6
CONTINUOUS
 10
180.567505
 20
194.752502
 11
180.567505
 21
197.252502
  0
LINE
  8
0
  6
CENTER
 10
348.067505
 20
-8.715935
 11
348.067505
 21
105.784065
  0
LINE
  8
0
  6
CONTINUOUS
 10
379.067505
 20
7.219494
 11
379.067505
 21
93.306160
  0
LINE
  8
0
  6
CONTINUOUS
 10
383.067505
 20
44.271561
 11
383.067505
 21
82.271561
  0
LINE
  8
0
  6
CENTER
 10
279.268341
 20
63.271564
 11
417.185852
 21
63.271564
  0
LINE
  8
0
  6
CONTINUOUS
 10
382.067505
 20
83.271561
 11
381.067505
 21
83.271561
  0
LINE
  8
0
  6
CONTINUOUS
 10
382.067505
 20
43.271561
 11
381.067505
 21
43.271561
  0
LINE
  8
0
  6
CONTINUOUS
 10
377.102386
 20
95.305862
 11
319.032593
 21
96.319244
  0
LINE
  8
0
  6
CONTINUOUS
 10
377.102386
 20
5.219794
 11
319.032593
 21
4.205974
  0
ARC
  8
0
  6
CONTINUOUS
 10
377.067505
 20
93.306152
 40
2.000000
 50
0.000000
 51
89.000359
  0
ARC
  8
0
  6
CONTINUOUS
 10
377.067505
 20
7.219484
 40
2.000000
 50
-88.999634
 51
0.000000
  0
ARC
  8
0
  6
CONTINUOUS
 10
382.067505
 20
82.271561
 40
1.000000
 50
0.000000
 51
90.000000
  0
ARC
  8
0
  6
CONTINUOUS
 10
382.067505
 20
44.271561
 40
1.000000
 50
-90.000000
 51
0.000000
  0
LINE
  8
0
  6
CONTINUOUS
 10
317.067505
 20
21.571585
 11
317.067505
 21
0.771564
  0
LINE
  8
0
  6
CONTINUOUS
 10
308.067505
 20
101.271561
 11
315.916504
 21
101.271561
  0
LINE
  8
0
  6
CONTINUOUS
 10
315.532806
 20
-0.728436
 11
308.067505
 21
-0.728436
  0
LINE
  8
0
  6
CONTINUOUS
 10
320.568512
 20
75.971565
 11
377.098785
 21
75.971565
  0
LINE
  8
0
  6
CONTINUOUS
 10
320.067505
 20
24.571564
 11
377.630005
 21
24.571564
  0
ARC
  8
0
  6
CONTINUOUS
 10
315.567505
 20
0.771564
 40
1.500000
 50
-90.000000
 51
0.000000
  0
LINE
  8
0
  6
CONTINUOUS
 10
317.365387
 20
100.159782
 11
317.805206
 21
98.518425
  0
ARC
  8
0
  6
CONTINUOUS
 10
320.700592
 20
99.290604
 40
3.000000
 50
194.932602
 51
269.000610
  0
ARC
  8
0
  6
CONTINUOUS
 10
315.916504
 20
99.771561
 40
1.500000
 50
15.000070
 51
90.000000
  0
ARC
  8
0
  6
CONTINUOUS
 10
320.067505
 20
21.571585
 40
3.000000
 50
90.000000
 51
180.000000
  0
ARC
  8
0
  6
CONTINUOUS
 10
381.067505
 20
85.271561
 40
2.000000
 50
180.000000
 51
270.000000
  0
ARC
  8
0
  6
CONTINUOUS
 10
381.067505
 20
41.271572
 40
2.000000
 50
90.000000
 51
180.000000
  0
LINE
  8
0
  6
CONTINUOUS
 10
385.067505
 20
70.771561
 11
412.067505
 21
70.771561
  0
LINE
  8
0
  6
CONTINUOUS
 10
385.067505
 20
55.771564
 11
412.067505
 21
55.771564
  0
LINE
  8
0
  6
CONTINUOUS
 10
412.067505
 20
55.771564
 11
412.067505
 21
70.771561
  0
LINE
  8
0
  6
CONTINUOUS
 10
390.567505
 20
60.771564
 11
412.067505
 21
60.771564
  0
LINE
  8
0
  6
CONTINUOUS
 10
390.567505
 20
65.771561
 11
412.067505
 21
65.771561
  0
ARC
  8
0
  6
CONTINUOUS
 10
390.567505
 20
63.271572
 40
2.500000
 50
90.000000
 51
180.000000
  0
ARC
  8
0
  6
CONTINUOUS
 10
390.567505
 20
63.271564
 40
2.500000
 50
180.000000
 51
270.000000
  0
LINE
  8
0
  6
CENTER
 10
304.348816
 20
93.271561
 11
320.598816
 21
93.271561
  0
LINE
  8
0
  6
CENTER
 10
305.348816
 20
7.271564
 11
320.348816
 21
7.271564
  0
LINE
  8
0
  6
DASHED
 10
308.067505
 20
10.521564
 11
317.067505
 21
10.521564
  0
LINE
  8
0
  6
DASHED
 10
308.067505
 20
4.021564
 11
317.067505
 21
4.021564
  0
LINE
  8
0
  6
DASHED
 10
308.067505
 20
96.521561
 11
317.067505
 21
96.521561
  0
LINE
  8
0
  6
DASHED
 10
308.067505
 20
90.021561
 11
317.067505
 21
90.021561
  0
LINE
  8
0
  6
CONTINUOUS
 10
327.067505
 20
2.971564
 11
369.067505
 21
2.971564
  0
ARC
  8
0
  6
CONTINUOUS
 10
369.067505
 20
4.971564
 40
2.000000
 50
-90.000000
 51
0.000000
  0
ARC
  8
0
  6
CONTINUOUS
 10
327.067505
 20
4.971564
 40
2.000000
 50
199.216690
 51
270.000000
  0
LINE
  8
0
  6
CONTINUOUS
 10
371.067505
 20
4.971564
 11
371.067505
 21
5.114433
  0
LINE
  8
0
  6
CONTINUOUS
 10
313.067505
 20
44.271561
 11
313.067505
 21
82.271561
  0
LINE
  8
0
  6
CONTINUOUS
 10
314.067505
 20
43.271561
 11
317.067505
 21
43.271561
  0
ARC
  8
0
  6
CONTINUOUS
 10
314.067505
 20
82.271561
 40
1.000000
 50
90.000000
 51
180.000000
  0
ARC
  8
0
  6
CONTINUOUS
 10
314.067505
 20
44.271561
 40
1.000000
 50
180.000000
 51
270.000000
  0
LINE
  8
0
  6
CONTINUOUS
 10
311.067505
 20
70.771561
 11
284.067505
 21
70.771561
  0
LINE
  8
0
  6
CONTINUOUS
 10
311.067505
 20
55.771564
 11
284.067505
 21
55.771564
  0
LINE
  8
0
  6
CONTINUOUS
 10
284.067505
 20
55.771564
 11
284.067505
 21
70.771561
  0
LINE
  8
0
  6
CONTINUOUS
 10
311.067505
 20
71.771561
 11
311.067505
 21
54.771564
  0
LINE
  8
0
  6
CONTINUOUS
 10
305.567505
 20
60.771564
 11
284.067505
 21
60.771564
  0
LINE
  8
0
  6
CONTINUOUS
 10
305.567505
 20
65.771561
 11
284.067505
 21
65.771561
  0
ARC
  8
0
  6
CONTINUOUS
 10
305.567505
 20
63.271572
 40
2.500000
 50
0.000000
 51
90.000000
  0
ARC
  8
0
  6
CONTINUOUS
 10
305.567505
 20
63.271564
 40
2.500000
 50
-90.000000
 51
0.000000
  0
LINE
  8
0
  6
CONTINUOUS
 10
308.067505
 20
-0.728436
 11
308.067505
 21
55.771564
  0
LINE
  8
0
  6
CONTINUOUS
 10
308.067505
 20
101.271561
 11
308.067505
 21
70.771561
  0
LINE
  8
0
  6
CONTINUOUS
 10
314.067505
 20
83.271561
 11
317.067505
 21
83.271561
  0
LINE
  8
0
  6
CONTINUOUS
 10
385.067505
 20
71.771561
 11
385.067505
 21
54.771564
  0
LINE
  8
0
  6
CENTER
 10
301.681793
 20
40.971561
 11
389.804993
 21
40.971561
  0
LINE
  8
0
  6
CONTINUOUS
 10
317.067505
 20
100.733444
 11
317.067505
 21
39.608883
  0
LINE
  8
0
  6
CONTINUOUS
 10
383.067505
 20
71.771561
 11
385.067505
 21
71.771561
  0
LINE
  8
0
  6
CONTINUOUS
 10
383.067505
 20
54.771564
 11
385.067505
 21
54.771564
  0
LINE
  8
0
  6
CONTINUOUS
 10
311.067505
 20
71.771561
 11
313.067505
 21
71.771561
  0
LINE
  8
0
  6
CONTINUOUS
 10
311.067505
 20
54.771564
 11
313.067505
 21
54.771564
  0
ARC
  8
0
  6
CONTINUOUS
 10
319.067505
 20
98.318939
 40
2.000000
 50
180.000000
 51
269.000610
  0
ARC
  8
0
  6
CONTINUOUS
 10
319.067505
 20
2.206294
 40
2.000000
 50
91.000641
 51
180.000000
  0
LINE
  8
0
  6
CONTINUOUS
 10
317.464691
 20
0.753924
 11
317.801514
 21
2.011054
  0
ARC
  8
0
  6
CONTINUOUS
 10
315.532806
 20
1.271564
 40
2.000000
 50
270.000000
 51
345.000092
  0
ARC
  8
0
  6
CONTINUOUS
 10
320.699310
 20
1.234634
 40
3.000000
 50
91.000488
 51
165.000397
  0
LINE
  8
0
  6
DASHED
 10
369.102386
 20
78.604408
 11
348.067505
 21
78.971558
  0
ARC
  8
0
  6
DASHED
 10
369.067505
 20
76.604698
 40
2.000000
 50
0.000000
 51
89.000137
  0
LINE
  8
0
  6
DASHED
 10
325.067505
 20
76.604698
 11
325.067505
 21
72.673294
  0
LINE
  8
0
  6
DASHED
 10
327.032593
 20
78.604408
 11
348.067505
 21
78.971558
  0
ARC
  8
0
  6
DASHED
 10
327.067505
 20
76.604698
 40
2.000000
 50
90.999863
 51
180.000000
  0
LINE
  8
0
  6
DASHED
 10
325.067505
 20
4.971564
 11
325.067505
 21
9.269829
  0
ARC
  8
0
  6
DASHED
 10
327.067505
 20
4.971564
 40
2.000000
 50
180.000000
 51
199.216690
  0
ARC
  8
0
  6
DASHED
 10
348.067505
 20
40.971561
 40
38.000000
 50
129.356705
 51
230.643295
  0
ARC
  8
0
  6
CONTINUOUS
 10
348.067505
 20
40.971561
 40
38.000000
 50
-35.334499
 51
21.294262
  0
LINE
  8
0
  6
DASHED
 10
371.067505
 20
5.114433
 11
371.067505
 21
9.269829
  0
ARC
  8
0
  6
DASHED
 10
348.067505
 20
40.971561
 40
38.000000
 50
-50.643299
 51
-35.334499
  0
ARC
  8
0
  6
DASHED
 10
348.067505
 20
40.971561
 40
38.000000
 50
21.294262
 51
50.643299
  0
LINE
  8
0
  6
DASHED
 10
371.067505
 20
76.604698
 11
371.067505
 21
72.673294
  0
ARC
  8
0
  6
DASHED
 10
322.067505
 20
72.673294
 40
3.000000
 50
-50.643299
 51
0.000000
  0
ARC
  8
0
  6
DASHED
 10
374.067505
 20
72.673294
 40
3.000000
 50
180.000000
 51
230.643295
  0
ARC
  8
0
  6
DASHED
 10
374.067505
 20
9.269829
 40
3.000000
 50
129.356705
 51
180.000000
  0
ARC
  8
0
  6
DASHED
 10
322.067505
 20
9.269829
 40
3.000000
 50
0.000000
 51
50.643299
  0
LINE
  8
0
  6
CONTINUOUS
 10
325.067505
 20
95.971565
 11
325.067505
 21
98.454987
  0
LINE
  8
0
  6
CONTINUOUS
 10
370.817505
 20
96.471565
 11
370.817505
 21
97.910767
  0
LINE
  8
0
  6
CONTINUOUS
 10
365.317505
 20
96.471359
 11
365.317505
 21
97.910767
  0
LINE
  8
0
  6
CONTINUOUS
 10
370.817505
 20
97.171562
 11
365.317505
 21
97.171562
  0
ARC
  8
0
  6
CONTINUOUS
 10
368.067505
 20
92.171562
 40
7.000000
 50
73.041977
 51
106.956497
  0
ARC
  8
0
  6
CONTINUOUS
 10
366.317505
 20
97.910767
 40
1.000000
 50
106.956902
 51
180.000000
  0
ARC
  8
0
  6
CONTINUOUS
 10
369.817505
 20
97.910767
 40
1.000000
 50
0.000000
 51
73.041847
  0
LINE
  8
0
  6
DASHED
 10
370.567505
 20
91.471565
 11
370.567505
 21
92.471565
  0
LINE
  8
0
  6
CONTINUOUS
 10
371.067505
 20
95.411179
 11
371.067505
 21
98.454987
  0
LINE
  8
0
  6
CONTINUOUS
 10
370.817505
 20
96.471565
 11
365.067505
 21
96.471565
  0
LINE
  8
0
  6
DASHED
 10
325.567505
 20
91.471565
 11
325.567505
 21
92.471565
  0
ARC
  8
0
  6
CONTINUOUS
 10
348.067505
 20
91.971565
 40
6.000000
 50
38.797073
 51
139.203384
  0
LINE
  8
0
  6
CONTINUOUS
 10
364.567505
 20
98.958031
 11
364.567505
 21
96.971565
  0
ARC
  8
0
  6
CONTINUOUS
 10
348.067505
 20
-150.028412
 40
250.000000
 50
84.826019
 51
95.173981
  0
ARC
  8
0
  6
CONTINUOUS
 10
370.567505
 20
98.454987
 40
0.500000
 50
0.000000
 51
84.826019
  0
ARC
  8
0
  6
CONTINUOUS
 10
364.067505
 20
98.958031
 40
0.500000
 50
0.000000
 51
86.323196
  0
ARC
  8
0
  6
CONTINUOUS
 10
370.567505
 20
95.971565
 40
0.500000
 50
0.000000
 51
90.000000
  0
ARC
  8
0
  6
CONTINUOUS
 10
365.067505
 20
96.971565
 40
0.500000
 50
180.000000
 51
270.000000
  0
LINE
  8
0
  6
CONTINUOUS
 10
325.317505
 20
96.471565
 11
325.317505
 21
97.910767
  0
LINE
  8
0
  6
CONTINUOUS
 10
330.817505
 20
96.471359
 11
330.817505
 21
97.910767
  0
LINE
  8
0
  6
CONTINUOUS
 10
325.317505
 20
97.171562
 11
330.817505
 21
97.171562
  0
ARC
  8
0
  6
CONTINUOUS
 10
328.067505
 20
92.171562
 40
7.000000
 50
73.043503
 51
106.958023
  0
ARC
  8
0
  6
CONTINUOUS
 10
329.817505
 20
97.910767
 40
1.000000
 50
0.000000
 51
73.043098
  0
ARC
  8
0
  6
CONTINUOUS
 10
326.317505
 20
97.910767
 40
1.000000
 50
106.958153
 51
180.000000
  0
LINE
  8
0
  6
CONTINUOUS
 10
325.317505
 20
96.471565
 11
331.067505
 21
96.471565
  0
LINE
  8
0
  6
CONTINUOUS
 10
331.567505
 20
98.958031
 11
331.567505
 21
96.971565
  0
ARC
  8
0
  6
CONTINUOUS
 10
325.567505
 20
98.454987
 40
0.500000
 50
95.173981
 51
180.000000
  0
ARC
  8
0
  6
CONTINUOUS
 10
332.067505
 20
98.958031
 40
0.500000
 50
93.676804
 51
180.000000
  0
ARC
  8
0
  6
CONTINUOUS
 10
325.567505
 20
95.971565
 40
0.500000
 50
90.000000
 51
180.000000
  0
ARC
  8
0
  6
CONTINUOUS
 10
331.067505
 20
96.971565
 40
0.500000
 50
-90.000000
 51
0.000000
  0
LINE
  8
0
  6
DASHED
 10
371.067505
 20
91.471565
 11
371.067505
 21
76.604698
  0
LINE
  8
0
  6
DASHED
 10
325.067505
 20
91.471565
 11
325.067505
 21
76.604698
  0
LINE
  8
0
  6
DASHED
 10
370.567505
 20
92.471565
 11
371.067505
 21
92.471565
  0
LINE
  8
0
  6
DASHED
 10
370.567505
 20
91.471565
 11
371.067505
 21
91.471565
  0
LINE
  8
0
  6
DASHED
 10
325.567505
 20
92.471565
 11
325.067505
 21
92.471565
  0
LINE
  8
0
  6
DASHED
 10
325.567505
 20
91.471565
 11
325.067505
 21
91.471565
  0
LINE
  8
0
  6
DASHED
 10
371.067505
 20
95.411179
 11
371.067505
 21
92.471565
  0
LINE
  8
0
  6
DASHED
 10
325.067505
 20
95.971565
 11
325.067505
 21
92.471565
  0
LINE
  8
0
  6
CONTINUOUS
 10
305.567505
 20
65.771561
 11
305.567505
 21
60.771564
  0
LINE
  8
0
  6
CONTINUOUS
 10
390.567505
 20
65.771561
 11
390.567505
 21
60.771564
  0
LINE
  8
0
  6
CENTER
 10
40.567501
 20
266.733124
 11
40.567501
 21
209.716003
  0
LINE
  8
0
  6
CONTINUOUS
 10
58.067501
 20
199.252502
 11
58.067501
 21
275.252502
  0
LINE
  8
0
  6
CONTINUOUS
 10
33.067501
 20
273.548401
 11
33.067501
 21
260.252502
  0
LINE
  8
0
  6
CONTINUOUS
 10
33.067501
 20
200.956604
 11
33.067501
 21
214.252502
  0
LINE
  8
0
  6
CONTINUOUS
 10
35.067200
 20
199.654007
 11
58.067501
 21
199.252502
  0
LINE
  8
0
  6
CONTINUOUS
 10
33.809101
 20
199.990601
 11
35.067200
 21
199.654007
  0
ARC
  8
0
  6
CONTINUOUS
 10
34.067501
 20
200.956604
 40
1.000000
 50
180.000000
 51
255.025604
  0
LINE
  8
0
  6
CONTINUOUS
 10
35.067200
 20
274.850891
 11
58.067501
 21
275.252502
  0
LINE
  8
0
  6
CONTINUOUS
 10
33.809101
 20
274.514404
 11
35.067200
 21
274.850891
  0
ARC
  8
0
  6
CONTINUOUS
 10
34.067501
 20
273.548401
 40
1.000000
 50
-255.025604
 51
-180.000000
  0
LINE
  8
0
  6
CONTINUOUS
 10
25.567400
 20
216.252502
 11
25.567400
 21
258.252502
  0
LINE
  8
0
  6
CONTINUOUS
 10
55.567501
 20
258.252502
 11
55.567501
 21
216.252502
  0
LINE
  8
0
  6
CONTINUOUS
 10
57.567501
 20
242.252502
 11
57.567501
 21
232.252502
  0
LINE
  8
0
  6
CONTINUOUS
 10
23.567499
 20
242.252502
 11
23.567499
 21
232.252502
  0
ARC
  8
0
  6
CONTINUOUS
 10
28.567499
 20
217.252502
 40
3.500000
 50
0.000000
 51
90.000000
  0
LINE
  8
0
  6
CONTINUOUS
 10
26.567400
 20
220.752502
 11
28.567499
 21
220.752502
  0
LINE
  8
0
  6
CONTINUOUS
 10
32.067501
 20
215.252502
 11
32.067501
 21
217.252502
  0
ARC
  8
0
  6
CONTINUOUS
 10
26.567400
 20
221.752502
 40
1.000000
 50
180.000000
 51
270.000000
  0
ARC
  8
0
  6
CONTINUOUS
 10
52.567501
 20
217.252502
 40
3.500000
 50
90.000000
 51
180.000000
  0
LINE
  8
0
  6
CONTINUOUS
 10
49.067501
 20
215.252502
 11
49.067501
 21
217.252502
  0
LINE
  8
0
  6
CONTINUOUS
 10
54.567600
 20
220.752502
 11
52.567501
 21
220.752502
  0
ARC
  8
0
  6
CONTINUOUS
 10
54.567600
 20
221.752502
 40
1.000000
 50
-90.000000
 51
0.000000
  0
LINE
  8
0
  6
CONTINUOUS
 10
53.567501
 20
214.252502
 11
27.567400
 21
214.252502
  0
ARC
  8
0
  6
CONTINUOUS
 10
48.067501
 20
215.252502
 40
1.000000
 50
-90.000000
 51
0.000000
  0
ARC
  8
0
  6
CONTINUOUS
 10
33.067501
 20
215.252502
 40
1.000000
 50
180.000000
 51
270.000000
  0
ARC
  8
0
  6
CONTINUOUS
 10
27.567400
 20
216.252502
 40
2.000000
 50
180.000000
 51
270.000000
  0
ARC
  8
0
  6
CONTINUOUS
 10
53.567501
 20
216.252502
 40
2.000000
 50
-90.000000
 51
0.000000
  0
ARC
  8
0
  6
CONTINUOUS
 10
28.567499
 20
257.252502
 40
3.500000
 50
-90.000000
 51
0.000000
  0
LINE
  8
0
  6
CONTINUOUS
 10
26.567400
 20
253.752502
 11
28.567499
 21
253.752502
  0
LINE
  8
0
  6
CONTINUOUS
 10
32.067501
 20
259.252502
 11
32.067501
 21
257.252502
  0
ARC
  8
0
  6
CONTINUOUS
 10
26.567400
 20
252.752502
 40
1.000000
 50
-270.000000
 51
-180.000000
  0
ARC
  8
0
  6
CONTINUOUS
 10
52.567501
 20
257.252502
 40
3.500000
 50
-180.000000
 51
-90.000000
  0
LINE
  8
0
  6
CONTINUOUS
 10
49.067501
 20
259.252502
 11
49.067501
 21
257.252502
  0
LINE
  8
0
  6
CONTINUOUS
 10
54.567600
 20
253.752502
 11
52.567501
 21
253.752502
  0
ARC
  8
0
  6
CONTINUOUS
 10
54.567600
 20
252.752502
 40
1.000000
 50
0.000000
 51
90.000000
  0
LINE
  8
0
  6
CONTINUOUS
 10
53.567501
 20
260.252502
 11
27.567400
 21
260.252502
  0
ARC
  8
0
  6
CONTINUOUS
 10
48.067501
 20
259.252502
 40
1.000000
 50
0.000000
 51
90.000000
  0
ARC
  8
0
  6
CONTINUOUS
 10
33.067501
 20
259.252502
 40
1.000000
 50
-270.000000
 51
-180.000000
  0
ARC
  8
0
  6
CONTINUOUS
 10
27.567400
 20
258.252502
 40
2.000000
 50
-270.000000
 51
-180.000000
  0
ARC
  8
0
  6
CONTINUOUS
 10
53.567501
 20
258.252502
 40
2.000000
 50
0.000000
 51
90.000000
  0
LINE
  8
0
  6
CONTINUOUS
 10
25.067499
 20
243.252502
 11
24.567499
 21
243.252502
  0
ARC
  8
0
  6
CONTINUOUS
 10
24.567499
 20
242.252502
 40
1.000000
 50
90.000000
 51
180.000000
  0
ARC
  8
0
  6
CONTINUOUS
 10
25.067499
 20
243.752502
 40
0.500000
 50
-90.000000
 51
0.000000
  0
LINE
  8
0
  6
CONTINUOUS
 10
25.067499
 20
231.252502
 11
24.567499
 21
231.252502
  0
ARC
  8
0
  6
CONTINUOUS
 10
24.567499
 20
232.252502
 40
1.000000
 50
-180.000000
 51
-90.000000
  0
ARC
  8
0
  6
CONTINUOUS
 10
25.067499
 20
230.752502
 40
0.500000
 50
0.000000
 51
90.000000
  0
LINE
  8
0
  6
CONTINUOUS
 10
56.067501
 20
243.252502
 11
56.567501
 21
243.252502
  0
ARC
  8
0
  6
CONTINUOUS
 10
56.567501
 20
242.252502
 40
1.000000
 50
0.000000
 51
90.000000
  0
ARC
  8
0
  6
CONTINUOUS
 10
56.067501
 20
243.752502
 40
0.500000
 50
180.000000
 51
270.000000
  0
LINE
  8
0
  6
CONTINUOUS
 10
56.067501
 20
231.252502
 11
56.567501
 21
231.252502
  0
ARC
  8
0
  6
CONTINUOUS
 10
56.567501
 20
232.252502
 40
1.000000
 50
-90.000000
 51
0.000000
  0
ARC
  8
0
  6
CONTINUOUS
 10
56.067501
 20
230.752502
 40
0.500000
 50
90.000000
 51
180.000000
  0
LINE
  8
0
  6
CONTINUOUS
 10
53.945187
 20
260.216522
 11
58.067501
 21
260.252502
  0
LINE
  8
0
  6
CONTINUOUS
 10
53.945187
 20
214.288483
 11
58.067501
 21
214.252502
  0
LINE
  8
0
  6
CONTINUOUS
 10
30.317499
 20
217.652496
 11
30.317499
 21
216.852478
  0
LINE
  8
0
  6
CONTINUOUS
 10
28.167477
 20
219.002502
 11
28.967493
 21
219.002502
  0
LINE
  8
0
  6
CONTINUOUS
 10
28.167477
 20
215.502502
 11
28.967493
 21
215.502502
  0
LINE
  8
0
  6
CONTINUOUS
 10
26.817499
 20
217.652496
 11
26.817499
 21
216.852478
  0
CIRCLE
  8
0
  6
CONTINUOUS
 10
28.567499
 20
217.252502
 40
2.750000
  0
ARC
  8
0
  6
CONTINUOUS
 10
26.817499
 20
219.002502
 40
1.350000
 50
-90.000000
 51
0.000000
  0
ARC
  8
0
  6
CONTINUOUS
 10
26.817499
 20
215.502502
 40
1.350000
 50
0.000000
 51
90.000000
  0
ARC
  8
0
  6
CONTINUOUS
 10
30.317499
 20
219.002502
 40
1.350000
 50
180.000000
 51
270.000000
  0
ARC
  8
0
  6
CONTINUOUS
 10
30.317499
 20
215.502502
 40
1.350000
 50
90.000000
 51
180.000000
  0
LINE
  8
0
  6
CONTINUOUS
 10
54.317501
 20
217.652496
 11
54.317501
 21
216.852478
  0
LINE
  8
0
  6
CONTINUOUS
 10
52.167477
 20
219.002502
 11
52.967495
 21
219.002502
  0
LINE
  8
0
  6
CONTINUOUS
 10
52.167477
 20
215.502502
 11
52.967495
 21
215.502502
  0
LINE
  8
0
  6
CONTINUOUS
 10
50.817501
 20
217.652496
 11
50.817501
 21
216.852478
  0
CIRCLE
  8
0
  6
CONTINUOUS
 10
52.567501
 20
217.252502
 40
2.750000
  0
ARC
  8
0
  6
CONTINUOUS
 10
50.817501
 20
219.002502
 40
1.350000
 50
-90.000000
 51
0.000000
  0
ARC
  8
0
  6
CONTINUOUS
 10
50.817501
 20
215.502502
 40
1.350000
 50
0.000000
 51
90.000000
  0
ARC
  8
0
  6
CONTINUOUS
 10
54.317501
 20
219.002502
 40
1.350000
 50
180.000000
 51
270.000000
  0
ARC
  8
0
  6
CONTINUOUS
 10
54.317501
 20
215.502502
 40
1.350000
 50
90.000000
 51
180.000000
  0
LINE
  8
0
  6
CONTINUOUS
 10
54.317501
 20
257.652496
 11
54.317501
 21
256.852478
  0
LINE
  8
0
  6
CONTINUOUS
 10
52.167477
 20
259.002502
 11
52.967495
 21
259.002502
  0
LINE
  8
0
  6
CONTINUOUS
 10
52.167477
 20
255.502502
 11
52.967495
 21
255.502502
  0
LINE
  8
0
  6
CONTINUOUS
 10
50.817501
 20
257.652496
 11
50.817501
 21
256.852478
  0
CIRCLE
  8
0
  6
CONTINUOUS
 10
52.567501
 20
257.252502
 40
2.750000
  0
ARC
  8
0
  6
CONTINUOUS
 10
50.817501
 20
259.002502
 40
1.350000
 50
-90.000000
 51
0.000000
  0
ARC
  8
0
  6
CONTINUOUS
 10
50.817501
 20
255.502502
 40
1.350000
 50
0.000000
 51
90.000000
  0
ARC
  8
0
  6
CONTINUOUS
 10
54.317501
 20
259.002502
 40
1.350000
 50
180.000000
 51
270.000000
  0
ARC
  8
0
  6
CONTINUOUS
 10
54.317501
 20
255.502502
 40
1.350000
 50
90.000000
 51
180.000000
  0
LINE
  8
0
  6
CONTINUOUS
 10
30.317499
 20
257.652496
 11
30.317499
 21
256.852478
  0
LINE
  8
0
  6
CONTINUOUS
 10
28.167477
 20
259.002502
 11
28.967493
 21
259.002502
  0
LINE
  8
0
  6
CONTINUOUS
 10
28.167477
 20
255.502502
 11
28.967493
 21
255.502502
  0
LINE
  8
0
  6
CONTINUOUS
 10
26.817499
 20
257.652496
 11
26.817499
 21
256.852478
  0
CIRCLE
  8
0
  6
CONTINUOUS
 10
28.567499
 20
257.252502
 40
2.750000
  0
ARC
  8
0
  6
CONTINUOUS
 10
26.817499
 20
259.002502
 40
1.350000
 50
-90.000000
 51
0.000000
  0
ARC
  8
0
  6
CONTINUOUS
 10
26.817499
 20
255.502502
 40
1.350000
 50
0.000000
 51
90.000000
  0
ARC
  8
0
  6
CONTINUOUS
 10
30.317499
 20
259.002502
 40
1.350000
 50
180.000000
 51
270.000000
  0
ARC
  8
0
  6
CONTINUOUS
 10
30.317499
 20
255.502502
 40
1.350000
 50
90.000000
 51
180.000000
  0
LINE
  8
0
  6
CONTINUOUS
 10
8.418820
 20
233.402496
 11
23.567619
 21
233.402496
  0
LINE
  8
0
  6
CONTINUOUS
 10
9.270620
 20
241.102493
 11
8.534820
 21
238.267395
  0
LINE
  8
0
  6
CONTINUOUS
 10
8.534820
 20
238.267395
 11
9.346920
 21
235.792404
  0
LINE
  8
0
  6
CONTINUOUS
 10
9.346920
 20
235.792404
 11
8.418820
 21
233.402496
  0
LINE
  8
0
  6
CONTINUOUS
 10
9.270620
 20
241.102493
 11
23.567619
 21
241.102493
  0
LINE
  8
0
  6
CONTINUOUS
 10
5.311598
 20
268.025696
 11
26.809536
 21
268.588623
  0
LINE
  8
0
  6
CONTINUOUS
 10
1.567500
 20
265.564697
 11
1.567500
 21
208.940323
  0
LINE
  8
0
  6
CONTINUOUS
 10
2.935044
 20
267.462036
 11
3.861344
 21
267.770813
  0
ARC
  8
0
  6
CONTINUOUS
 10
5.442483
 20
263.027405
 40
5.000000
 50
91.500000
 51
108.434952
  0
ARC
  8
0
  6
CONTINUOUS
 10
3.567500
 20
265.564697
 40
2.000000
 50
108.434952
 51
180.000000
  0
LINE
  8
0
  6
CONTINUOUS
 10
2.935044
 20
207.042953
 11
3.861344
 21
206.734177
  0
ARC
  8
0
  6
CONTINUOUS
 10
5.442483
 20
211.477600
 40
5.000000
 50
-108.434952
 51
-91.500000
  0
ARC
  8
0
  6
CONTINUOUS
 10
3.567500
 20
208.940323
 40
2.000000
 50
-180.000000
 51
-108.434952
  0
LINE
  8
0
  6
CONTINUOUS
 10
5.311598
 20
206.479309
 11
26.809536
 21
205.916367
  0
LINE
  8
0
  6
CONTINUOUS
 10
29.067499
 20
204.775391
 11
29.067499
 21
214.252502
  0
LINE
  8
0
  6
CONTINUOUS
 10
29.554417
 20
204.275558
 11
33.067501
 21
204.183594
  0
ARC
  8
0
  6
CONTINUOUS
 10
29.567499
 20
204.775391
 40
0.500000
 50
180.000000
 51
268.500519
  0
LINE
  8
0
  6
CONTINUOUS
 10
29.067499
 20
205.490601
 11
27.628229
 21
205.490601
  0
LINE
  8
0
  6
CONTINUOUS
 10
29.067499
 20
210.990601
 11
27.628229
 21
210.990601
  0
LINE
  8
0
  6
CONTINUOUS
 10
28.367428
 20
205.490601
 11
28.367428
 21
210.990601
  0
ARC
  8
0
  6
CONTINUOUS
 10
33.367428
 20
208.240601
 40
7.000000
 50
163.043503
 51
196.957993
  0
ARC
  8
0
  6
CONTINUOUS
 10
27.628229
 20
209.990601
 40
1.000000
 50
90.000000
 51
163.043106
  0
ARC
  8
0
  6
CONTINUOUS
 10
27.628229
 20
206.490601
 40
1.000000
 50
196.958099
 51
270.000000
  0
LINE
  8
0
  6
CONTINUOUS
 10
29.067499
 20
269.729614
 11
29.067499
 21
260.252502
  0
LINE
  8
0
  6
CONTINUOUS
 10
29.554417
 20
270.229431
 11
33.067501
 21
270.321411
  0
ARC
  8
0
  6
CONTINUOUS
 10
29.567499
 20
269.729614
 40
0.500000
 50
-268.500519
 51
-180.000000
  0
LINE
  8
0
  6
CONTINUOUS
 10
29.067499
 20
269.014404
 11
27.628229
 21
269.014404
  0
LINE
  8
0
  6
CONTINUOUS
 10
29.067499
 20
263.514404
 11
27.628229
 21
263.514404
  0
LINE
  8
0
  6
CONTINUOUS
 10
28.367428
 20
269.014404
 11
28.367428
 21
263.514404
  0
ARC
  8
0
  6
CONTINUOUS
 10
33.367428
 20
266.264404
 40
7.000000
 50
-196.957993
 51
-163.043503
  0
ARC
  8
0
  6
CONTINUOUS
 10
27.628229
 20
264.514404
 40
1.000000
 50
-163.043106
 51
-90.000000
  0
ARC
  8
0
  6
CONTINUOUS
 10
27.628229
 20
268.014404
 40
1.000000
 50
-270.000000
 51
-196.958099
  0
LINE
  8
0
  6
CONTINUOUS
 10
26.373055
 20
208.521210
 11
1.567500
 21
209.170792
  0
LINE
  8
0
  6
CONTINUOUS
 10
29.067499
 20
212.056290
 11
1.567500
 21
211.336166
  0
LINE
  8
0
  6
CONTINUOUS
 10
29.067499
 20
210.990601
 11
27.628229
 21
210.990601
  0
LINE
  8
0
  6
CONTINUOUS
 10
26.373055
 20
265.983795
 11
1.567500
 21
265.334198
  0
LINE
  8
0
  6
CONTINUOUS
 10
29.067499
 20
262.448700
 11
1.567500
 21
263.168823
  0
LINE
  8
0
  6
CONTINUOUS
 10
29.067499
 20
4.563376
 11
29.067499
 21
10.326307
  0
LINE
  8
0
  6
CONTINUOUS
 10
29.067499
 20
4.721563
 11
27.628229
 21
4.721563
  0
LINE
  8
0
  6
CONTINUOUS
 10
29.067499
 20
10.221563
 11
27.628229
 21
10.221563
  0
LINE
  8
0
  6
CONTINUOUS
 10
28.367428
 20
4.721563
 11
28.367428
 21
10.221563
  0
ARC
  8
0
  6
CONTINUOUS
 10
33.367428
 20
7.471563
 40
7.000000
 50
163.043503
 51
196.957993
  0
ARC
  8
0
  6
CONTINUOUS
 10
27.628229
 20
9.221563
 40
1.000000
 50
90.000000
 51
163.043106
  0
ARC
  8
0
  6
CONTINUOUS
 10
27.628229
 20
5.721563
 40
1.000000
 50
196.958099
 51
270.000000
  0
LINE
  8
0
  6
CONTINUOUS
 10
1.567500
 20
69.240547
 11
1.567500
 21
13.403483
  0
LINE
  8
0
  6
CONTINUOUS
 10
29.067499
 20
54.971561
 11
27.628229
 21
54.971561
  0
LINE
  8
0
  6
CONTINUOUS
 10
29.067499
 20
60.471561
 11
27.628229
 21
60.471561
  0
LINE
  8
0
  6
CONTINUOUS
 10
28.367428
 20
54.971561
 11
28.367428
 21
60.471561
  0
ARC
  8
0
  6
CONTINUOUS
 10
33.367428
 20
57.721561
 40
7.000000
 50
163.043503
 51
196.957993
  0
ARC
  8
0
  6
CONTINUOUS
 10
27.628229
 20
59.471561
 40
1.000000
 50
90.000000
 51
163.043106
  0
ARC
  8
0
  6
CONTINUOUS
 10
27.628229
 20
55.971561
 40
1.000000
 50
196.958099
 51
270.000000
  0
LINE
  8
0
  6
CONTINUOUS
 10
29.067499
 20
62.312843
 11
33.067501
 21
62.312843
  0
LINE
  8
0
  6
CONTINUOUS
 10
29.067499
 20
48.906544
 11
33.067501
 21
48.906544
  0
LINE
  8
0
  6
CONTINUOUS
 10
33.067501
 20
71.510498
 11
33.067501
 21
3.971553
  0
LINE
  8
0
  6
CONTINUOUS
 10
56.541290
 20
79.011543
 11
58.067501
 21
78.971565
  0
ARC
  8
0
  6
CONTINUOUS
 10
56.567501
 20
80.011169
 40
1.000000
 50
180.000000
 51
268.499908
  0
LINE
  8
0
  6
CONTINUOUS
 10
35.067196
 20
11.471563
 11
43.067501
 21
11.471563
  0
LINE
  8
0
  6
CONTINUOUS
 10
25.567619
 20
79.471565
 11
43.067501
 21
79.471565
  0
LINE
  8
0
  6
CONTINUOUS
 10
44.067501
 20
10.471563
 11
44.067501
 21
3.825153
  0
ARC
  8
0
  6
CONTINUOUS
 10
43.067501
 20
10.471563
 40
1.000000
 50
0.000000
 51
90.000000
  0
LINE
  8
0
  6
CONTINUOUS
 10
44.067501
 20
70.971565
 11
44.067501
 21
78.471565
  0
ARC
  8
0
  6
CONTINUOUS
 10
43.067501
 20
78.471565
 40
1.000000
 50
0.000000
 51
90.000000
  0
LINE
  8
0
  6
CONTINUOUS
 10
43.067501
 20
71.471565
 11
43.067501
 21
78.471565
  0
LINE
  8
0
  6
CONTINUOUS
 10
44.067501
 20
71.471565
 11
42.088497
 21
71.471565
  0
LINE
  8
0
  6
CONTINUOUS
 10
44.067501
 20
78.471565
 11
42.088497
 21
78.471565
  0
ARC
  8
0
  6
CONTINUOUS
 10
49.467491
 20
74.971565
 40
8.999999
 50
163.399002
 51
196.601501
  0
ARC
  8
0
  6
CONTINUOUS
 10
42.088497
 20
72.771584
 40
1.300000
 50
196.601593
 51
270.000000
  0
ARC
  8
0
  6
CONTINUOUS
 10
42.088497
 20
77.171570
 40
1.300000
 50
90.000000
 51
163.399094
  0
LINE
  8
0
  6
CONTINUOUS
 10
44.067501
 20
10.589633
 11
44.067501
 21
3.471563
  0
LINE
  8
0
  6
CONTINUOUS
 10
43.067501
 20
10.471563
 11
43.067501
 21
3.471563
  0
LINE
  8
0
  6
CONTINUOUS
 10
44.067501
 20
10.471563
 11
42.088497
 21
10.471563
  0
LINE
  8
0
  6
CONTINUOUS
 10
44.067501
 20
3.471563
 11
42.088497
 21
3.471563
  0
ARC
  8
0
  6
CONTINUOUS
 10
49.467491
 20
6.971563
 40
8.999999
 50
-196.601501
 51
-163.399002
  0
ARC
  8
0
  6
CONTINUOUS
 10
42.088497
 20
9.171543
 40
1.300000
 50
-270.000000
 51
-196.601593
  0
ARC
  8
0
  6
CONTINUOUS
 10
42.088497
 20
4.771553
 40
1.300000
 50
-163.399094
 51
-90.000000
  0
LINE
  8
0
  6
CONTINUOUS
 10
58.067501
 20
2.971583
 11
58.067501
 21
78.971565
  0
LINE
  8
0
  6
CONTINUOUS
 10
58.067501
 20
71.220535
 11
44.067501
 21
71.220535
  0
LINE
  8
0
  6
CONTINUOUS
 10
58.067501
 20
10.722593
 11
44.067501
 21
10.722593
  0
LINE
  8
0
  6
CONTINUOUS
 10
55.567619
 20
80.011169
 11
55.567619
 21
91.471565
  0
LINE
  8
0
  6
CONTINUOUS
 10
8.418820
 20
88.421562
 11
23.567619
 21
88.421562
  0
LINE
  8
0
  6
CONTINUOUS
 10
57.567619
 20
96.971565
 11
57.567619
 21
92.471565
  0
LINE
  8
0
  6
CONTINUOUS
 10
23.567619
 20
92.471565
 11
57.567619
 21
92.471565
  0
LINE
  8
0
  6
CONTINUOUS
 10
23.567619
 20
91.471565
 11
57.567619
 21
91.471565
  0
LINE
  8
0
  6
CONTINUOUS
 10
23.567619
 20
96.971565
 11
23.567619
 21
92.471565
  0
LINE
  8
0
  6
CONTINUOUS
 10
9.270620
 20
96.121567
 11
23.567619
 21
96.121567
  0
ARC
  8
0
  6
CONTINUOUS
 10
40.567619
 20
-150.028412
 40
250.000000
 50
86.668304
 51
93.331696
  0
LINE
  8
0
  6
CONTINUOUS
 10
56.067619
 20
97.971565
 11
56.567619
 21
97.971565
  0
ARC
  8
0
  6
CONTINUOUS
 10
56.567619
 20
96.971565
 40
1.000000
 50
0.000000
 51
90.000000
  0
ARC
  8
0
  6
CONTINUOUS
 10
56.067619
 20
98.471565
 40
0.500000
 50
180.000000
 51
270.000000
  0
LINE
  8
0
  6
CONTINUOUS
 10
25.067619
 20
97.971565
 11
24.567619
 21
97.971565
  0
ARC
  8
0
  6
CONTINUOUS
 10
24.567619
 20
96.971565
 40
1.000000
 50
90.000000
 51
180.000000
  0
ARC
  8
0
  6
CONTINUOUS
 10
25.067619
 20
98.471565
 40
0.500000
 50
-90.000000
 51
0.000000
  0
LINE
  8
0
  6
CONTINUOUS
 10
25.567619
 20
74.629364
 11
25.567619
 21
91.471565
  0
LINE
  8
0
  6
CONTINUOUS
 10
25.067619
 20
85.971565
 11
24.567619
 21
85.971565
  0
ARC
  8
0
  6
CONTINUOUS
 10
24.567619
 20
86.971565
 40
1.000000
 50
-180.000000
 51
-90.000000
  0
ARC
  8
0
  6
CONTINUOUS
 10
25.067619
 20
85.471565
 40
0.500000
 50
0.000000
 51
90.000000
  0
LINE
  8
0
  6
CONTINUOUS
 10
56.067619
 20
85.971565
 11
56.567619
 21
85.971565
  0
ARC
  8
0
  6
CONTINUOUS
 10
56.567619
 20
86.971565
 40
1.000000
 50
-90.000000
 51
0.000000
  0
ARC
  8
0
  6
CONTINUOUS
 10
56.067619
 20
85.471565
 40
0.500000
 50
90.000000
 51
180.000000
  0
LINE
  8
0
  6
CENTER
 10
40.567501
 20
102.997078
 11
40.567619
 21
85.198265
  0
ARC
  8
0
  6
CONTINUOUS
 10
55.067619
 20
99.049881
 40
0.500000
 50
0.000000
 51
86.668304
  0
ARC
  8
0
  6
CONTINUOUS
 10
26.067619
 20
99.049881
 40
0.500000
 50
93.331696
 51
180.000000
  0
LINE
  8
0
  6
CONTINUOUS
 10
57.067619
 20
92.471565
 11
57.067619
 21
91.471565
  0
LINE
  8
0
  6
CONTINUOUS
 10
57.567619
 20
91.471565
 11
57.567619
 21
86.971565
  0
LINE
  8
0
  6
CONTINUOUS
 10
55.567619
 20
92.471565
 11
55.567619
 21
99.049881
  0
LINE
  8
0
  6
CONTINUOUS
 10
26.067619
 20
92.471565
 11
26.067619
 21
91.471565
  0
LINE
  8
0
  6
CONTINUOUS
 10
25.567619
 20
92.471565
 11
25.567619
 21
99.049881
  0
LINE
  8
0
  6
CONTINUOUS
 10
23.567619
 20
91.471565
 11
23.567619
 21
86.971565
  0
LINE
  8
0
  6
CONTINUOUS
 10
49.567619
 20
96.471565
 11
55.067619
 21
96.471565
  0
LINE
  8
0
  6
CONTINUOUS
 10
49.067619
 20
96.971565
 11
49.067619
 21
99.343292
  0
ARC
  8
0
  6
CONTINUOUS
 10
49.567619
 20
96.971565
 40
0.500000
 50
180.000000
 51
270.000000
  0
ARC
  8
0
  6
CONTINUOUS
 10
55.067619
 20
95.971565
 40
0.500000
 50
0.000000
 51
90.000000
  0
ARC
  8
0
  6
CONTINUOUS
 10
48.567619
 20
99.343292
 40
0.500000
 50
0.000000
 51
88.162544
  0
LINE
  8
0
  6
CONTINUOUS
 10
31.567379
 20
96.471565
 11
26.067379
 21
96.471565
  0
ARC
  8
0
  6
CONTINUOUS
 10
31.567379
 20
96.971565
 40
0.500000
 50
-90.000000
 51
0.000000
  0
ARC
  8
0
  6
CONTINUOUS
 10
26.067379
 20
95.971565
 40
0.500000
 50
90.000000
 51
180.000000
  0
LINE
  8
0
  6
CONTINUOUS
 10
32.067379
 20
96.971565
 11
32.067379
 21
99.343292
  0
ARC
  8
0
  6
CONTINUOUS
 10
32.567379
 20
99.343292
 40
0.500000
 50
91.837456
 51
180.000000
  0
LINE
  8
0
  6
CONTINUOUS
 10
49.817619
 20
96.471565
 11
49.817619
 21
97.910767
  0
LINE
  8
0
  6
CONTINUOUS
 10
55.317619
 20
96.471359
 11
55.317619
 21
97.910767
  0
LINE
  8
0
  6
CONTINUOUS
 10
49.817619
 20
97.171562
 11
55.317619
 21
97.171562
  0
ARC
  8
0
  6
CONTINUOUS
 10
52.567619
 20
92.171562
 40
7.000000
 50
73.043488
 51
106.958000
  0
ARC
  8
0
  6
CONTINUOUS
 10
54.317619
 20
97.910767
 40
1.000000
 50
0.000000
 51
73.043098
  0
ARC
  8
0
  6
CONTINUOUS
 10
50.817619
 20
97.910767
 40
1.000000
 50
106.958199
 51
180.000000
  0
LINE
  8
0
  6
CONTINUOUS
 10
25.817619
 20
96.471565
 11
25.817619
 21
97.910767
  0
LINE
  8
0
  6
CONTINUOUS
 10
31.317619
 20
96.471359
 11
31.317619
 21
97.910767
  0
LINE
  8
0
  6
CONTINUOUS
 10
25.817619
 20
97.171562
 11
31.317619
 21
97.171562
  0
ARC
  8
0
  6
CONTINUOUS
 10
28.567619
 20
92.171562
 40
7.000000
 50
73.043488
 51
106.958000
  0
ARC
  8
0
  6
CONTINUOUS
 10
30.317619
 20
97.910767
 40
1.000000
 50
0.000000
 51
73.043098
  0
ARC
  8
0
  6
CONTINUOUS
 10
26.817619
 20
97.910767
 40
1.000000
 50
106.958199
 51
180.000000
  0
LINE
  8
0
  6
CONTINUOUS
 10
32.093678
 20
72.510155
 11
27.515266
 21
72.630043
  0
ARC
  8
0
  6
CONTINUOUS
 10
27.567619
 20
74.629364
 40
2.000000
 50
180.000000
 51
268.500000
  0
LINE
  8
0
  6
CONTINUOUS
 10
35.067196
 20
3.373035
 11
58.067501
 21
2.971563
  0
ARC
  8
0
  6
CONTINUOUS
 10
44.567501
 20
3.707283
 40
0.500000
 50
180.000000
 51
269.000000
  0
LINE
  8
0
  6
CONTINUOUS
 10
43.567501
 20
70.471565
 11
35.067196
 21
70.471565
  0
ARC
  8
0
  6
CONTINUOUS
 10
43.567501
 20
70.971565
 40
0.500000
 50
-90.000000
 51
0.000000
  0
LINE
  8
0
  6
CONTINUOUS
 10
33.809093
 20
11.808097
 11
35.067196
 21
11.471563
  0
ARC
  8
0
  6
CONTINUOUS
 10
34.067501
 20
12.774133
 40
1.000000
 50
180.000000
 51
255.024384
  0
LINE
  8
0
  6
CONTINUOUS
 10
33.809093
 20
3.709569
 11
35.067196
 21
3.373035
  0
ARC
  8
0
  6
CONTINUOUS
 10
34.067501
 20
4.675605
 40
1.000000
 50
180.000000
 51
255.024384
  0
LINE
  8
0
  6
CONTINUOUS
 10
33.809093
 20
70.135033
 11
35.067196
 21
70.471565
  0
ARC
  8
0
  6
CONTINUOUS
 10
34.067501
 20
69.168991
 40
1.000000
 50
-255.024384
 51
-180.000000
  0
LINE
  8
0
  6
CONTINUOUS
 10
5.370660
 20
71.746269
 11
32.398785
 21
72.454033
  0
ARC
  8
0
  6
CONTINUOUS
 10
32.067501
 20
71.510498
 40
1.000000
 50
0.000000
 51
88.500000
  0
LINE
  8
0
  6
CONTINUOUS
 10
3.809474
 20
71.452972
 11
2.890672
 21
71.122543
  0
ARC
  8
0
  6
CONTINUOUS
 10
3.567500
 20
69.240547
 40
2.000000
 50
109.780289
 51
180.000000
  0
LINE
  8
0
  6
CONTINUOUS
 10
29.554411
 20
4.063547
 11
33.067501
 21
3.971553
  0
ARC
  8
0
  6
CONTINUOUS
 10
34.067501
 20
12.774133
 40
1.000000
 50
180.000000
 51
255.024384
  0
LINE
  8
0
  6
CONTINUOUS
 10
5.370660
 20
10.946853
 11
33.067501
 21
10.221585
  0
LINE
  8
0
  6
CONTINUOUS
 10
3.809474
 20
11.240153
 11
2.890672
 21
11.570585
  0
ARC
  8
0
  6
CONTINUOUS
 10
3.567500
 20
13.452579
 40
2.000000
 50
-180.000000
 51
-109.780289
  0
LINE
  8
0
  6
CONTINUOUS
 10
9.270620
 20
96.121567
 11
8.534820
 21
93.286461
  0
LINE
  8
0
  6
CONTINUOUS
 10
8.534820
 20
93.286461
 11
9.346920
 21
90.811462
  0
LINE
  8
0
  6
CONTINUOUS
 10
9.346920
 20
90.811462
 11
8.418820
 21
88.421562
  0
ARC
  8
0
  6
CONTINUOUS
 10
5.501545
 20
66.747986
 40
5.000000
 50
91.500000
 51
109.780289
  0
ARC
  8
0
  6
CONTINUOUS
 10
5.501545
 20
15.945139
 40
5.000000
 50
250.219711
 51
268.500000
  0
ARC
  8
0
  6
CONTINUOUS
 10
29.567499
 20
4.563376
 40
0.500000
 50
180.000000
 51
268.500000
  0
LINE
  8
0
  6
CONTINUOUS
 10
29.067499
 20
62.312843
 11
29.067499
 21
48.906544
  0
LINE
  8
0
  6
CONTINUOUS
 10
29.067499
 20
60.695354
 11
1.567500
 21
59.975258
  0
LINE
  8
0
  6
CONTINUOUS
 10
29.067499
 20
54.747772
 11
1.567500
 21
55.467869
  0
LINE
  8
0
  6
CONTINUOUS
 10
308.067505
 20
86.481262
 11
313.958099
 21
85.268463
  0
LINE
  8
0
  6
CONTINUOUS
 10
313.958099
 20
85.268463
 11
319.208099
 21
82.018463
  0
LINE
  8
0
  6
CONTINUOUS
 10
319.208099
 20
82.018463
 11
319.708099
 21
76.893463
  0
LINE
  8
0
  6
CONTINUOUS
 10
319.708099
 20
76.893463
 11
321.458099
 21
75.018463
  0
LINE
  8
0
  6
CONTINUOUS
 10
321.458099
 20
75.018463
 11
321.833099
 21
71.393463
  0
LINE
  8
0
  6
CONTINUOUS
 10
322.208099
 20
65.768463
 11
322.958099
 21
60.518463
  0
LINE
  8
0
  6
CONTINUOUS
 10
321.833099
 20
71.393463
 11
322.208099
 21
65.768463
  0
LINE
  8
0
  6
CONTINUOUS
 10
322.958099
 20
60.518463
 11
320.958099
 21
54.143463
  0
LINE
  8
0
  6
CONTINUOUS
 10
320.958099
 20
54.143463
 11
321.583099
 21
47.643463
  0
LINE
  8
0
  6
CONTINUOUS
 10
321.583099
 20
47.643463
 11
320.083099
 21
41.893463
  0
LINE
  8
0
  6
CONTINUOUS
 10
320.083099
 20
41.893463
 11
315.958099
 21
38.768475
  0
LINE
  8
0
  6
CONTINUOUS
 10
315.958099
 20
38.768475
 11
311.083099
 21
38.143475
  0
LINE
  8
0
  6
CONTINUOUS
 10
311.083099
 20
38.143475
 11
308.067505
 21
36.914883
  0
TEXT
  8
0
 10
-6.000000
 20
-9.000000
 40
4.000000
 41
1.000000
  1
HFV-15T-10~240-T25
 50
0.000000
  0
ENDSEC
  0
EOF
