  0
SECTION
  2
HEADER
  9
$CLAYER
  8
1
  9
$LTSCALE
 40
3.0
  0
ENDSEC
  0
SECTION
  2
TABLES
  0
TABLE
  2
LTYPE
 70
     4
  0
LTYPE
  2
CONTINUOUS
  3
solid line
 70
    64
 72
    65
 73
     0
 40
0.0
  0
LTYPE
  2
DASHED
  3
__ __ __ __ __ __ __ __ __ __ __ __ __ __ __
 70
    64
 72
    65
 73
     2
 40
0.75
 49
0.5
 49
-0.25
  0
LTYPE
  2
CENTER
  3
____ _ ____ _ ____ _ ____ _ ____ _ ____ _ ____
 70
    64
 72
    65
 73
     4
 40
2.0
 49
1.25
 49
-0.25
 49
0.25
 49
-0.25
  0
LTYPE
  2
PHANTOM
  3
_____ _ _ _____ _ _ _____ _ _ _____ _ _ ____
 70
    64
 72
    65
 73
     6
 40
2.5
 49
1.25
 49
-0.25
 49
0.25
 49
-0.25
 49
0.25
 49
-0.25
  0
ENDTAB
  0
TABLE
  2
LAYER
 70
     1
  0
LAYER
  2
0
 70
    64
 62
     7
  6
CONTINUOUS
  0
ENDTAB
  0
TABLE
  2
STYLE
 70
     1
  0
STYLE
  2
STANDARD
 70
     0
 40
0.000000
 41
1.000000
 50
0.000000
 71
     0
 42
3.000000
  3
txt
  4
BIGFONT
  0
ENDTAB
  0
ENDSEC
  0
SECTION
  2
BLOCKS
  0
ENDSEC
  0
SECTION
  2
ENTITIES
  0
LINE
  8
0
  6
CENTER
 10
457.002502
 20
54.974998
 11
295.164886
 21
54.974998
  0
LINE
  8
0
  6
CONTINUOUS
 10
213.259995
 20
36.174999
 11
213.259995
 21
95.175003
  0
LINE
  8
0
  6
CONTINUOUS
 10
386.760010
 20
99.974998
 11
307.417389
 21
99.974998
  0
LINE
  8
0
  6
CONTINUOUS
 10
316.260010
 20
9.975000
 11
386.760010
 21
9.975000
  0
LINE
  8
0
  6
CENTER
 10
302.414490
 20
80.675003
 11
228.252182
 21
80.675003
  0
LINE
  8
0
  6
CENTER
 10
263.760010
 20
133.225006
 11
263.760010
 21
-2.118350
  0
LINE
  8
0
  6
CONTINUOUS
 10
303.760010
 20
124.675003
 11
223.759995
 21
124.675003
  0
LINE
  8
0
  6
CONTINUOUS
 10
303.760010
 20
6.675000
 11
223.759995
 21
6.675000
  0
LINE
  8
0
  6
CENTER
 10
230.759995
 20
115.675003
 11
216.884995
 21
115.675003
  0
LINE
  8
0
  6
CENTER
 10
223.759995
 20
108.974998
 11
223.759995
 21
122.474998
  0
CIRCLE
  8
0
  6
CONTINUOUS
 10
223.759995
 20
115.675003
 40
4.250000
  0
LINE
  8
0
  6
CENTER
 10
230.759995
 20
15.675000
 11
216.884995
 21
15.675000
  0
LINE
  8
0
  6
CENTER
 10
223.759995
 20
22.375000
 11
223.759995
 21
8.875000
  0
CIRCLE
  8
0
  6
CONTINUOUS
 10
223.759995
 20
15.675000
 40
4.250000
  0
LINE
  8
0
  6
CENTER
 10
296.760010
 20
115.675003
 11
310.635010
 21
115.675003
  0
LINE
  8
0
  6
CENTER
 10
303.760010
 20
108.974998
 11
303.760010
 21
122.474998
  0
CIRCLE
  8
0
  6
CONTINUOUS
 10
303.760010
 20
115.675003
 40
4.250000
  0
LINE
  8
0
  6
CENTER
 10
296.760010
 20
15.675000
 11
310.635010
 21
15.675000
  0
LINE
  8
0
  6
CENTER
 10
303.760010
 20
22.375000
 11
303.760010
 21
8.875000
  0
CIRCLE
  8
0
  6
CONTINUOUS
 10
303.760010
 20
15.675000
 40
4.250000
  0
LINE
  8
0
  6
CONTINUOUS
 10
214.783295
 20
116.321632
 11
213.259995
 21
95.175003
  0
LINE
  8
0
  6
CONTINUOUS
 10
214.783295
 20
15.028440
 11
213.259995
 21
36.174999
  0
ARC
  8
0
  6
CONTINUOUS
 10
223.759995
 20
115.675003
 40
9.000000
 50
90.000000
 51
175.879898
  0
ARC
  8
0
  6
CONTINUOUS
 10
223.759995
 20
15.675000
 40
9.000000
 50
-175.879898
 51
-90.000000
  0
ARC
  8
0
  6
CONTINUOUS
 10
303.760010
 20
115.675003
 40
9.000000
 50
4.120102
 51
90.000000
  0
LINE
  8
0
  6
CONTINUOUS
 10
312.736694
 20
116.321632
 11
313.914215
 21
99.974998
  0
LINE
  8
0
  6
CONTINUOUS
 10
312.736694
 20
15.028440
 11
313.304810
 21
22.914320
  0
ARC
  8
0
  6
CONTINUOUS
 10
303.760010
 20
15.675000
 40
9.000000
 50
270.000000
 51
355.879913
  0
ARC
  8
0
  6
CONTINUOUS
 10
309.260010
 20
19.975031
 40
5.000000
 50
0.000000
 51
90.000000
  0
ARC
  8
0
  6
CONTINUOUS
 10
316.260010
 20
11.975000
 40
2.000000
 50
180.000000
 51
270.000000
  0
LINE
  8
0
  6
CONTINUOUS
 10
314.260010
 20
11.975000
 11
314.260010
 21
19.975031
  0
LINE
  8
0
  6
CONTINUOUS
 10
314.260010
 20
92.574890
 11
314.260010
 21
19.975031
  0
LINE
  8
0
  6
CONTINUOUS
 10
386.760010
 20
89.384300
 11
316.260010
 21
89.384300
  0
LINE
  8
0
  6
CONTINUOUS
 10
386.760010
 20
20.565689
 11
315.760010
 21
20.565689
  0
CIRCLE
  8
0
  6
CONTINUOUS
 10
263.760010
 20
80.675003
 40
23.500000
  0
LINE
  8
0
  6
CONTINUOUS
 10
255.350601
 20
37.674999
 11
251.884995
 21
37.674999
  0
LINE
  8
0
  6
CONTINUOUS
 10
257.263489
 20
43.479969
 11
257.263489
 21
37.674999
  0
LINE
  8
0
  6
CONTINUOUS
 10
260.595490
 20
45.588493
 11
260.595490
 21
47.670998
  0
LINE
  8
0
  6
CONTINUOUS
 10
267.259491
 20
45.588493
 11
267.259491
 21
47.670998
  0
LINE
  8
0
  6
CONTINUOUS
 10
263.276703
 20
46.447529
 11
263.276703
 21
38.768311
  0
LINE
  8
0
  6
CONTINUOUS
 10
264.526215
 20
46.447529
 11
264.526215
 21
38.768311
  0
LINE
  8
0
  6
CONTINUOUS
 10
271.086090
 20
46.447529
 11
271.086090
 21
38.716251
  0
LINE
  8
0
  6
CONTINUOUS
 10
272.231415
 20
42.347599
 11
272.231415
 21
38.716251
  0
LINE
  8
0
  6
CONTINUOUS
 10
255.682404
 20
46.343403
 11
252.471207
 21
46.343403
  0
LINE
  8
0
  6
CONTINUOUS
 10
252.968307
 20
38.846409
 11
252.483307
 21
38.846409
  0
LINE
  8
0
  6
CONTINUOUS
 10
252.471207
 20
46.343403
 11
251.718796
 21
45.410439
  0
LINE
  8
0
  6
CONTINUOUS
 10
251.809296
 20
47.670998
 11
250.599503
 21
46.121819
  0
LINE
  8
0
  6
CONTINUOUS
 10
251.718796
 20
39.651642
 11
252.483307
 21
38.846409
  0
LINE
  8
0
  6
CONTINUOUS
 10
250.599503
 20
38.972099
 11
251.884995
 21
37.674999
  0
LINE
  8
0
  6
CONTINUOUS
 10
250.599503
 20
46.121819
 11
250.599503
 21
38.972099
  0
LINE
  8
0
  6
CONTINUOUS
 10
251.718796
 20
45.410439
 11
251.718796
 21
39.651642
  0
LINE
  8
0
  6
CONTINUOUS
 10
256.300293
 20
45.746056
 11
255.669800
 21
46.343403
  0
LINE
  8
0
  6
CONTINUOUS
 10
256.290314
 20
47.670998
 11
257.263489
 21
46.591019
  0
LINE
  8
0
  6
CONTINUOUS
 10
256.300293
 20
45.588493
 11
257.263489
 21
45.588493
  0
LINE
  8
0
  6
CONTINUOUS
 10
251.809296
 20
47.670998
 11
256.290314
 21
47.670998
  0
LINE
  8
0
  6
CONTINUOUS
 10
254.556198
 20
43.479969
 11
257.263489
 21
43.479969
  0
LINE
  8
0
  6
CONTINUOUS
 10
256.300293
 20
42.386650
 11
254.556198
 21
42.386650
  0
LINE
  8
0
  6
CONTINUOUS
 10
253.801300
 20
38.846409
 11
252.968307
 21
38.846409
  0
LINE
  8
0
  6
CONTINUOUS
 10
256.300293
 20
41.345409
 11
256.300293
 21
42.178398
  0
LINE
  8
0
  6
CONTINUOUS
 10
254.217804
 20
38.846409
 11
253.801300
 21
38.846409
  0
LINE
  8
0
  6
CONTINUOUS
 10
256.300293
 20
40.928902
 11
256.300293
 21
41.345409
  0
LINE
  8
0
  6
CONTINUOUS
 10
256.300293
 20
40.873589
 11
256.300293
 21
40.928902
  0
ARC
  8
0
  6
CONTINUOUS
 10
254.217804
 20
40.928902
 40
2.082500
 50
-89.999786
 51
0.000109
  0
LINE
  8
0
  6
CONTINUOUS
 10
256.300293
 20
38.471821
 11
256.300293
 21
37.674999
  0
LINE
  8
0
  6
CONTINUOUS
 10
257.263489
 20
46.591019
 11
257.263489
 21
45.588493
  0
LINE
  8
0
  6
CONTINUOUS
 10
256.300293
 20
42.386650
 11
256.300293
 21
40.928902
  0
LINE
  8
0
  6
CONTINUOUS
 10
254.556198
 20
43.479969
 11
254.556198
 21
42.386650
  0
LINE
  8
0
  6
CONTINUOUS
 10
256.300293
 20
42.178398
 11
256.300293
 21
42.386650
  0
LINE
  8
0
  6
CONTINUOUS
 10
256.300293
 20
37.674999
 11
257.263489
 21
37.674999
  0
LINE
  8
0
  6
CONTINUOUS
 10
256.300293
 20
38.471821
 11
255.350601
 21
37.674999
  0
LINE
  8
0
  6
CONTINUOUS
 10
264.526215
 20
38.768311
 11
264.942688
 21
38.768311
  0
LINE
  8
0
  6
CONTINUOUS
 10
262.782104
 20
38.768311
 11
262.782104
 21
37.674999
  0
LINE
  8
0
  6
CONTINUOUS
 10
264.942688
 20
38.768311
 11
264.942688
 21
37.674999
  0
LINE
  8
0
  6
CONTINUOUS
 10
266.564392
 20
45.588493
 11
267.259491
 21
45.588493
  0
LINE
  8
0
  6
CONTINUOUS
 10
260.595490
 20
45.588493
 11
261.335205
 21
45.588493
  0
LINE
  8
0
  6
CONTINUOUS
 10
260.595490
 20
47.670998
 11
267.259491
 21
47.670998
  0
LINE
  8
0
  6
CONTINUOUS
 10
262.782104
 20
37.674999
 11
264.942688
 21
37.674999
  0
LINE
  8
0
  6
CONTINUOUS
 10
262.782104
 20
38.768311
 11
263.276703
 21
38.768311
  0
ARC
  8
0
  6
CONTINUOUS
 10
274.587311
 20
45.002792
 40
2.668203
 50
-73.981873
 51
90.003510
  0
ARC
  8
0
  6
CONTINUOUS
 10
274.587311
 20
45.002792
 40
1.627786
 50
-82.585274
 51
62.411850
  0
LINE
  8
0
  6
CONTINUOUS
 10
270.591492
 20
47.670998
 11
274.587311
 21
47.670998
  0
LINE
  8
0
  6
CONTINUOUS
 10
274.797302
 20
43.388618
 11
272.231415
 21
43.388618
  0
LINE
  8
0
  6
CONTINUOUS
 10
270.591492
 20
47.670998
 11
270.591492
 21
46.447529
  0
LINE
  8
0
  6
CONTINUOUS
 10
272.231415
 20
46.447529
 11
272.231415
 21
43.388618
  0
LINE
  8
0
  6
CONTINUOUS
 10
275.323486
 20
42.438179
 11
276.975006
 21
38.716251
  0
LINE
  8
0
  6
CONTINUOUS
 10
274.364288
 20
42.347599
 11
275.927185
 21
38.716251
  0
LINE
  8
0
  6
CONTINUOUS
 10
270.591492
 20
38.716251
 11
271.086090
 21
38.716251
  0
LINE
  8
0
  6
CONTINUOUS
 10
272.231415
 20
38.716251
 11
272.687012
 21
38.716251
  0
LINE
  8
0
  6
CONTINUOUS
 10
272.687012
 20
37.674999
 11
270.591492
 21
37.674999
  0
LINE
  8
0
  6
CONTINUOUS
 10
275.719604
 20
38.716251
 11
275.927185
 21
38.716251
  0
LINE
  8
0
  6
CONTINUOUS
 10
276.975006
 20
38.716251
 11
277.255493
 21
38.716251
  0
LINE
  8
0
  6
CONTINUOUS
 10
275.719604
 20
37.674999
 11
277.255493
 21
37.674999
  0
LINE
  8
0
  6
CONTINUOUS
 10
277.255493
 20
38.716251
 11
277.255493
 21
37.674999
  0
LINE
  8
0
  6
CONTINUOUS
 10
275.719604
 20
38.716251
 11
275.719604
 21
37.674999
  0
LINE
  8
0
  6
CONTINUOUS
 10
272.687012
 20
38.716251
 11
272.687012
 21
37.674999
  0
LINE
  8
0
  6
CONTINUOUS
 10
270.591492
 20
38.716251
 11
270.591492
 21
37.674999
  0
LINE
  8
0
  6
CONTINUOUS
 10
261.693115
 20
46.447529
 11
261.335205
 21
45.588493
  0
LINE
  8
0
  6
CONTINUOUS
 10
266.262512
 20
46.447529
 11
266.564392
 21
45.588493
  0
LINE
  8
0
  6
CONTINUOUS
 10
264.526215
 20
46.447529
 11
266.262512
 21
46.447529
  0
LINE
  8
0
  6
CONTINUOUS
 10
263.276703
 20
46.447529
 11
261.693115
 21
46.447529
  0
LINE
  8
0
  6
CONTINUOUS
 10
272.231415
 20
42.347599
 11
274.364288
 21
42.347599
  0
LINE
  8
0
  6
CONTINUOUS
 10
270.591492
 20
46.447529
 11
271.086090
 21
46.447529
  0
LINE
  8
0
  6
CONTINUOUS
 10
272.231415
 20
46.447529
 11
275.341095
 21
46.445503
  0
LINE
  8
0
  6
CONTINUOUS
 10
256.300293
 20
45.746056
 11
256.300293
 21
45.588493
  0
LINE
  8
0
  6
CONTINUOUS
 10
279.181091
 20
12.675000
 11
248.338898
 21
12.675000
  0
LINE
  8
0
  6
CONTINUOUS
 10
248.338898
 20
118.675003
 11
279.181091
 21
118.675003
  0
LINE
  8
0
  6
CONTINUOUS
 10
282.052612
 20
117.768288
 11
312.131409
 21
96.668190
  0
LINE
  8
0
  6
CONTINUOUS
 10
245.467499
 20
117.768280
 11
213.259995
 21
95.175003
  0
LINE
  8
0
  6
CONTINUOUS
 10
282.052612
 20
13.581710
 11
297.001495
 21
24.068270
  0
LINE
  8
0
  6
CONTINUOUS
 10
245.467407
 20
13.581720
 11
213.259995
 21
36.174999
  0
ARC
  8
0
  6
CONTINUOUS
 10
279.181213
 20
113.675003
 40
5.000000
 50
54.950710
 51
90.000000
  0
ARC
  8
0
  6
CONTINUOUS
 10
248.338898
 20
113.675003
 40
5.000000
 50
90.000000
 51
125.049500
  0
ARC
  8
0
  6
CONTINUOUS
 10
248.338898
 20
17.674999
 40
5.000000
 50
234.950500
 51
270.000000
  0
ARC
  8
0
  6
CONTINUOUS
 10
279.181091
 20
17.674999
 40
5.000000
 50
270.000000
 51
305.049591
  0
LINE
  8
0
  6
CONTINUOUS
 10
299.872894
 20
24.975000
 11
309.260010
 21
24.975000
  0
ARC
  8
0
  6
CONTINUOUS
 10
299.872894
 20
19.975010
 40
5.000000
 50
90.000000
 51
125.049698
  0
ARC
  8
0
  6
CONTINUOUS
 10
309.260010
 20
92.574890
 40
5.000000
 50
0.000000
 51
54.950691
  0
LINE
  8
0
  6
CONTINUOUS
 10
258.260010
 20
83.675003
 11
258.260010
 21
77.675003
  0
LINE
  8
0
  6
CONTINUOUS
 10
252.259995
 20
83.675003
 11
252.259995
 21
77.675003
  0
LINE
  8
0
  6
CONTINUOUS
 10
252.259995
 20
83.675003
 11
258.260010
 21
83.675003
  0
LINE
  8
0
  6
CONTINUOUS
 10
252.259995
 20
77.675003
 11
258.260010
 21
77.675003
  0
ARC
  8
0
  6
CONTINUOUS
 10
263.760010
 20
80.675003
 40
9.000000
 50
-160.528793
 51
160.528793
  0
LINE
  8
0
  6
CENTER
 10
263.760010
 20
159.506256
 11
263.760010
 21
304.824066
  0
LINE
  8
0
  6
CENTER
 10
459.874390
 20
240.383743
 11
199.618744
 21
240.383743
  0
LINE
  8
0
  6
CONTINUOUS
 10
217.434113
 20
203.383743
 11
312.311676
 21
203.383743
  0
LINE
  8
0
  6
CONTINUOUS
 10
314.469421
 20
211.381012
 11
314.311005
 21
205.331390
  0
LINE
  8
0
  6
CONTINUOUS
 10
316.417816
 20
195.383743
 11
386.760010
 21
195.383743
  0
LINE
  8
0
  6
CONTINUOUS
 10
386.760010
 20
211.383743
 11
307.417450
 21
211.383743
  0
LINE
  8
0
  6
CONTINUOUS
 10
386.760010
 20
269.383759
 11
316.143127
 21
269.383759
  0
LINE
  8
0
  6
CONTINUOUS
 10
316.286865
 20
285.383759
 11
386.760010
 21
285.383759
  0
LINE
  8
0
  6
CONTINUOUS
 10
315.516937
 20
240.383743
 11
314.260010
 21
288.383759
  0
LINE
  8
0
  6
CONTINUOUS
 10
280.760010
 20
208.383743
 11
280.760010
 21
276.383759
  0
LINE
  8
0
  6
CONTINUOUS
 10
246.759995
 20
208.383743
 11
246.759995
 21
276.383759
  0
LINE
  8
0
  6
CONTINUOUS
 10
307.417450
 20
213.383743
 11
307.417450
 21
276.848755
  0
LINE
  8
0
  6
CONTINUOUS
 10
241.259995
 20
198.383743
 11
286.260010
 21
198.383743
  0
LINE
  8
0
  6
CONTINUOUS
 10
287.260010
 20
199.383743
 11
287.260010
 21
201.383743
  0
LINE
  8
0
  6
CONTINUOUS
 10
240.259995
 20
199.383743
 11
240.259995
 21
201.383743
  0
ARC
  8
0
  6
CONTINUOUS
 10
289.260010
 20
201.383743
 40
2.000000
 50
90.000000
 51
180.000000
  0
ARC
  8
0
  6
CONTINUOUS
 10
238.260010
 20
201.383743
 40
2.000000
 50
0.000000
 51
90.000000
  0
ARC
  8
0
  6
CONTINUOUS
 10
286.259979
 20
199.383743
 40
1.000000
 50
-90.000000
 51
0.000000
  0
ARC
  8
0
  6
CONTINUOUS
 10
241.259995
 20
199.383743
 40
1.000000
 50
180.000000
 51
270.000000
  0
LINE
  8
0
  6
CONTINUOUS
 10
252.259995
 20
166.383743
 11
272.760010
 21
166.383743
  0
LINE
  8
0
  6
CONTINUOUS
 10
272.760010
 20
196.383743
 11
272.760010
 21
166.383743
  0
LINE
  8
0
  6
CONTINUOUS
 10
254.759995
 20
196.383743
 11
254.759995
 21
190.383743
  0
LINE
  8
0
  6
CONTINUOUS
 10
273.760010
 20
196.383743
 11
253.759995
 21
196.383743
  0
LINE
  8
0
  6
CONTINUOUS
 10
273.760010
 20
198.383743
 11
273.760010
 21
196.383743
  0
LINE
  8
0
  6
CONTINUOUS
 10
253.759995
 20
198.383743
 11
253.759995
 21
196.383743
  0
LINE
  8
0
  6
CONTINUOUS
 10
252.259995
 20
166.383743
 11
252.259995
 21
190.383743
  0
LINE
  8
0
  6
CONTINUOUS
 10
252.259995
 20
190.383743
 11
255.274994
 21
190.383743
  0
LINE
  8
0
  6
CONTINUOUS
 10
255.274994
 20
166.383743
 11
255.274994
 21
190.383743
  0
LINE
  8
0
  6
CONTINUOUS
 10
314.260010
 20
288.383759
 11
213.259995
 21
288.383759
  0
LINE
  8
0
  6
CONTINUOUS
 10
215.434799
 20
205.331390
 11
213.259995
 21
288.383759
  0
LINE
  8
0
  6
CONTINUOUS
 10
312.468811
 20
278.383759
 11
215.470169
 21
278.383759
  0
ARC
  8
0
  6
CONTINUOUS
 10
215.470169
 20
280.383759
 40
2.000000
 50
181.500000
 51
270.000000
  0
ARC
  8
0
  6
CONTINUOUS
 10
217.434113
 20
205.383743
 40
2.000000
 50
181.500000
 51
270.000000
  0
ARC
  8
0
  6
CONTINUOUS
 10
244.759995
 20
276.383759
 40
2.000000
 50
0.000000
 51
90.000000
  0
ARC
  8
0
  6
CONTINUOUS
 10
282.760010
 20
276.383759
 40
2.000000
 50
90.000000
 51
180.000000
  0
LINE
  8
0
  6
CONTINUOUS
 10
280.901947
 20
277.123749
 11
246.618057
 21
277.123749
  0
ARC
  8
0
  6
CONTINUOUS
 10
312.468811
 20
280.383759
 40
2.000000
 50
-90.000000
 51
1.500000
  0
ARC
  8
0
  6
CONTINUOUS
 10
316.286865
 20
287.383759
 40
2.000000
 50
181.500000
 51
270.000000
  0
LINE
  8
0
  6
CONTINUOUS
 10
314.418488
 20
197.331390
 11
314.311005
 21
201.436111
  0
ARC
  8
0
  6
CONTINUOUS
 10
316.417816
 20
197.383743
 40
2.000000
 50
181.500000
 51
270.000000
  0
ARC
  8
0
  6
CONTINUOUS
 10
312.311676
 20
201.383743
 40
2.000000
 50
1.500000
 51
90.000000
  0
ARC
  8
0
  6
CONTINUOUS
 10
312.311676
 20
205.383743
 40
2.000000
 50
270.000000
 51
358.500000
  0
LINE
  8
0
  6
CENTER
 10
223.759995
 20
296.072357
 11
223.759995
 21
272.209686
  0
LINE
  8
0
  6
DASHED
 10
219.509995
 20
278.383759
 11
219.509995
 21
288.383759
  0
LINE
  8
0
  6
DASHED
 10
228.009995
 20
278.383759
 11
228.009995
 21
288.383759
  0
LINE
  8
0
  6
CENTER
 10
303.760010
 20
296.072357
 11
303.760010
 21
272.209686
  0
LINE
  8
0
  6
DASHED
 10
308.010010
 20
278.383759
 11
308.010010
 21
288.383759
  0
LINE
  8
0
  6
DASHED
 10
299.510010
 20
278.383759
 11
299.510010
 21
288.383759
  0
LINE
  8
0
  6
CENTER
 10
53.759998
 20
-0.025000
 11
53.759998
 21
130.475006
  0
LINE
  8
0
  6
CONTINUOUS
 10
90.760002
 20
115.726883
 11
90.760002
 21
15.623080
  0
LINE
  8
0
  6
CENTER
 10
-1.718036
 20
80.675003
 11
134.259995
 21
80.675003
  0
LINE
  8
0
  6
CONTINUOUS
 10
14.225400
 20
124.675003
 11
5.760000
 21
124.675003
  0
LINE
  8
0
  6
CONTINUOUS
 10
14.225400
 20
6.675000
 11
5.760000
 21
6.675000
  0
LINE
  8
0
  6
CONTINUOUS
 10
87.812302
 20
118.726440
 11
17.725100
 21
119.949539
  0
LINE
  8
0
  6
CONTINUOUS
 10
87.812401
 20
12.623550
 11
17.725100
 21
11.399920
  0
LINE
  8
0
  6
CONTINUOUS
 10
88.807800
 20
95.175003
 11
20.925800
 21
95.175003
  0
LINE
  8
0
  6
CONTINUOUS
 10
88.807800
 20
36.174999
 11
18.760000
 21
36.174999
  0
ARC
  8
0
  6
CONTINUOUS
 10
87.760002
 20
115.726883
 40
3.000000
 50
0.000000
 51
89.000359
  0
ARC
  8
0
  6
CONTINUOUS
 10
87.760002
 20
15.623080
 40
3.000000
 50
-88.999687
 51
0.000000
  0
ARC
  8
0
  6
CONTINUOUS
 10
18.760000
 20
33.175018
 40
3.000000
 50
90.000000
 51
180.000000
  0
LINE
  8
0
  6
CENTER
 10
0.697500
 20
15.675000
 11
20.447500
 21
15.675000
  0
LINE
  8
0
  6
CENTER
 10
2.447500
 20
115.675003
 11
19.447500
 21
115.675003
  0
LINE
  8
0
  6
DASHED
 10
5.760000
 20
111.425003
 11
15.760000
 21
111.425003
  0
LINE
  8
0
  6
DASHED
 10
5.760000
 20
119.925003
 11
15.760000
 21
119.925003
  0
LINE
  8
0
  6
DASHED
 10
5.760000
 20
19.924999
 11
15.760000
 21
19.924999
  0
LINE
  8
0
  6
DASHED
 10
5.760000
 20
11.425000
 11
15.760000
 21
11.425000
  0
LINE
  8
0
  6
CONTINUOUS
 10
27.760000
 20
9.975000
 11
79.760002
 21
9.975000
  0
ARC
  8
0
  6
CONTINUOUS
 10
79.760002
 20
12.975000
 40
3.000000
 50
270.000000
 51
351.561859
  0
ARC
  8
0
  6
CONTINUOUS
 10
27.760000
 20
12.975000
 40
3.000000
 50
208.811234
 51
270.000000
  0
ARC
  8
0
  6
CONTINUOUS
 10
53.759998
 20
54.974998
 40
45.000000
 50
-34.692131
 51
20.419371
  0
LINE
  8
0
  6
CONTINUOUS
 10
95.760002
 20
103.174988
 11
95.760002
 21
58.174992
  0
LINE
  8
0
  6
CONTINUOUS
 10
92.760002
 20
104.175003
 11
94.760002
 21
104.175003
  0
LINE
  8
0
  6
CONTINUOUS
 10
92.760002
 20
57.174995
 11
94.760002
 21
57.174995
  0
ARC
  8
0
  6
CONTINUOUS
 10
92.760002
 20
106.175003
 40
2.000000
 50
180.000000
 51
270.000000
  0
ARC
  8
0
  6
CONTINUOUS
 10
92.760002
 20
55.175007
 40
2.000000
 50
90.000000
 51
180.000000
  0
ARC
  8
0
  6
CONTINUOUS
 10
94.760002
 20
58.174995
 40
1.000000
 50
-90.000000
 51
0.000000
  0
ARC
  8
0
  6
CONTINUOUS
 10
94.760002
 20
103.174988
 40
1.000000
 50
0.000000
 51
90.000000
  0
LINE
  8
0
  6
CONTINUOUS
 10
15.760000
 20
122.675003
 11
15.760000
 21
33.175018
  0
LINE
  8
0
  6
CONTINUOUS
 10
15.760000
 20
8.675000
 11
15.760000
 21
33.175011
  0
LINE
  8
0
  6
CONTINUOUS
 10
5.760000
 20
6.675000
 11
5.760000
 21
124.675003
  0
LINE
  8
0
  6
CENTER
 10
0.055400
 20
54.974998
 11
105.764900
 21
54.974998
  0
LINE
  8
0
  6
CONTINUOUS
 10
16.157200
 20
123.192642
 11
16.437799
 21
122.145409
  0
ARC
  8
0
  6
CONTINUOUS
 10
13.760000
 20
122.674988
 40
2.000000
 50
0.000000
 51
90.000000
  0
ARC
  8
0
  6
CONTINUOUS
 10
14.225400
 20
122.674988
 40
2.000000
 50
15.000500
 51
90.000000
  0
ARC
  8
0
  6
CONTINUOUS
 10
17.760000
 20
121.949249
 40
2.000000
 50
180.000000
 51
269.000610
  0
ARC
  8
0
  6
CONTINUOUS
 10
19.335600
 20
122.921898
 40
3.000000
 50
195.000504
 51
269.000610
  0
LINE
  8
0
  6
CONTINUOUS
 10
16.157200
 20
8.157370
 11
16.437599
 21
9.204020
  0
ARC
  8
0
  6
CONTINUOUS
 10
13.760000
 20
8.675000
 40
2.000000
 50
-90.000000
 51
0.000000
  0
ARC
  8
0
  6
CONTINUOUS
 10
14.225400
 20
8.675000
 40
2.000000
 50
270.000000
 51
345.000000
  0
ARC
  8
0
  6
CONTINUOUS
 10
17.760000
 20
9.400220
 40
2.000000
 50
91.000526
 51
180.000000
  0
ARC
  8
0
  6
CONTINUOUS
 10
19.335400
 20
8.427580
 40
3.000000
 50
91.000458
 51
165.000305
  0
LINE
  8
0
  6
CONTINUOUS
 10
127.760002
 20
71.675003
 11
127.760002
 21
89.675003
  0
LINE
  8
0
  6
CONTINUOUS
 10
97.760002
 20
89.675003
 11
127.760002
 21
89.675003
  0
LINE
  8
0
  6
CONTINUOUS
 10
97.760002
 20
71.675003
 11
127.760002
 21
71.675003
  0
LINE
  8
0
  6
CONTINUOUS
 10
97.760002
 20
90.675003
 11
97.760002
 21
70.675003
  0
LINE
  8
0
  6
CONTINUOUS
 10
95.760002
 20
90.675003
 11
97.760002
 21
90.675003
  0
LINE
  8
0
  6
CONTINUOUS
 10
95.760002
 20
70.675003
 11
97.760002
 21
70.675003
  0
ARC
  8
0
  6
CONTINUOUS
 10
103.760002
 20
80.675003
 40
3.000000
 50
90.000000
 51
270.000000
  0
LINE
  8
0
  6
CONTINUOUS
 10
103.760002
 20
83.675003
 11
127.760002
 21
83.675003
  0
LINE
  8
0
  6
CONTINUOUS
 10
103.760002
 20
77.675003
 11
127.760002
 21
77.675003
  0
LINE
  8
0
  6
DASHED
 10
80.794899
 20
99.504799
 11
53.759998
 21
99.976692
  0
ARC
  8
0
  6
DASHED
 10
80.760002
 20
97.505096
 40
2.000000
 50
0.000000
 51
89.000191
  0
LINE
  8
0
  6
DASHED
 10
82.760002
 20
97.505112
 11
82.760002
 21
90.752090
  0
LINE
  8
0
  6
DASHED
 10
26.725100
 20
99.504799
 11
53.759998
 21
99.976692
  0
ARC
  8
0
  6
DASHED
 10
26.760000
 20
97.505096
 40
2.000000
 50
90.999809
 51
180.000000
  0
LINE
  8
0
  6
DASHED
 10
24.760000
 20
97.505112
 11
24.760000
 21
90.752090
  0
ARC
  8
0
  6
DASHED
 10
53.759998
 20
54.974998
 40
45.000000
 50
131.810318
 51
228.189682
  0
LINE
  8
0
  6
DASHED
 10
24.760000
 20
12.975000
 11
24.760000
 21
19.197912
  0
ARC
  8
0
  6
DASHED
 10
27.760000
 20
12.975000
 40
3.000000
 50
180.000000
 51
208.811234
  0
ARC
  8
0
  6
DASHED
 10
79.760002
 20
12.975000
 40
3.000000
 50
-8.438150
 51
0.000000
  0
LINE
  8
0
  6
DASHED
 10
82.760002
 20
12.975000
 11
82.760002
 21
19.197912
  0
ARC
  8
0
  6
DASHED
 10
53.759998
 20
54.974998
 40
45.000000
 50
-48.189686
 51
-34.692131
  0
ARC
  8
0
  6
DASHED
 10
85.760002
 20
90.752090
 40
3.000000
 50
180.000000
 51
228.189682
  0
ARC
  8
0
  6
DASHED
 10
21.760000
 20
90.752090
 40
3.000000
 50
-48.189686
 51
0.000000
  0
ARC
  8
0
  6
DASHED
 10
21.760000
 20
19.197912
 40
3.000000
 50
0.000000
 51
48.189686
  0
ARC
  8
0
  6
DASHED
 10
85.760002
 20
19.197912
 40
3.000000
 50
131.810318
 51
180.000000
  0
ARC
  8
0
  6
DASHED
 10
53.759998
 20
54.974998
 40
45.000000
 50
20.419371
 51
48.189686
  0
LINE
  8
0
  6
DASHED
 10
76.760002
 20
111.975304
 11
76.760002
 21
99.573532
  0
LINE
  8
0
  6
DASHED
 10
30.760000
 20
111.975304
 11
30.760000
 21
99.573532
  0
LINE
  8
0
  6
DASHED
 10
76.260002
 20
111.975304
 11
76.260002
 21
112.975304
  0
LINE
  8
0
  6
DASHED
 10
31.260000
 20
111.975304
 11
31.260000
 21
112.975304
  0
LINE
  8
0
  6
DASHED
 10
30.760000
 20
118.958702
 11
30.760000
 21
112.975304
  0
LINE
  8
0
  6
DASHED
 10
76.760002
 20
118.958702
 11
76.760002
 21
112.975304
  0
ARC
  8
0
  6
CONTINUOUS
 10
73.760002
 20
112.675201
 40
7.000000
 50
73.041977
 51
106.956497
  0
ARC
  8
0
  6
CONTINUOUS
 10
72.010002
 20
118.414497
 40
1.000000
 50
106.956902
 51
143.012054
  0
ARC
  8
0
  6
CONTINUOUS
 10
75.510002
 20
118.414497
 40
1.000000
 50
30.772787
 51
73.041847
  0
LINE
  8
0
  6
CONTINUOUS
 10
70.260002
 20
119.461746
 11
70.260002
 21
119.032745
  0
ARC
  8
0
  6
CONTINUOUS
 10
53.759998
 20
-129.524704
 40
250.000000
 50
84.826019
 51
94.598679
  0
ARC
  8
0
  6
CONTINUOUS
 10
76.260002
 20
118.958702
 40
0.500000
 50
0.000000
 51
84.826019
  0
ARC
  8
0
  6
CONTINUOUS
 10
69.760002
 20
119.461746
 40
0.500000
 50
0.000000
 51
86.323196
  0
LINE
  8
0
  6
DASHED
 10
76.260002
 20
111.975304
 11
76.760002
 21
111.975304
  0
LINE
  8
0
  6
DASHED
 10
76.260002
 20
112.975304
 11
76.760002
 21
112.975304
  0
LINE
  8
0
  6
DASHED
 10
31.260000
 20
111.975304
 11
30.760000
 21
111.975304
  0
LINE
  8
0
  6
DASHED
 10
31.260000
 20
112.975304
 11
30.760000
 21
112.975304
  0
LINE
  8
0
  6
CONTINUOUS
 10
103.760002
 20
83.675003
 11
103.760002
 21
77.675003
  0
LINE
  8
0
  6
CONTINUOUS
 10
417.760010
 20
11.316823
 11
417.760010
 21
16.094559
  0
LINE
  8
0
  6
CONTINUOUS
 10
417.760010
 20
11.475020
 11
419.199219
 21
11.475020
  0
LINE
  8
0
  6
CONTINUOUS
 10
418.459961
 20
11.475020
 11
418.459961
 21
16.112886
  0
ARC
  8
0
  6
CONTINUOUS
 10
413.459961
 20
14.225020
 40
7.000000
 50
-16.958000
 51
16.031073
  0
ARC
  8
0
  6
CONTINUOUS
 10
419.199219
 20
12.475020
 40
1.000000
 50
-90.000000
 51
-16.958099
  0
LINE
  8
0
  6
CONTINUOUS
 10
444.759979
 20
91.007103
 11
444.760010
 21
54.974998
  0
LINE
  8
0
  6
CONTINUOUS
 10
444.759979
 20
19.233900
 11
444.760010
 21
54.974998
  0
LINE
  8
0
  6
CONTINUOUS
 10
417.760010
 20
67.238564
 11
417.760010
 21
79.349998
  0
LINE
  8
0
  6
CONTINUOUS
 10
417.760010
 20
72.599998
 11
419.199219
 21
72.599998
  0
LINE
  8
0
  6
CONTINUOUS
 10
417.760010
 20
78.099998
 11
419.199219
 21
78.099998
  0
LINE
  8
0
  6
CONTINUOUS
 10
418.459961
 20
72.599998
 11
418.459961
 21
78.099998
  0
ARC
  8
0
  6
CONTINUOUS
 10
413.459961
 20
75.349998
 40
7.000000
 50
-16.958000
 51
16.956499
  0
ARC
  8
0
  6
CONTINUOUS
 10
419.199219
 20
77.099998
 40
1.000000
 50
16.956900
 51
90.000000
  0
ARC
  8
0
  6
CONTINUOUS
 10
419.199219
 20
73.599998
 40
1.000000
 50
-90.000000
 51
-16.958099
  0
LINE
  8
0
  6
CONTINUOUS
 10
417.760010
 20
67.238564
 11
413.760010
 21
67.238564
  0
LINE
  8
0
  6
CONTINUOUS
 10
417.760010
 20
79.349998
 11
413.760010
 21
79.349998
  0
LINE
  8
0
  6
CONTINUOUS
 10
386.760010
 20
9.975000
 11
386.760010
 21
99.974998
  0
LINE
  8
0
  6
CONTINUOUS
 10
400.760010
 20
10.710720
 11
400.760010
 21
20.565710
  0
LINE
  8
0
  6
CONTINUOUS
 10
413.760010
 20
93.001144
 11
413.760010
 21
10.725000
  0
LINE
  8
0
  6
CENTER
 10
404.260010
 20
101.913284
 11
404.260010
 21
123.175781
  0
ARC
  8
0
  6
CONTINUOUS
 10
388.260010
 20
100.974998
 40
1.000000
 50
-90.000000
 51
0.000000
  0
LINE
  8
0
  6
CONTINUOUS
 10
386.760010
 20
20.565710
 11
400.760010
 21
20.565710
  0
LINE
  8
0
  6
CONTINUOUS
 10
400.760010
 20
99.474998
 11
400.760010
 21
89.474998
  0
LINE
  8
0
  6
CONTINUOUS
 10
386.760010
 20
89.384300
 11
400.760010
 21
89.384300
  0
LINE
  8
0
  6
CONTINUOUS
 10
386.760010
 20
99.974998
 11
419.259918
 21
99.974998
  0
ARC
  8
0
  6
CONTINUOUS
 10
400.260010
 20
99.474998
 40
0.500000
 50
0.000000
 51
90.000000
  0
LINE
  8
0
  6
CONTINUOUS
 10
419.259644
 20
111.975235
 11
419.259949
 21
99.977745
  0
LINE
  8
0
  6
CONTINUOUS
 10
389.260010
 20
111.975304
 11
389.260010
 21
100.974998
  0
LINE
  8
0
  6
CONTINUOUS
 10
389.260010
 20
112.975304
 11
389.260010
 21
119.553604
  0
LINE
  8
0
  6
CONTINUOUS
 10
433.147583
 20
108.925301
 11
421.260010
 21
108.925301
  0
LINE
  8
0
  6
CONTINUOUS
 10
419.260193
 20
112.975304
 11
419.260193
 21
119.553604
  0
LINE
  8
0
  6
CONTINUOUS
 10
387.260010
 20
117.475304
 11
387.260010
 21
112.975304
  0
LINE
  8
0
  6
CONTINUOUS
 10
421.260010
 20
112.975304
 11
387.260010
 21
112.975304
  0
LINE
  8
0
  6
CONTINUOUS
 10
421.260010
 20
111.975304
 11
387.260010
 21
111.975304
  0
LINE
  8
0
  6
CONTINUOUS
 10
421.260010
 20
117.475304
 11
421.260010
 21
116.725304
  0
LINE
  8
0
  6
CONTINUOUS
 10
421.260010
 20
116.725304
 11
421.260010
 21
112.975304
  0
LINE
  8
0
  6
CONTINUOUS
 10
432.295776
 20
116.625298
 11
421.260010
 21
116.625298
  0
ARC
  8
0
  6
CONTINUOUS
 10
404.260010
 20
-129.524704
 40
250.000000
 50
86.668304
 51
93.331696
  0
LINE
  8
0
  6
CONTINUOUS
 10
388.760010
 20
118.475304
 11
388.260010
 21
118.475304
  0
ARC
  8
0
  6
CONTINUOUS
 10
388.260010
 20
117.475304
 40
1.000000
 50
90.000000
 51
180.000000
  0
ARC
  8
0
  6
CONTINUOUS
 10
388.760010
 20
118.975304
 40
0.500000
 50
-90.000000
 51
0.000000
  0
LINE
  8
0
  6
CONTINUOUS
 10
388.760010
 20
106.475304
 11
388.260010
 21
106.475304
  0
ARC
  8
0
  6
CONTINUOUS
 10
388.260010
 20
107.475304
 40
1.000000
 50
180.000000
 51
270.000000
  0
ARC
  8
0
  6
CONTINUOUS
 10
388.760010
 20
105.975304
 40
0.500000
 50
0.000000
 51
90.000000
  0
LINE
  8
0
  6
CONTINUOUS
 10
419.760010
 20
118.475304
 11
420.260010
 21
118.475304
  0
ARC
  8
0
  6
CONTINUOUS
 10
420.260010
 20
117.475304
 40
1.000000
 50
0.000000
 51
90.000000
  0
ARC
  8
0
  6
CONTINUOUS
 10
419.760010
 20
118.975304
 40
0.500000
 50
180.000000
 51
270.000000
  0
LINE
  8
0
  6
CONTINUOUS
 10
419.760010
 20
106.475304
 11
420.260010
 21
106.475304
  0
ARC
  8
0
  6
CONTINUOUS
 10
420.260010
 20
107.475304
 40
1.000000
 50
-90.000000
 51
0.000000
  0
ARC
  8
0
  6
CONTINUOUS
 10
419.760010
 20
105.975304
 40
0.500000
 50
90.000000
 51
180.000000
  0
LINE
  8
0
  6
CONTINUOUS
 10
387.760010
 20
112.975304
 11
387.760010
 21
111.975304
  0
LINE
  8
0
  6
CONTINUOUS
 10
387.260010
 20
111.975304
 11
387.260010
 21
107.475304
  0
ARC
  8
0
  6
CONTINUOUS
 10
389.760010
 20
119.553604
 40
0.500000
 50
93.331696
 51
180.000000
  0
LINE
  8
0
  6
CONTINUOUS
 10
421.260010
 20
111.975304
 11
421.260010
 21
107.475304
  0
LINE
  8
0
  6
CONTINUOUS
 10
418.759644
 20
112.975304
 11
418.759644
 21
111.975235
  0
LINE
  8
0
  6
CONTINUOUS
 10
395.260010
 20
116.975304
 11
389.510010
 21
116.975304
  0
LINE
  8
0
  6
CONTINUOUS
 10
395.760010
 20
117.475304
 11
395.760010
 21
119.847008
  0
LINE
  8
0
  6
CONTINUOUS
 10
395.010010
 20
116.975304
 11
395.010010
 21
118.414497
  0
LINE
  8
0
  6
CONTINUOUS
 10
389.510010
 20
116.975098
 11
389.510010
 21
118.414497
  0
LINE
  8
0
  6
CONTINUOUS
 10
395.010010
 20
117.675201
 11
389.510010
 21
117.675201
  0
ARC
  8
0
  6
CONTINUOUS
 10
392.260010
 20
112.675201
 40
7.000000
 50
73.042000
 51
106.956497
  0
ARC
  8
0
  6
CONTINUOUS
 10
390.510010
 20
118.414497
 40
1.000000
 50
106.956902
 51
180.000000
  0
ARC
  8
0
  6
CONTINUOUS
 10
394.010010
 20
118.414497
 40
1.000000
 50
0.000000
 51
73.041801
  0
ARC
  8
0
  6
CONTINUOUS
 10
395.260010
 20
117.475304
 40
0.500000
 50
-90.000000
 51
0.000000
  0
ARC
  8
0
  6
CONTINUOUS
 10
389.760010
 20
116.475304
 40
0.500000
 50
90.000000
 51
180.000000
  0
ARC
  8
0
  6
CONTINUOUS
 10
396.260010
 20
119.847008
 40
0.500000
 50
91.837456
 51
180.000000
  0
ARC
  8
0
  6
CONTINUOUS
 10
418.760010
 20
119.553604
 40
0.500000
 50
0.000000
 51
86.668304
  0
LINE
  8
0
  6
CONTINUOUS
 10
413.260010
 20
116.975304
 11
419.010010
 21
116.975304
  0
LINE
  8
0
  6
CONTINUOUS
 10
412.760010
 20
117.475304
 11
412.760010
 21
119.847008
  0
LINE
  8
0
  6
CONTINUOUS
 10
413.510010
 20
116.975304
 11
413.510010
 21
118.414497
  0
LINE
  8
0
  6
CONTINUOUS
 10
419.010010
 20
116.975098
 11
419.010010
 21
118.414497
  0
LINE
  8
0
  6
CONTINUOUS
 10
413.510010
 20
117.675201
 11
419.010010
 21
117.675201
  0
ARC
  8
0
  6
CONTINUOUS
 10
416.260010
 20
112.675201
 40
7.000000
 50
73.043503
 51
106.958000
  0
ARC
  8
0
  6
CONTINUOUS
 10
418.010010
 20
118.414497
 40
1.000000
 50
0.000000
 51
73.043098
  0
ARC
  8
0
  6
CONTINUOUS
 10
414.510010
 20
118.414497
 40
1.000000
 50
106.958199
 51
180.000000
  0
ARC
  8
0
  6
CONTINUOUS
 10
413.260010
 20
117.475304
 40
0.500000
 50
180.000000
 51
270.000000
  0
ARC
  8
0
  6
CONTINUOUS
 10
418.760010
 20
116.475304
 40
0.500000
 50
0.000000
 51
90.000000
  0
ARC
  8
0
  6
CONTINUOUS
 10
412.260010
 20
119.847008
 40
0.500000
 50
0.000000
 51
88.162544
  0
LINE
  8
0
  6
CONTINUOUS
 10
419.259918
 20
96.067635
 11
419.259918
 21
99.974998
  0
LINE
  8
0
  6
CONTINUOUS
 10
411.792023
 20
10.372619
 11
386.760010
 21
9.975000
  0
ARC
  8
0
  6
CONTINUOUS
 10
400.260010
 20
10.710720
 40
0.500000
 50
-89.000000
 51
0.000000
  0
LINE
  8
0
  6
CONTINUOUS
 10
413.016998
 20
10.698358
 11
411.760254
 21
10.364173
  0
ARC
  8
0
  6
CONTINUOUS
 10
412.760010
 20
11.664773
 40
1.000000
 50
-75.108749
 51
0.000000
  0
LINE
  8
0
  6
CONTINUOUS
 10
411.760254
 20
19.474590
 11
400.760010
 21
19.474590
  0
LINE
  8
0
  6
CONTINUOUS
 10
413.016998
 20
19.808775
 11
411.760254
 21
19.474590
  0
ARC
  8
0
  6
CONTINUOUS
 10
412.760010
 20
20.775190
 40
1.000000
 50
-75.108749
 51
0.000000
  0
LINE
  8
0
  6
CONTINUOUS
 10
411.760254
 20
90.475410
 11
400.760010
 21
90.475410
  0
LINE
  8
0
  6
CONTINUOUS
 10
413.016998
 20
90.141228
 11
411.760254
 21
90.475410
  0
ARC
  8
0
  6
CONTINUOUS
 10
412.760010
 20
89.174812
 40
1.000000
 50
0.000000
 51
75.108749
  0
LINE
  8
0
  6
CONTINUOUS
 10
414.733826
 20
94.000801
 11
417.312286
 21
94.068321
  0
ARC
  8
0
  6
CONTINUOUS
 10
417.259918
 20
96.067635
 40
2.000000
 50
-88.500000
 51
0.000000
  0
LINE
  8
0
  6
CONTINUOUS
 10
440.956818
 20
93.512825
 11
417.720123
 21
94.121300
  0
ARC
  8
0
  6
CONTINUOUS
 10
414.760010
 20
93.001144
 40
1.000000
 50
91.500015
 51
180.000000
  0
LINE
  8
0
  6
CONTINUOUS
 10
442.518005
 20
93.219528
 11
443.436798
 21
92.889091
  0
ARC
  8
0
  6
CONTINUOUS
 10
442.759979
 20
91.007103
 40
2.000000
 50
0.000000
 51
70.219681
  0
LINE
  8
0
  6
CONTINUOUS
 10
417.273102
 20
10.816994
 11
413.760010
 21
10.725000
  0
LINE
  8
0
  6
CONTINUOUS
 10
440.956818
 20
16.728174
 11
413.760010
 21
16.016001
  0
LINE
  8
0
  6
CONTINUOUS
 10
442.518005
 20
17.021475
 11
443.436798
 21
17.351906
  0
ARC
  8
0
  6
CONTINUOUS
 10
442.759979
 20
19.233900
 40
2.000000
 50
-70.219681
 51
0.000000
  0
LINE
  8
0
  6
CONTINUOUS
 10
432.295776
 20
116.625298
 11
433.031555
 21
113.790199
  0
LINE
  8
0
  6
CONTINUOUS
 10
433.031555
 20
113.790199
 11
432.219482
 21
111.315201
  0
LINE
  8
0
  6
CONTINUOUS
 10
432.219482
 20
111.315201
 11
433.147583
 21
108.925301
  0
ARC
  8
0
  6
CONTINUOUS
 10
440.825928
 20
88.514542
 40
5.000000
 50
70.219719
 51
88.500000
  0
ARC
  8
0
  6
CONTINUOUS
 10
440.825928
 20
21.726461
 40
5.000000
 50
-88.500000
 51
-70.219719
  0
LINE
  8
0
  6
CONTINUOUS
 10
401.760010
 20
91.475403
 11
401.760010
 21
98.475403
  0
LINE
  8
0
  6
CONTINUOUS
 10
400.760010
 20
91.475403
 11
402.739014
 21
91.475403
  0
LINE
  8
0
  6
CONTINUOUS
 10
400.760010
 20
98.475403
 11
402.739014
 21
98.475403
  0
ARC
  8
0
  6
CONTINUOUS
 10
395.359955
 20
94.975403
 40
8.999999
 50
-16.601521
 51
16.601009
  0
ARC
  8
0
  6
CONTINUOUS
 10
402.739014
 20
92.775421
 40
1.300000
 50
-90.000000
 51
-16.601580
  0
ARC
  8
0
  6
CONTINUOUS
 10
402.739014
 20
97.175415
 40
1.300000
 50
16.600901
 51
90.000000
  0
LINE
  8
0
  6
CONTINUOUS
 10
401.760010
 20
11.474590
 11
401.760010
 21
18.474590
  0
LINE
  8
0
  6
CONTINUOUS
 10
400.760010
 20
11.474590
 11
402.739014
 21
11.474590
  0
LINE
  8
0
  6
CONTINUOUS
 10
400.760010
 20
18.474590
 11
402.739014
 21
18.474590
  0
ARC
  8
0
  6
CONTINUOUS
 10
395.359955
 20
14.974590
 40
8.999999
 50
-16.601521
 51
16.601009
  0
ARC
  8
0
  6
CONTINUOUS
 10
402.739014
 20
12.774608
 40
1.300000
 50
-90.000000
 51
-16.601580
  0
ARC
  8
0
  6
CONTINUOUS
 10
402.739014
 20
17.174603
 40
1.300000
 50
16.600901
 51
90.000000
  0
ARC
  8
0
  6
CONTINUOUS
 10
417.260010
 20
11.316823
 40
0.500000
 50
-88.499992
 51
0.000000
  0
LINE
  8
0
  6
CONTINUOUS
 10
417.760010
 20
78.323814
 11
444.759979
 21
77.616798
  0
LINE
  8
0
  6
CONTINUOUS
 10
417.760010
 20
72.376183
 11
444.759979
 21
73.083199
  0
LINE
  8
0
  6
CONTINUOUS
 10
387.260010
 20
235.500046
 11
387.260010
 21
245.267456
  0
LINE
  8
0
  6
CONTINUOUS
 10
386.760010
 20
285.383759
 11
386.760010
 21
195.383743
  0
LINE
  8
0
  6
CONTINUOUS
 10
413.760010
 20
197.114044
 11
413.760010
 21
217.383743
  0
LINE
  8
0
  6
CONTINUOUS
 10
413.760010
 20
283.653442
 11
413.760010
 21
263.383759
  0
LINE
  8
0
  6
CONTINUOUS
 10
386.760010
 20
211.383743
 11
400.273102
 21
211.737656
  0
LINE
  8
0
  6
CONTINUOUS
 10
400.273102
 20
269.029846
 11
386.760010
 21
269.383759
  0
LINE
  8
0
  6
CONTINUOUS
 10
421.260010
 20
235.500046
 11
421.260010
 21
245.267456
  0
LINE
  8
0
  6
CONTINUOUS
 10
400.760010
 20
268.529938
 11
400.760010
 21
263.383759
  0
ARC
  8
0
  6
CONTINUOUS
 10
400.260010
 20
268.529938
 40
0.500000
 50
0.000000
 51
88.496399
  0
LINE
  8
0
  6
CONTINUOUS
 10
400.760010
 20
212.237549
 11
400.760010
 21
217.383743
  0
ARC
  8
0
  6
CONTINUOUS
 10
400.260010
 20
212.237549
 40
0.500000
 50
-88.496399
 51
0.000000
  0
LINE
  8
0
  6
CONTINUOUS
 10
400.760010
 20
268.033752
 11
413.760010
 21
267.693268
  0
LINE
  8
0
  6
CONTINUOUS
 10
400.760010
 20
212.733749
 11
413.760010
 21
213.074249
  0
ARC
  8
0
  6
CONTINUOUS
 10
391.260010
 20
261.366241
 40
2.000000
 50
89.499939
 51
180.000000
  0
LINE
  8
0
  6
CONTINUOUS
 10
411.795227
 20
284.946716
 11
386.760010
 21
285.383759
  0
LINE
  8
0
  6
CONTINUOUS
 10
413.018402
 20
284.619537
 11
411.795227
 21
284.946716
  0
ARC
  8
0
  6
CONTINUOUS
 10
412.760010
 20
283.653442
 40
1.000000
 50
0.000000
 51
75.023903
  0
LINE
  8
0
  6
CONTINUOUS
 10
411.795197
 20
195.820786
 11
386.760010
 21
195.383743
  0
LINE
  8
0
  6
CONTINUOUS
 10
413.018402
 20
196.148056
 11
411.795197
 21
195.820786
  0
ARC
  8
0
  6
CONTINUOUS
 10
412.760010
 20
197.114044
 40
1.000000
 50
-75.023903
 51
0.000000
  0
LINE
  8
0
  6
CONTINUOUS
 10
419.260101
 20
261.383759
 11
419.260101
 21
219.383743
  0
LINE
  8
0
  6
CENTER
 10
404.260010
 20
208.573746
 11
404.260010
 21
272.108765
  0
LINE
  8
0
  6
CONTINUOUS
 10
389.260010
 20
219.383743
 11
389.260010
 21
261.383759
  0
LINE
  8
0
  6
CONTINUOUS
 10
387.260010
 20
235.383743
 11
387.260010
 21
245.383743
  0
LINE
  8
0
  6
CONTINUOUS
 10
421.260010
 20
235.383743
 11
421.260010
 21
245.383743
  0
ARC
  8
0
  6
CONTINUOUS
 10
416.260010
 20
260.383759
 40
3.500000
 50
180.000000
 51
270.000000
  0
LINE
  8
0
  6
CONTINUOUS
 10
418.260101
 20
256.883759
 11
416.260010
 21
256.883759
  0
LINE
  8
0
  6
CONTINUOUS
 10
412.760010
 20
262.383759
 11
412.760010
 21
260.383759
  0
ARC
  8
0
  6
CONTINUOUS
 10
418.260101
 20
255.883743
 40
1.000000
 50
0.000000
 51
90.000000
  0
ARC
  8
0
  6
CONTINUOUS
 10
392.260010
 20
260.383759
 40
3.500000
 50
-90.000000
 51
0.000000
  0
LINE
  8
0
  6
CONTINUOUS
 10
395.760010
 20
262.383759
 11
395.760010
 21
260.383759
  0
LINE
  8
0
  6
CONTINUOUS
 10
390.259888
 20
256.883759
 11
392.260010
 21
256.883759
  0
ARC
  8
0
  6
CONTINUOUS
 10
390.259888
 20
255.883743
 40
1.000000
 50
90.000000
 51
180.000000
  0
LINE
  8
0
  6
CONTINUOUS
 10
391.260010
 20
263.383759
 11
417.260101
 21
263.383759
  0
ARC
  8
0
  6
CONTINUOUS
 10
396.760010
 20
262.383759
 40
1.000000
 50
90.000000
 51
180.000000
  0
ARC
  8
0
  6
CONTINUOUS
 10
411.760010
 20
262.383759
 40
1.000000
 50
0.000000
 51
90.000000
  0
ARC
  8
0
  6
CONTINUOUS
 10
417.260101
 20
261.383759
 40
2.000000
 50
0.000000
 51
90.000000
  0
ARC
  8
0
  6
CONTINUOUS
 10
391.260010
 20
261.383759
 40
2.000000
 50
90.000000
 51
180.000000
  0
ARC
  8
0
  6
CONTINUOUS
 10
416.260010
 20
220.383743
 40
3.500000
 50
90.000000
 51
180.000000
  0
LINE
  8
0
  6
CONTINUOUS
 10
418.260101
 20
223.883743
 11
416.260010
 21
223.883743
  0
LINE
  8
0
  6
CONTINUOUS
 10
412.760010
 20
218.383743
 11
412.760010
 21
220.383743
  0
ARC
  8
0
  6
CONTINUOUS
 10
418.260101
 20
224.883743
 40
1.000000
 50
-90.000000
 51
0.000000
  0
ARC
  8
0
  6
CONTINUOUS
 10
392.260010
 20
220.383743
 40
3.500000
 50
0.000000
 51
90.000000
  0
LINE
  8
0
  6
CONTINUOUS
 10
395.760010
 20
218.383743
 11
395.760010
 21
220.383743
  0
LINE
  8
0
  6
CONTINUOUS
 10
390.259888
 20
223.883743
 11
392.260010
 21
223.883743
  0
ARC
  8
0
  6
CONTINUOUS
 10
390.259888
 20
224.883743
 40
1.000000
 50
180.000000
 51
270.000000
  0
LINE
  8
0
  6
CONTINUOUS
 10
391.260010
 20
217.383743
 11
417.260101
 21
217.383743
  0
ARC
  8
0
  6
CONTINUOUS
 10
396.760010
 20
218.383743
 40
1.000000
 50
180.000000
 51
270.000000
  0
ARC
  8
0
  6
CONTINUOUS
 10
411.760010
 20
218.383743
 40
1.000000
 50
-90.000000
 51
0.000000
  0
ARC
  8
0
  6
CONTINUOUS
 10
417.260101
 20
219.383743
 40
2.000000
 50
-90.000000
 51
0.000000
  0
ARC
  8
0
  6
CONTINUOUS
 10
391.260010
 20
219.383743
 40
2.000000
 50
180.000000
 51
270.000000
  0
LINE
  8
0
  6
CONTINUOUS
 10
419.760010
 20
234.383743
 11
420.260010
 21
234.383743
  0
ARC
  8
0
  6
CONTINUOUS
 10
420.260010
 20
235.383743
 40
1.000000
 50
-90.000000
 51
0.000000
  0
ARC
  8
0
  6
CONTINUOUS
 10
419.760010
 20
233.883743
 40
0.500000
 50
90.000000
 51
180.000000
  0
LINE
  8
0
  6
CONTINUOUS
 10
419.760010
 20
246.383743
 11
420.260010
 21
246.383743
  0
ARC
  8
0
  6
CONTINUOUS
 10
420.260010
 20
245.383743
 40
1.000000
 50
0.000000
 51
90.000000
  0
ARC
  8
0
  6
CONTINUOUS
 10
419.760010
 20
246.883743
 40
0.500000
 50
180.000000
 51
270.000000
  0
LINE
  8
0
  6
CONTINUOUS
 10
388.760010
 20
234.383743
 11
388.260010
 21
234.383743
  0
ARC
  8
0
  6
CONTINUOUS
 10
388.260010
 20
235.383743
 40
1.000000
 50
180.000000
 51
270.000000
  0
ARC
  8
0
  6
CONTINUOUS
 10
388.760010
 20
233.883743
 40
0.500000
 50
0.000000
 51
90.000000
  0
LINE
  8
0
  6
CONTINUOUS
 10
388.760010
 20
246.383743
 11
388.260010
 21
246.383743
  0
ARC
  8
0
  6
CONTINUOUS
 10
388.260010
 20
245.383743
 40
1.000000
 50
90.000000
 51
180.000000
  0
ARC
  8
0
  6
CONTINUOUS
 10
388.760010
 20
246.883743
 40
0.500000
 50
-90.000000
 51
0.000000
  0
LINE
  8
0
  6
CONTINUOUS
 10
414.510010
 20
259.983765
 11
414.510010
 21
260.783783
  0
LINE
  8
0
  6
CONTINUOUS
 10
416.660034
 20
258.633759
 11
415.860016
 21
258.633759
  0
LINE
  8
0
  6
CONTINUOUS
 10
416.660034
 20
262.133759
 11
415.860016
 21
262.133759
  0
LINE
  8
0
  6
CONTINUOUS
 10
418.010010
 20
259.983765
 11
418.010010
 21
260.783783
  0
CIRCLE
  8
0
  6
CONTINUOUS
 10
416.260010
 20
260.383759
 40
2.750000
  0
ARC
  8
0
  6
CONTINUOUS
 10
418.010010
 20
258.633759
 40
1.350000
 50
90.000000
 51
180.000000
  0
ARC
  8
0
  6
CONTINUOUS
 10
418.010010
 20
262.133759
 40
1.350000
 50
180.000000
 51
270.000000
  0
ARC
  8
0
  6
CONTINUOUS
 10
414.510010
 20
258.633759
 40
1.350000
 50
0.000000
 51
90.000000
  0
ARC
  8
0
  6
CONTINUOUS
 10
414.510010
 20
262.133759
 40
1.350000
 50
-90.000000
 51
0.000000
  0
LINE
  8
0
  6
CONTINUOUS
 10
390.510010
 20
259.983765
 11
390.510010
 21
260.783783
  0
LINE
  8
0
  6
CONTINUOUS
 10
392.660034
 20
258.633759
 11
391.860016
 21
258.633759
  0
LINE
  8
0
  6
CONTINUOUS
 10
392.660034
 20
262.133759
 11
391.860016
 21
262.133759
  0
LINE
  8
0
  6
CONTINUOUS
 10
394.010010
 20
259.983765
 11
394.010010
 21
260.783783
  0
CIRCLE
  8
0
  6
CONTINUOUS
 10
392.260010
 20
260.383759
 40
2.750000
  0
ARC
  8
0
  6
CONTINUOUS
 10
394.010010
 20
258.633759
 40
1.350000
 50
90.000000
 51
180.000000
  0
ARC
  8
0
  6
CONTINUOUS
 10
394.010010
 20
262.133759
 40
1.350000
 50
180.000000
 51
270.000000
  0
ARC
  8
0
  6
CONTINUOUS
 10
390.510010
 20
258.633759
 40
1.350000
 50
0.000000
 51
90.000000
  0
ARC
  8
0
  6
CONTINUOUS
 10
390.510010
 20
262.133759
 40
1.350000
 50
-90.000000
 51
0.000000
  0
LINE
  8
0
  6
CONTINUOUS
 10
390.510010
 20
219.983749
 11
390.510010
 21
220.783768
  0
LINE
  8
0
  6
CONTINUOUS
 10
392.660034
 20
218.633743
 11
391.860016
 21
218.633743
  0
LINE
  8
0
  6
CONTINUOUS
 10
392.660034
 20
222.133743
 11
391.860016
 21
222.133743
  0
LINE
  8
0
  6
CONTINUOUS
 10
394.010010
 20
219.983749
 11
394.010010
 21
220.783768
  0
CIRCLE
  8
0
  6
CONTINUOUS
 10
392.260010
 20
220.383743
 40
2.750000
  0
ARC
  8
0
  6
CONTINUOUS
 10
394.010010
 20
218.633743
 40
1.350000
 50
90.000000
 51
180.000000
  0
ARC
  8
0
  6
CONTINUOUS
 10
394.010010
 20
222.133743
 40
1.350000
 50
180.000000
 51
270.000000
  0
ARC
  8
0
  6
CONTINUOUS
 10
390.510010
 20
218.633743
 40
1.350000
 50
0.000000
 51
90.000000
  0
ARC
  8
0
  6
CONTINUOUS
 10
390.510010
 20
222.133743
 40
1.350000
 50
-90.000000
 51
0.000000
  0
LINE
  8
0
  6
CONTINUOUS
 10
414.510010
 20
219.983749
 11
414.510010
 21
220.783768
  0
LINE
  8
0
  6
CONTINUOUS
 10
416.660034
 20
218.633743
 11
415.860016
 21
218.633743
  0
LINE
  8
0
  6
CONTINUOUS
 10
416.660034
 20
222.133743
 11
415.860016
 21
222.133743
  0
LINE
  8
0
  6
CONTINUOUS
 10
418.010010
 20
219.983749
 11
418.010010
 21
220.783768
  0
CIRCLE
  8
0
  6
CONTINUOUS
 10
416.260010
 20
220.383743
 40
2.750000
  0
ARC
  8
0
  6
CONTINUOUS
 10
418.010010
 20
218.633743
 40
1.350000
 50
90.000000
 51
180.000000
  0
ARC
  8
0
  6
CONTINUOUS
 10
418.010010
 20
222.133743
 40
1.350000
 50
180.000000
 51
270.000000
  0
ARC
  8
0
  6
CONTINUOUS
 10
414.510010
 20
218.633743
 40
1.350000
 50
0.000000
 51
90.000000
  0
ARC
  8
0
  6
CONTINUOUS
 10
414.510010
 20
222.133743
 40
1.350000
 50
-90.000000
 51
0.000000
  0
LINE
  8
0
  6
CONTINUOUS
 10
436.408691
 20
244.233749
 11
421.259888
 21
244.233749
  0
LINE
  8
0
  6
CONTINUOUS
 10
435.556885
 20
236.533752
 11
436.292694
 21
239.368851
  0
LINE
  8
0
  6
CONTINUOUS
 10
436.292694
 20
239.368851
 11
435.480591
 21
241.843857
  0
LINE
  8
0
  6
CONTINUOUS
 10
435.480591
 20
241.843857
 11
436.408691
 21
244.233749
  0
LINE
  8
0
  6
CONTINUOUS
 10
435.556885
 20
236.533752
 11
421.259888
 21
236.533752
  0
LINE
  8
0
  6
CONTINUOUS
 10
401.760010
 20
217.383743
 11
401.760010
 21
212.883743
  0
LINE
  8
0
  6
CONTINUOUS
 10
400.760010
 20
212.883743
 11
402.739014
 21
212.883743
  0
ARC
  8
0
  6
CONTINUOUS
 10
395.359955
 20
216.383743
 40
8.999999
 50
-16.601009
 51
6.379371
  0
ARC
  8
0
  6
CONTINUOUS
 10
402.739014
 20
214.183731
 40
1.300000
 50
270.000000
 51
343.399109
  0
LINE
  8
0
  6
CONTINUOUS
 10
401.760010
 20
263.383759
 11
401.760010
 21
267.883759
  0
LINE
  8
0
  6
CONTINUOUS
 10
400.760010
 20
267.883759
 11
402.739014
 21
267.883759
  0
ARC
  8
0
  6
CONTINUOUS
 10
395.359955
 20
264.383759
 40
8.999999
 50
-6.379371
 51
16.601009
  0
ARC
  8
0
  6
CONTINUOUS
 10
402.739014
 20
266.583771
 40
1.300000
 50
16.600901
 51
90.000000
  0
LINE
  8
0
  6
CONTINUOUS
 10
441.015900
 20
201.847473
 11
413.760010
 21
201.133743
  0
LINE
  8
0
  6
CONTINUOUS
 10
444.760010
 20
204.308472
 11
444.760010
 21
276.459015
  0
LINE
  8
0
  6
CONTINUOUS
 10
442.466156
 20
202.102341
 11
443.392456
 21
202.411102
  0
ARC
  8
0
  6
CONTINUOUS
 10
442.760010
 20
204.308472
 40
2.000000
 50
-71.565048
 51
0.000000
  0
ARC
  8
0
  6
CONTINUOUS
 10
440.885010
 20
206.845764
 40
5.000000
 50
271.500000
 51
288.434937
  0
LINE
  8
0
  6
CONTINUOUS
 10
417.273102
 20
279.536163
 11
413.760010
 21
279.628143
  0
LINE
  8
0
  6
CONTINUOUS
 10
417.760010
 20
279.036316
 11
417.760010
 21
269.913605
  0
LINE
  8
0
  6
CONTINUOUS
 10
441.015900
 20
278.920044
 11
413.760010
 21
279.633759
  0
LINE
  8
0
  6
CONTINUOUS
 10
442.466156
 20
278.665161
 11
443.392456
 21
278.356384
  0
ARC
  8
0
  6
CONTINUOUS
 10
442.760010
 20
276.459015
 40
2.000000
 50
0.000000
 51
71.565048
  0
ARC
  8
0
  6
CONTINUOUS
 10
440.885010
 20
273.921753
 40
5.000000
 50
71.565048
 51
88.500000
  0
LINE
  8
0
  6
CONTINUOUS
 10
417.760010
 20
278.424164
 11
419.199219
 21
278.424164
  0
LINE
  8
0
  6
CONTINUOUS
 10
417.760010
 20
272.924164
 11
419.199219
 21
272.924164
  0
LINE
  8
0
  6
CONTINUOUS
 10
418.459961
 20
278.424164
 11
418.459961
 21
272.924164
  0
ARC
  8
0
  6
CONTINUOUS
 10
413.459961
 20
275.674164
 40
7.000000
 50
-16.956499
 51
16.958000
  0
ARC
  8
0
  6
CONTINUOUS
 10
419.199219
 20
273.924164
 40
1.000000
 50
270.000000
 51
343.043091
  0
ARC
  8
0
  6
CONTINUOUS
 10
419.199219
 20
277.424164
 40
1.000000
 50
16.958099
 51
90.000000
  0
LINE
  8
0
  6
CONTINUOUS
 10
417.760010
 20
269.913605
 11
413.760010
 21
269.913605
  0
LINE
  8
0
  6
CONTINUOUS
 10
444.750763
 20
271.704620
 11
444.760010
 21
271.704376
  0
ARC
  8
0
  6
CONTINUOUS
 10
417.260010
 20
279.036316
 40
0.500000
 50
0.000000
 51
88.500000
  0
LINE
  8
0
  6
CONTINUOUS
 10
417.273102
 20
201.231339
 11
413.760010
 21
201.139343
  0
LINE
  8
0
  6
CONTINUOUS
 10
417.760010
 20
201.731171
 11
417.760010
 21
210.853882
  0
LINE
  8
0
  6
CONTINUOUS
 10
417.760010
 20
202.343353
 11
419.199219
 21
202.343353
  0
LINE
  8
0
  6
CONTINUOUS
 10
417.760010
 20
207.843353
 11
419.199219
 21
207.843353
  0
LINE
  8
0
  6
CONTINUOUS
 10
418.459961
 20
202.343353
 11
418.459961
 21
207.843353
  0
ARC
  8
0
  6
CONTINUOUS
 10
413.459961
 20
205.093353
 40
7.000000
 50
-16.958000
 51
16.956499
  0
ARC
  8
0
  6
CONTINUOUS
 10
419.199219
 20
206.843353
 40
1.000000
 50
16.956900
 51
90.000000
  0
ARC
  8
0
  6
CONTINUOUS
 10
419.199219
 20
203.343353
 40
1.000000
 50
-90.000000
 51
-16.958099
  0
LINE
  8
0
  6
CONTINUOUS
 10
417.760010
 20
210.853882
 11
413.760010
 21
210.853882
  0
ARC
  8
0
  6
CONTINUOUS
 10
417.260010
 20
201.731171
 40
0.500000
 50
-88.500000
 51
0.000000
  0
LINE
  8
0
  6
CONTINUOUS
 10
420.453430
 20
275.976196
 11
444.760010
 21
275.339722
  0
LINE
  8
0
  6
CONTINUOUS
 10
417.760010
 20
272.065552
 11
444.760010
 21
272.772583
  0
LINE
  8
0
  6
CONTINUOUS
 10
420.453430
 20
204.791290
 11
444.760010
 21
205.427780
  0
LINE
  8
0
  6
CONTINUOUS
 10
417.760010
 20
208.701935
 11
444.760010
 21
207.994904
  0
ARC
  8
0
  6
DASHED
 10
31.260000
 20
118.958702
 40
0.500000
 50
95.173981
 51
180.000000
  0
ARC
  8
0
  6
CONTINUOUS
 10
37.759998
 20
119.461746
 40
0.500000
 50
93.676804
 51
162.961609
  0
ARC
  8
0
  6
DASHED
 10
53.759998
 20
-129.524704
 40
250.000000
 50
94.598679
 51
95.173981
  0
TEXT
  8
0
 10
-1.000000
 20
-2.000000
 40
4.000000
 41
1.000000
  1
HFV-18L-10~240-T60
 50
0.000000
  0
ENDSEC
  0
EOF
