  0
SECTION
  2
HEADER
  9
$ACADVER
  1
AC1015
  9
$ACADMAINTVER
 70
    20
  9
$DWGCODEPAGE
  3
ANSI_932
  9
$INSBASE
 10
0.0
 20
0.0
 30
0.0
  9
$EXTMIN
 10
29.2603397349
 20
34.2648789719
 30
0.0
  9
$EXTMAX
 10
767.0342297205
 20
393.8109925389
 30
0.0
  9
$LIMMIN
 10
0.0
 20
0.0
  9
$LIMMAX
 10
297.0
 20
210.0
  9
$ORTHOMODE
 70
     0
  9
$REGENMODE
 70
     1
  9
$FILLMODE
 70
     1
  9
$QTEXTMODE
 70
     0
  9
$MIRRTEXT
 70
     0
  9
$LTSCALE
 40
2.0
  9
$ATTMODE
 70
     1
  9
$TEXTSIZE
 40
2.0
  9
$TRACEWID
 40
1.0
  9
$TEXTSTYLE
  7
STANDARD
  9
$CLAYER
  8
0
  9
$CELTYPE
  6
BYLAYER
  9
$CECOLOR
 62
   256
  9
$CELTSCALE
 40
1.0
  9
$DISPSILH
 70
     0
  9
$DIMSCALE
 40
2.0
  9
$DIMASZ
 40
1.8
  9
$DIMEXO
 40
0.625
  9
$DIMDLI
 40
3.75
  9
$DIMRND
 40
0.0
  9
$DIMDLE
 40
0.0
  9
$DIMEXE
 40
0.8
  9
$DIMTP
 40
0.0
  9
$DIMTM
 40
0.0
  9
$DIMTXT
 40
1.8
  9
$DIMCEN
 40
2.5
  9
$DIMTSZ
 40
0.0
  9
$DIMTOL
 70
     0
  9
$DIMLIM
 70
     0
  9
$DIMTIH
 70
     0
  9
$DIMTOH
 70
     0
  9
$DIMSE1
 70
     0
  9
$DIMSE2
 70
     0
  9
$DIMTAD
 70
     1
  9
$DIMZIN
 70
     8
  9
$DIMBLK
  1

  9
$DIMASO
 70
     1
  9
$DIMSHO
 70
     1
  9
$DIMPOST
  1

  9
$DIMAPOST
  1

  9
$DIMALT
 70
     0
  9
$DIMALTD
 70
     4
  9
$DIMALTF
 40
0.0394
  9
$DIMLFAC
 40
1.0
  9
$DIMTOFL
 70
     1
  9
$DIMTVP
 40
0.0
  9
$DIMTIX
 70
     0
  9
$DIMSOXD
 70
     0
  9
$DIMSAH
 70
     0
  9
$DIMBLK1
  1

  9
$DIMBLK2
  1

  9
$DIMSTYLE
  2
STANDARD
  9
$DIMCLRD
 70
     0
  9
$DIMCLRE
 70
     0
  9
$DIMCLRT
 70
     0
  9
$DIMTFAC
 40
1.0
  9
$DIMGAP
 40
0.75
  9
$DIMJUST
 70
     0
  9
$DIMSD1
 70
     0
  9
$DIMSD2
 70
     0
  9
$DIMTOLJ
 70
     1
  9
$DIMTZIN
 70
     0
  9
$DIMALTZ
 70
     0
  9
$DIMALTTZ
 70
     0
  9
$DIMUPT
 70
     0
  9
$DIMDEC
 70
     2
  9
$DIMTDEC
 70
     2
  9
$DIMALTU
 70
     8
  9
$DIMALTTD
 70
     4
  9
$DIMTXSTY
  7
STANDARD
  9
$DIMAUNIT
 70
     0
  9
$DIMADEC
 70
     2
  9
$DIMALTRND
 40
0.0
  9
$DIMAZIN
 70
     0
  9
$DIMDSEP
 70
    46
  9
$DIMATFIT
 70
     3
  9
$DIMFRAC
 70
     0
  9
$DIMLDRBLK
  1

  9
$DIMLUNIT
 70
     6
  9
$DIMLWD
 70
    -2
  9
$DIMLWE
 70
    -2
  9
$DIMTMOVE
 70
     0
  9
$LUNITS
 70
     2
  9
$LUPREC
 70
     3
  9
$SKETCHINC
 40
1.0
  9
$FILLETRAD
 40
10.0
  9
$AUNITS
 70
     0
  9
$AUPREC
 70
     2
  9
$MENU
  1
.
  9
$ELEVATION
 40
0.0
  9
$PELEVATION
 40
0.0
  9
$THICKNESS
 40
0.0
  9
$LIMCHECK
 70
     0
  9
$CHAMFERA
 40
0.0
  9
$CHAMFERB
 40
0.0
  9
$CHAMFERC
 40
20.0
  9
$CHAMFERD
 40
0.0
  9
$SKPOLY
 70
     0
  9
$TDCREATE
 40
2453759.701076389
  9
$TDUCREATE
 40
2453759.326082894
  9
$TDUPDATE
 40
2460516.499328704
  9
$TDUUPDATE
 40
2460516.124328704
  9
$TDINDWG
 40
0.1032394560
  9
$TDUSRTIMER
 40
0.1032394560
  9
$USRTIMER
 70
     1
  9
$ANGBASE
 50
0.0
  9
$ANGDIR
 70
     0
  9
$PDMODE
 70
     0
  9
$PDSIZE
 40
-10.0
  9
$PLINEWID
 40
0.0
  9
$SPLFRAME
 70
     0
  9
$SPLINETYPE
 70
     6
  9
$SPLINESEGS
 70
     8
  9
$HANDSEED
  5
1919
  9
$SURFTAB1
 70
     6
  9
$SURFTAB2
 70
     6
  9
$SURFTYPE
 70
     6
  9
$SURFU
 70
     6
  9
$SURFV
 70
     6
  9
$UCSBASE
  2

  9
$UCSNAME
  2

  9
$UCSORG
 10
0.0
 20
0.0
 30
0.0
  9
$UCSXDIR
 10
1.0
 20
0.0
 30
0.0
  9
$UCSYDIR
 10
0.0
 20
1.0
 30
0.0
  9
$UCSORTHOREF
  2

  9
$UCSORTHOVIEW
 70
     0
  9
$UCSORGTOP
 10
0.0
 20
0.0
 30
0.0
  9
$UCSORGBOTTOM
 10
0.0
 20
0.0
 30
0.0
  9
$UCSORGLEFT
 10
0.0
 20
0.0
 30
0.0
  9
$UCSORGRIGHT
 10
0.0
 20
0.0
 30
0.0
  9
$UCSORGFRONT
 10
0.0
 20
0.0
 30
0.0
  9
$UCSORGBACK
 10
0.0
 20
0.0
 30
0.0
  9
$PUCSBASE
  2

  9
$PUCSNAME
  2

  9
$PUCSORG
 10
0.0
 20
0.0
 30
0.0
  9
$PUCSXDIR
 10
1.0
 20
0.0
 30
0.0
  9
$PUCSYDIR
 10
0.0
 20
1.0
 30
0.0
  9
$PUCSORTHOREF
  2

  9
$PUCSORTHOVIEW
 70
     0
  9
$PUCSORGTOP
 10
0.0
 20
0.0
 30
0.0
  9
$PUCSORGBOTTOM
 10
0.0
 20
0.0
 30
0.0
  9
$PUCSORGLEFT
 10
0.0
 20
0.0
 30
0.0
  9
$PUCSORGRIGHT
 10
0.0
 20
0.0
 30
0.0
  9
$PUCSORGFRONT
 10
0.0
 20
0.0
 30
0.0
  9
$PUCSORGBACK
 10
0.0
 20
0.0
 30
0.0
  9
$USERI1
 70
     0
  9
$USERI2
 70
     0
  9
$USERI3
 70
     0
  9
$USERI4
 70
     0
  9
$USERI5
 70
     0
  9
$USERR1
 40
0.0
  9
$USERR2
 40
0.0
  9
$USERR3
 40
0.0
  9
$USERR4
 40
0.0
  9
$USERR5
 40
0.0
  9
$WORLDVIEW
 70
     1
  9
$SHADEDGE
 70
     3
  9
$SHADEDIF
 70
    70
  9
$TILEMODE
 70
     1
  9
$MAXACTVP
 70
    48
  9
$PINSBASE
 10
0.0
 20
0.0
 30
0.0
  9
$PLIMCHECK
 70
     0
  9
$PEXTMIN
 10
0.0
 20
0.0
 30
0.0
  9
$PEXTMAX
 10
0.0
 20
0.0
 30
0.0
  9
$PLIMMIN
 10
0.0
 20
0.0
  9
$PLIMMAX
 10
12.0
 20
9.0
  9
$UNITMODE
 70
     0
  9
$VISRETAIN
 70
     1
  9
$PLINEGEN
 70
     0
  9
$PSLTSCALE
 70
     1
  9
$TREEDEPTH
 70
  3020
  9
$CMLSTYLE
  2
STANDARD
  9
$CMLJUST
 70
     0
  9
$CMLSCALE
 40
1.0
  9
$PROXYGRAPHICS
 70
     1
  9
$MEASUREMENT
 70
     0
  9
$CELWEIGHT
370
    -1
  9
$ENDCAPS
280
     0
  9
$JOINSTYLE
280
     0
  9
$LWDISPLAY
290
     0
  9
$INSUNITS
 70
     0
  9
$HYPERLINKBASE
  1

  9
$STYLESHEET
  1
SEKKEI.CTB
  9
$XEDIT
290
     1
  9
$CEPSNTYPE
380
     0
  9
$PSTYLEMODE
290
     1
  9
$FINGERPRINTGUID
  2
{6385560B-F4B1-4644-A7C2-A3E32AC3D232}
  9
$VERSIONGUID
  2
{01A4DC6B-4C1A-024A-BEE2-57D7CBF71062}
  9
$EXTNAMES
290
     1
  9
$PSVPSCALE
 40
0.0
  9
$OLESTARTUP
290
     0
  0
ENDSEC
  0
SECTION
  2
CLASSES
  0
CLASS
  1
DICTIONARYVAR
  2
AcDbDictionaryVar
  3
ObjectDBX Classes
 90
        0
280
     0
281
     0
  0
CLASS
  1
ACDBDICTIONARYWDFLT
  2
AcDbDictionaryWithDefault
  3
ObjectDBX Classes
 90
        0
280
     0
281
     0
  0
CLASS
  1
MATERIAL
  2
AcDbMaterial
  3
ObjectDBX Classes
 90
     1153
280
     0
281
     0
  0
CLASS
  1
VISUALSTYLE
  2
AcDbVisualStyle
  3
ObjectDBX Classes
 90
     4095
280
     0
281
     0
  0
CLASS
  1
TABLESTYLE
  2
AcDbTableStyle
  3
ObjectDBX Classes
 90
     4095
280
     0
281
     0
  0
CLASS
  1
SCALE
  2
AcDbScale
  3
ObjectDBX Classes
 90
     1153
280
     0
281
     0
  0
CLASS
  1
MLEADERSTYLE
  2
AcDbMLeaderStyle
  3
ACDB_MLEADERSTYLE_CLASS
 90
     4095
280
     0
281
     0
  0
CLASS
  1
CELLSTYLEMAP
  2
AcDbCellStyleMap
  3
ObjectDBX Classes
 90
     1152
280
     0
281
     0
  0
CLASS
  1
ACDBPLACEHOLDER
  2
AcDbPlaceHolder
  3
ObjectDBX Classes
 90
        0
280
     0
281
     0
  0
CLASS
  1
LAYOUT
  2
AcDbLayout
  3
ObjectDBX Classes
 90
        0
280
     0
281
     0
  0
CLASS
  1
ACDBSECTIONVIEWSTYLE
  2
AcDbSectionViewStyle
  3
ObjectDBX Classes
 90
     1025
280
     0
281
     0
  0
CLASS
  1
ACDBDETAILVIEWSTYLE
  2
AcDbDetailViewStyle
  3
ObjectDBX Classes
 90
     1025
280
     0
281
     0
  0
CLASS
  1
SORTENTSTABLE
  2
AcDbSortentsTable
  3
ObjectDBX Classes
 90
        0
280
     0
281
     0
  0
ENDSEC
  0
SECTION
  2
TABLES
  0
TABLE
  2
VPORT
  5
6E
102
{ACAD_XDICTIONARY
360
14B8
102
}
330
0
100
AcDbSymbolTable
 70
     1
  0
VPORT
  5
1438
330
6E
100
AcDbSymbolTableRecord
100
AcDbViewportTableRecord
  2
*Active
 70
     0
 10
0.0
 20
0.0
 11
1.0
 21
1.0
 12
412.9124044124
 22
214.0294129935
 13
0.0
 23
0.0
 14
10.0
 24
10.0
 15
10.0
 25
10.0
 16
0.0
 26
0.0
 36
1.0
 17
0.0
 27
0.0
 37
0.0
 40
362.3235266177
 41
2.38
 42
50.0
 43
0.0
 44
0.0
 50
0.0
 51
0.0
 71
     0
 72
   100
 73
     1
 74
     3
 75
     0
 76
     0
 77
     0
 78
     0
281
     0
 65
     1
110
0.0
120
0.0
130
0.0
111
1.0
121
0.0
131
0.0
112
0.0
122
1.0
132
0.0
 79
     0
146
0.0
1001
ACAD_NAV_VCDISPLAY
1070
     3
  0
ENDTAB
  0
TABLE
  2
LTYPE
  5
69
330
0
100
AcDbSymbolTable
 70
     3
  0
LTYPE
  5
6A
330
69
100
AcDbSymbolTableRecord
100
AcDbLinetypeTableRecord
  2
BYBLOCK
 70
     0
  3

 72
    65
 73
     0
 40
0.0
  0
LTYPE
  5
6B
330
69
100
AcDbSymbolTableRecord
100
AcDbLinetypeTableRecord
  2
BYLAYER
 70
     0
  3

 72
    65
 73
     0
 40
0.0
  0
LTYPE
  5
8
330
69
100
AcDbSymbolTableRecord
100
AcDbLinetypeTableRecord
  2
CONTINUOUS
 70
     0
  3
Solid line
 72
    65
 73
     0
 40
0.0
  0
LTYPE
  5
27C
330
69
100
AcDbSymbolTableRecord
100
AcDbLinetypeTableRecord
  2
sekkei(A2)
 70
     0
  3
center(A2)  ____ _ ____ _ ____ _ ____ _ ____ _ 
 72
    65
 73
     4
 40
14.2875
 49
9.525
 74
     0
 49
-1.5875
 74
     0
 49
1.5875
 74
     0
 49
-1.5875
 74
     0
  0
LTYPE
  5
2B4
330
69
100
AcDbSymbolTableRecord
100
AcDbLinetypeTableRecord
  2
HIDDEN2
 70
     0
  3
Hidden (.5x) _ _ _ _ _ _ _ _ _ _ _ _ _ _ _ _ _
 72
    65
 73
     2
 40
4.7625
 49
3.175
 74
     0
 49
-1.5875
 74
     0
  0
ENDTAB
  0
TABLE
  2
LAYER
  5
66
102
{ACAD_XDICTIONARY
360
1613
102
}
330
0
100
AcDbSymbolTable
 70
    10
  0
LAYER
  5
5E
102
{ACAD_XDICTIONARY
360
148E
102
}
330
66
100
AcDbSymbolTableRecord
100
AcDbLayerTableRecord
  2
0
 70
     0
 62
     7
  6
CONTINUOUS
370
    -3
390
5
  0
LAYER
  5
3E
102
{ACAD_XDICTIONARY
360
1490
102
}
330
66
100
AcDbSymbolTableRecord
100
AcDbLayerTableRecord
  2
CENTER
 70
     0
 62
     3
  6
sekkei(A2)
370
    -3
390
5
  0
LAYER
  5
135
330
66
100
AcDbSymbolTableRecord
100
AcDbLayerTableRecord
  2
DEFPOINTS
 70
     0
 62
     7
  6
CONTINUOUS
290
     0
370
    -3
390
5
  0
LAYER
  5
2B5
102
{ACAD_XDICTIONARY
360
1496
102
}
330
66
100
AcDbSymbolTableRecord
100
AcDbLayerTableRecord
  2
HIDS
 70
     0
 62
     1
  6
HIDDEN2
370
    -3
390
5
  0
LAYER
  5
2BA
102
{ACAD_XDICTIONARY
360
1498
102
}
330
66
100
AcDbSymbolTableRecord
100
AcDbLayerTableRecord
  2
HOJO
 70
     0
 62
     4
  6
CONTINUOUS
370
    -3
390
5
  0
LAYER
  5
3FA
102
{ACAD_XDICTIONARY
360
149C
102
}
330
66
100
AcDbSymbolTableRecord
100
AcDbLayerTableRecord
  2
TITLE
 70
     0
 62
     4
  6
CONTINUOUS
290
     0
370
    -3
390
5
  0
ENDTAB
  0
TABLE
  2
STYLE
  5
67
330
0
100
AcDbSymbolTable
 70
     1
  0
STYLE
  5
16
330
67
100
AcDbSymbolTableRecord
100
AcDbTextStyleTableRecord
  2
STANDARD
 70
     0
 40
0.0
 41
1.0
 50
0.0
 71
     0
 42
2.0
  3
simplex.shx
  4
extfont.shx
  0
ENDTAB
  0
TABLE
  2
VIEW
  5
6C
330
0
100
AcDbSymbolTable
 70
     0
  0
ENDTAB
  0
TABLE
  2
UCS
  5
6D
330
0
100
AcDbSymbolTable
 70
     0
  0
ENDTAB
  0
TABLE
  2
APPID
  5
70
330
0
100
AcDbSymbolTable
 70
     7
  0
APPID
  5
71
330
70
100
AcDbSymbolTableRecord
100
AcDbRegAppTableRecord
  2
ACAD
 70
     0
  0
APPID
  5
148B
330
70
100
AcDbSymbolTableRecord
100
AcDbRegAppTableRecord
  2
ACAD_MLEADERVER
 70
     0
  0
APPID
  5
1523
330
70
100
AcDbSymbolTableRecord
100
AcDbRegAppTableRecord
  2
ACAD_NAV_VCDISPLAY
 70
     0
  0
APPID
  5
16A2
330
70
100
AcDbSymbolTableRecord
100
AcDbRegAppTableRecord
  2
ACAD_PSEXT
 70
     0
  0
APPID
  5
16A3
330
70
100
AcDbSymbolTableRecord
100
AcDbRegAppTableRecord
  2
AcAecLayerStandard
 70
     0
  0
APPID
  5
16A4
330
70
100
AcDbSymbolTableRecord
100
AcDbRegAppTableRecord
  2
AcCmTransparency
 70
     0
  0
APPID
  5
1823
330
70
100
AcDbSymbolTableRecord
100
AcDbRegAppTableRecord
  2
ACAD_EXEMPT_FROM_CAD_STANDARDS
 70
     0
  0
ENDTAB
  0
TABLE
  2
DIMSTYLE
  5
72
330
0
100
AcDbSymbolTable
 70
     2
100
AcDbDimStyleTable
 71
     1
340
73
  0
DIMSTYLE
105
73
102
{ACAD_REACTORS
330
93A
330
AB9
102
}
330
72
100
AcDbSymbolTableRecord
100
AcDbDimStyleTableRecord
  2
STANDARD
 70
     0
 40
2.0
 41
1.8
 42
0.625
 43
3.75
 44
0.8
 73
     0
 74
     0
 77
     1
 78
     8
140
1.8
141
2.5
143
0.0394
147
0.75
171
     4
172
     1
179
     2
271
     2
272
     2
273
     8
274
     4
277
     6
340
16
  0
ENDTAB
  0
TABLE
  2
BLOCK_RECORD
  5
1
330
0
100
AcDbSymbolTable
 70
    59
  0
BLOCK_RECORD
  5
2
330
1
100
AcDbSymbolTableRecord
100
AcDbBlockTableRecord
  2
*MODEL_SPACE
340
60
  0
BLOCK_RECORD
  5
18C1
330
1
100
AcDbSymbolTableRecord
100
AcDbBlockTableRecord
  2
*Paper_Space
340
18C2
  0
BLOCK_RECORD
  5
4AC
330
1
100
AcDbSymbolTableRecord
100
AcDbBlockTableRecord
  2
黒丸矢印1
340
0
  0
BLOCK_RECORD
  5
C37
330
1
100
AcDbSymbolTableRecord
100
AcDbBlockTableRecord
  2
*D3
340
0
  0
BLOCK_RECORD
  5
C43
330
1
100
AcDbSymbolTableRecord
100
AcDbBlockTableRecord
  2
*D4
340
0
  0
BLOCK_RECORD
  5
C4F
330
1
100
AcDbSymbolTableRecord
100
AcDbBlockTableRecord
  2
*D5
340
0
  0
BLOCK_RECORD
  5
C5B
330
1
100
AcDbSymbolTableRecord
100
AcDbBlockTableRecord
  2
*D6
340
0
  0
BLOCK_RECORD
  5
C67
330
1
100
AcDbSymbolTableRecord
100
AcDbBlockTableRecord
  2
*D7
340
0
  0
BLOCK_RECORD
  5
C73
330
1
100
AcDbSymbolTableRecord
100
AcDbBlockTableRecord
  2
*D8
340
0
  0
BLOCK_RECORD
  5
C7F
330
1
100
AcDbSymbolTableRecord
100
AcDbBlockTableRecord
  2
*D9
340
0
  0
BLOCK_RECORD
  5
C8B
330
1
100
AcDbSymbolTableRecord
100
AcDbBlockTableRecord
  2
*D10
340
0
  0
BLOCK_RECORD
  5
C97
330
1
100
AcDbSymbolTableRecord
100
AcDbBlockTableRecord
  2
*D11
340
0
  0
BLOCK_RECORD
  5
CA3
330
1
100
AcDbSymbolTableRecord
100
AcDbBlockTableRecord
  2
*D12
340
0
  0
BLOCK_RECORD
  5
CAD
330
1
100
AcDbSymbolTableRecord
100
AcDbBlockTableRecord
  2
*D13
340
0
  0
BLOCK_RECORD
  5
CB9
330
1
100
AcDbSymbolTableRecord
100
AcDbBlockTableRecord
  2
*D14
340
0
  0
BLOCK_RECORD
  5
CC5
330
1
100
AcDbSymbolTableRecord
100
AcDbBlockTableRecord
  2
*D15
340
0
  0
BLOCK_RECORD
  5
CD1
330
1
100
AcDbSymbolTableRecord
100
AcDbBlockTableRecord
  2
*D16
340
0
  0
BLOCK_RECORD
  5
CDD
330
1
100
AcDbSymbolTableRecord
100
AcDbBlockTableRecord
  2
*D17
340
0
  0
BLOCK_RECORD
  5
CE9
330
1
100
AcDbSymbolTableRecord
100
AcDbBlockTableRecord
  2
*D18
340
0
  0
BLOCK_RECORD
  5
CF5
330
1
100
AcDbSymbolTableRecord
100
AcDbBlockTableRecord
  2
*D19
340
0
  0
BLOCK_RECORD
  5
D01
330
1
100
AcDbSymbolTableRecord
100
AcDbBlockTableRecord
  2
*D20
340
0
  0
BLOCK_RECORD
  5
D0D
330
1
100
AcDbSymbolTableRecord
100
AcDbBlockTableRecord
  2
*D21
340
0
  0
BLOCK_RECORD
  5
D19
330
1
100
AcDbSymbolTableRecord
100
AcDbBlockTableRecord
  2
*D22
340
0
  0
BLOCK_RECORD
  5
D25
330
1
100
AcDbSymbolTableRecord
100
AcDbBlockTableRecord
  2
*D23
340
0
  0
BLOCK_RECORD
  5
D31
330
1
100
AcDbSymbolTableRecord
100
AcDbBlockTableRecord
  2
*D24
340
0
  0
BLOCK_RECORD
  5
1584
102
{ACAD_XDICTIONARY
360
1585
102
}
330
1
100
AcDbSymbolTableRecord
100
AcDbBlockTableRecord
  2
A$C57c306b1
340
0
102
{BLKREFS
331
160E
331
160F
331
1610
331
1611
102
}
  0
BLOCK_RECORD
  5
159B
330
1
100
AcDbSymbolTableRecord
100
AcDbBlockTableRecord
  2
A$C0e0b3c3a
340
0
102
{BLKREFS
331
161A
102
}
  0
BLOCK_RECORD
  5
161B
330
1
100
AcDbSymbolTableRecord
100
AcDbBlockTableRecord
  2
A$Ccaa00782
340
0
102
{BLKREFS
331
16A0
102
}
  0
ENDTAB
  0
ENDSEC
  0
SECTION
  2
BLOCKS
  0
BLOCK
  5
5D
330
2
100
AcDbEntity
  8
0
100
AcDbBlockBegin
  2
*MODEL_SPACE
 70
     0
 10
0.0
 20
0.0
 30
0.0
  3
*MODEL_SPACE
  1

  0
ENDBLK
  5
5F
330
2
100
AcDbEntity
  8
0
100
AcDbBlockEnd
  0
BLOCK
  5
18C3
330
18C1
100
AcDbEntity
 67
     1
  8
0
100
AcDbBlockBegin
  2
*Paper_Space
 70
     0
 10
0.0
 20
0.0
 30
0.0
  3
*Paper_Space
  1

  0
ENDBLK
  5
18C4
330
18C1
100
AcDbEntity
 67
     1
  8
0
100
AcDbBlockEnd
  0
BLOCK
  5
4B0
330
4AC
100
AcDbEntity
  8
0
100
AcDbBlockBegin
  2
黒丸矢印1
 70
     0
 10
0.0
 20
0.0
 30
0.0
  3
黒丸矢印1
  1

  0
HATCH
  5
4AD
330
4AC
100
AcDbEntity
  8
0
100
AcDbHatch
 10
0.0
 20
0.0
 30
0.0
210
0.0
220
0.0
230
1.0
  2
SOLID
 70
     1
 71
     1
 91
        1
 92
        7
 72
     1
 73
     1
 93
        2
 10
-0.25
 20
0.0
 42
1.0
 10
0.25
 20
0.0
 42
1.0
 97
        1
330
4AE
 75
     0
 76
     1
 47
0.0031599728
 98
        1
 10
-0.0919668375711354
 20
0.0618998464179867
  0
CIRCLE
  5
4AE
102
{ACAD_REACTORS
330
4AD
102
}
330
4AC
100
AcDbEntity
  8
0
100
AcDbCircle
 10
0.0
 20
0.0
 30
0.0
 40
0.25
  0
LINE
  5
4AF
330
4AC
100
AcDbEntity
  8
0
100
AcDbLine
 10
0.0
 20
0.0
 30
0.0
 11
-1.0
 21
0.0
 31
0.0
  0
ENDBLK
  5
4B1
330
4AC
100
AcDbEntity
  8
0
100
AcDbBlockEnd
  0
BLOCK
  5
C41
330
C37
100
AcDbEntity
  8
0
100
AcDbBlockBegin
  2
*D3
 70
     1
 10
0.0
 20
0.0
 30
0.0
  3
*D3
  1

  0
POINT
  5
11F1
330
C37
100
AcDbEntity
  8
DEFPOINTS
 62
     0
100
AcDbPoint
 10
458.2871402085
 20
148.7801344078
 30
0.0
  0
POINT
  5
11F2
330
C37
100
AcDbEntity
  8
DEFPOINTS
 62
     0
100
AcDbPoint
 10
488.2871402085
 20
147.7801344078
 30
0.0
  0
POINT
  5
11F3
330
C37
100
AcDbEntity
  8
DEFPOINTS
 62
     0
100
AcDbPoint
 10
488.2871402085
 20
195.6388874087
 30
0.0
  0
ENDBLK
  5
C42
330
C37
100
AcDbEntity
  8
0
100
AcDbBlockEnd
  0
BLOCK
  5
C4D
330
C43
100
AcDbEntity
  8
0
100
AcDbBlockBegin
  2
*D4
 70
     1
 10
0.0
 20
0.0
 30
0.0
  3
*D4
  1

  0
POINT
  5
1216
330
C43
100
AcDbEntity
  8
DEFPOINTS
 62
     0
100
AcDbPoint
 10
464.2871402085
 20
141.7801344078
 30
0.0
  0
POINT
  5
1217
330
C43
100
AcDbEntity
  8
DEFPOINTS
 62
     0
100
AcDbPoint
 10
488.2871402085
 20
147.7801344078
 30
0.0
  0
POINT
  5
1218
330
C43
100
AcDbEntity
  8
DEFPOINTS
 62
     0
100
AcDbPoint
 10
488.2871402085
 20
183.6752574587
 30
0.0
  0
ENDBLK
  5
C4E
330
C43
100
AcDbEntity
  8
0
100
AcDbBlockEnd
  0
BLOCK
  5
C59
330
C4F
100
AcDbEntity
  8
0
100
AcDbBlockBegin
  2
*D5
 70
     1
 10
0.0
 20
0.0
 30
0.0
  3
*D5
  1

  0
POINT
  5
11FA
330
C4F
100
AcDbEntity
  8
DEFPOINTS
 62
     0
100
AcDbPoint
 10
414.2871402085
 20
185.5804274078
 30
0.0
  0
POINT
  5
11FB
330
C4F
100
AcDbEntity
  8
DEFPOINTS
 62
     0
100
AcDbPoint
 10
488.2871402085
 20
147.7801344078
 30
0.0
  0
POINT
  5
11FC
330
C4F
100
AcDbEntity
  8
DEFPOINTS
 62
     0
100
AcDbPoint
 10
488.2871402085
 20
207.4628030887
 30
0.0
  0
ENDBLK
  5
C5A
330
C4F
100
AcDbEntity
  8
0
100
AcDbBlockEnd
  0
BLOCK
  5
C65
330
C5B
100
AcDbEntity
  8
0
100
AcDbBlockBegin
  2
*D6
 70
     1
 10
0.0
 20
0.0
 30
0.0
  3
*D6
  1

  0
POINT
  5
11E8
330
C5B
100
AcDbEntity
  8
DEFPOINTS
 62
     0
100
AcDbPoint
 10
366.2871422085
 20
182.7801344078
 30
0.0
  0
POINT
  5
11E9
330
C5B
100
AcDbEntity
  8
DEFPOINTS
 62
     0
100
AcDbPoint
 10
488.2871402085
 20
147.7801344078
 30
0.0
  0
POINT
  5
11EA
330
C5B
100
AcDbEntity
  8
DEFPOINTS
 62
     0
100
AcDbPoint
 10
488.2871402085
 20
219.5349621077
 30
0.0
  0
ENDBLK
  5
C66
330
C5B
100
AcDbEntity
  8
0
100
AcDbBlockEnd
  0
BLOCK
  5
C71
330
C67
100
AcDbEntity
  8
0
100
AcDbBlockBegin
  2
*D7
 70
     1
 10
0.0
 20
0.0
 30
0.0
  3
*D7
  1

  0
POINT
  5
1083
330
C67
100
AcDbEntity
  8
DEFPOINTS
 62
     0
100
AcDbPoint
 10
310.3738108014
 20
156.6800294078
 30
0.0
  0
POINT
  5
1084
330
C67
100
AcDbEntity
  8
DEFPOINTS
 62
     0
100
AcDbPoint
 10
78.8738493961
 20
148.3622414281
 30
0.0
  0
POINT
  5
1085
330
C67
100
AcDbEntity
  8
DEFPOINTS
 62
     0
100
AcDbPoint
 10
78.8738493961
 20
219.5349621077
 30
0.0
  0
ENDBLK
  5
C72
330
C67
100
AcDbEntity
  8
0
100
AcDbBlockEnd
  0
BLOCK
  5
C7D
330
C73
100
AcDbEntity
  8
0
100
AcDbBlockBegin
  2
*D8
 70
     1
 10
0.0
 20
0.0
 30
0.0
  3
*D8
  1

  0
POINT
  5
107A
330
C73
100
AcDbEntity
  8
DEFPOINTS
 62
     0
100
AcDbPoint
 10
259.8738108014
 20
189.7801344078
 30
0.0
  0
POINT
  5
107B
330
C73
100
AcDbEntity
  8
DEFPOINTS
 62
     0
100
AcDbPoint
 10
78.8738493961
 20
148.3622414281
 30
0.0
  0
POINT
  5
107C
330
C73
100
AcDbEntity
  8
DEFPOINTS
 62
     0
100
AcDbPoint
 10
78.8738493961
 20
207.6007787488
 30
0.0
  0
ENDBLK
  5
C7E
330
C73
100
AcDbEntity
  8
0
100
AcDbBlockEnd
  0
BLOCK
  5
C89
330
C7F
100
AcDbEntity
  8
0
100
AcDbBlockBegin
  2
*D9
 70
     1
 10
0.0
 20
0.0
 30
0.0
  3
*D9
  1

  0
POINT
  5
10C0
330
C7F
100
AcDbEntity
  8
DEFPOINTS
 62
     0
100
AcDbPoint
 10
209.3738108014
 20
96.0075514419
 30
0.0
  0
POINT
  5
10C1
330
C7F
100
AcDbEntity
  8
DEFPOINTS
 62
     0
100
AcDbPoint
 10
310.3738108014
 20
94.2801344078
 30
0.0
  0
POINT
  5
10C2
330
C7F
100
AcDbEntity
  8
DEFPOINTS
 62
     0
100
AcDbPoint
 10
310.3738108014
 20
35.8648789719
 30
0.0
  0
ENDBLK
  5
C8A
330
C7F
100
AcDbEntity
  8
0
100
AcDbBlockEnd
  0
BLOCK
  5
C95
330
C8B
100
AcDbEntity
  8
0
100
AcDbBlockBegin
  2
*D10
 70
     1
 10
0.0
 20
0.0
 30
0.0
  3
*D10
  1

  0
POINT
  5
10A5
330
C8B
100
AcDbEntity
  8
DEFPOINTS
 62
     0
100
AcDbPoint
 10
102.3738048014
 20
175.5804344078
 30
0.0
  0
POINT
  5
10A6
330
C8B
100
AcDbEntity
  8
DEFPOINTS
 62
     0
100
AcDbPoint
 10
78.8738493961
 20
148.3622414281
 30
0.0
  0
POINT
  5
10A7
330
C8B
100
AcDbEntity
  8
DEFPOINTS
 62
     0
100
AcDbPoint
 10
78.8738493961
 20
195.5754425184
 30
0.0
  0
ENDBLK
  5
C96
330
C8B
100
AcDbEntity
  8
0
100
AcDbBlockEnd
  0
BLOCK
  5
CA1
330
C97
100
AcDbEntity
  8
0
100
AcDbBlockBegin
  2
*D11
 70
     1
 10
0.0
 20
0.0
 30
0.0
  3
*D11
  1

  0
POINT
  5
10AE
330
C97
100
AcDbEntity
  8
DEFPOINTS
 62
     0
100
AcDbPoint
 10
102.3738048014
 20
175.5804344078
 30
0.0
  0
POINT
  5
10AF
330
C97
100
AcDbEntity
  8
DEFPOINTS
 62
     0
100
AcDbPoint
 10
136.3738068014
 20
175.5804344078
 30
0.0
  0
POINT
  5
10B0
330
C97
100
AcDbEntity
  8
DEFPOINTS
 62
     0
100
AcDbPoint
 10
136.3738068014
 20
195.5754425184
 30
0.0
  0
ENDBLK
  5
CA2
330
C97
100
AcDbEntity
  8
0
100
AcDbBlockEnd
  0
BLOCK
  5
CAB
330
CA3
100
AcDbEntity
  8
0
100
AcDbBlockBegin
  2
*D12
 70
     1
 10
0.0
 20
0.0
 30
0.0
  3
*D12
  1

  0
POINT
  5
108A
330
CA3
100
AcDbEntity
  8
DEFPOINTS
 62
     0
100
AcDbPoint
 10
109.7560813961
 20
151.5770514078
 30
0.0
  0
POINT
  5
108B
330
CA3
100
AcDbEntity
  8
DEFPOINTS
 62
     0
100
AcDbPoint
 10
109.8738183961
 20
74.5801323565
 30
0.0
  0
POINT
  5
108C
330
CA3
100
AcDbEntity
  8
DEFPOINTS
 62
     0
100
AcDbPoint
 10
61.7862081544
 20
74.5801323565
 30
0.0
  0
ENDBLK
  5
CAC
330
CA3
100
AcDbEntity
  8
0
100
AcDbBlockEnd
  0
BLOCK
  5
CB7
330
CAD
100
AcDbEntity
  8
0
100
AcDbBlockBegin
  2
*D13
 70
     1
 10
0.0
 20
0.0
 30
0.0
  3
*D13
  1

  0
POINT
  5
109C
330
CAD
100
AcDbEntity
  8
DEFPOINTS
 62
     0
100
AcDbPoint
 10
119.3738087384
 20
178.5804304078
 30
0.0
  0
POINT
  5
109D
330
CAD
100
AcDbEntity
  8
DEFPOINTS
 62
     0
100
AcDbPoint
 10
71.8738183961
 20
113.0801334078
 30
0.0
  0
POINT
  5
109E
330
CAD
100
AcDbEntity
  8
DEFPOINTS
 62
     0
100
AcDbPoint
 10
49.796616319
 20
113.0801334078
 30
0.0
  0
ENDBLK
  5
CB8
330
CAD
100
AcDbEntity
  8
0
100
AcDbBlockEnd
  0
BLOCK
  5
CC3
330
CB9
100
AcDbEntity
  8
0
100
AcDbBlockBegin
  2
*D14
 70
     1
 10
0.0
 20
0.0
 30
0.0
  3
*D14
  1

  0
POINT
  5
1093
330
CB9
100
AcDbEntity
  8
DEFPOINTS
 62
     0
100
AcDbPoint
 10
159.3376282507
 20
158.0801334078
 30
0.0
  0
POINT
  5
1094
330
CB9
100
AcDbEntity
  8
DEFPOINTS
 62
     0
100
AcDbPoint
 10
159.3376282507
 20
68.0801344078
 30
0.0
  0
POINT
  5
1095
330
CB9
100
AcDbEntity
  8
DEFPOINTS
 62
     0
100
AcDbPoint
 10
159.1228276003
 20
68.0801344078
 30
0.0
  0
ENDBLK
  5
CC4
330
CB9
100
AcDbEntity
  8
0
100
AcDbBlockEnd
  0
BLOCK
  5
CCF
330
CC5
100
AcDbEntity
  8
0
100
AcDbBlockBegin
  2
*D15
 70
     1
 10
0.0
 20
0.0
 30
0.0
  3
*D15
  1

  0
POINT
  5
11D4
330
CC5
100
AcDbEntity
  8
DEFPOINTS
 62
     0
100
AcDbPoint
 10
414.2871402085
 20
185.5804274078
 30
0.0
  0
POINT
  5
11D5
330
CC5
100
AcDbEntity
  8
DEFPOINTS
 62
     0
100
AcDbPoint
 10
366.2871422085
 20
182.7801344078
 30
0.0
  0
POINT
  5
11D6
330
CC5
100
AcDbEntity
  8
DEFPOINTS
 62
     0
100
AcDbPoint
 10
366.2871422085
 20
207.4628030887
 30
0.0
  0
ENDBLK
  5
CD0
330
CC5
100
AcDbEntity
  8
0
100
AcDbBlockEnd
  0
BLOCK
  5
CDB
330
CD1
100
AcDbEntity
  8
0
100
AcDbBlockBegin
  2
*D16
 70
     1
 10
0.0
 20
0.0
 30
0.0
  3
*D16
  1

  0
POINT
  5
1203
330
CD1
100
AcDbEntity
  8
DEFPOINTS
 62
     0
100
AcDbPoint
 10
391.2871402085
 20
177.0638264078
 30
0.0
  0
POINT
  5
1204
330
CD1
100
AcDbEntity
  8
DEFPOINTS
 62
     0
100
AcDbPoint
 10
437.2871442085
 20
177.0638264078
 30
0.0
  0
POINT
  5
1205
330
CD1
100
AcDbEntity
  8
DEFPOINTS
 62
     0
100
AcDbPoint
 10
437.2871442085
 20
195.6388874087
 30
0.0
  0
ENDBLK
  5
CDC
330
CD1
100
AcDbEntity
  8
0
100
AcDbBlockEnd
  0
BLOCK
  5
CE7
330
CDD
100
AcDbEntity
  8
0
100
AcDbBlockBegin
  2
*D17
 70
     1
 10
0.0
 20
0.0
 30
0.0
  3
*D17
  1

  0
POINT
  5
10EF
330
CDD
100
AcDbEntity
  8
DEFPOINTS
 62
     0
100
AcDbPoint
 10
259.8738108014
 20
189.7801344078
 30
0.0
  0
POINT
  5
10F0
330
CDD
100
AcDbEntity
  8
DEFPOINTS
 62
     0
100
AcDbPoint
 10
310.3738108014
 20
156.6800294078
 30
0.0
  0
POINT
  5
10F1
330
CDD
100
AcDbEntity
  8
DEFPOINTS
 62
     0
100
AcDbPoint
 10
310.3738108014
 20
207.6007787488
 30
0.0
  0
ENDBLK
  5
CE8
330
CDD
100
AcDbEntity
  8
0
100
AcDbBlockEnd
  0
BLOCK
  5
CF3
330
CE9
100
AcDbEntity
  8
0
100
AcDbBlockBegin
  2
*D18
 70
     1
 10
0.0
 20
0.0
 30
0.0
  3
*D18
  1

  0
POINT
  5
10D2
330
CE9
100
AcDbEntity
  8
DEFPOINTS
 62
     0
100
AcDbPoint
 10
219.8738108014
 20
66.7801344078
 30
0.0
  0
POINT
  5
10D3
330
CE9
100
AcDbEntity
  8
DEFPOINTS
 62
     0
100
AcDbPoint
 10
299.8738108014
 20
66.7801344078
 30
0.0
  0
POINT
  5
10D4
330
CE9
100
AcDbEntity
  8
DEFPOINTS
 62
     0
100
AcDbPoint
 10
299.8738108014
 20
47.875050495
 30
0.0
  0
ENDBLK
  5
CF4
330
CE9
100
AcDbEntity
  8
0
100
AcDbBlockEnd
  0
BLOCK
  5
CFF
330
CF5
100
AcDbEntity
  8
0
100
AcDbBlockBegin
  2
*D19
 70
     1
 10
0.0
 20
0.0
 30
0.0
  3
*D19
  1

  0
POINT
  5
10F8
330
CF5
100
AcDbEntity
  8
DEFPOINTS
 62
     0
100
AcDbPoint
 10
229.3738108014
 20
138.7801344078
 30
0.0
  0
POINT
  5
10F9
330
CF5
100
AcDbEntity
  8
DEFPOINTS
 62
     0
100
AcDbPoint
 10
231.7604988014
 20
113.0801334078
 30
0.0
  0
POINT
  5
10FA
330
CF5
100
AcDbEntity
  8
DEFPOINTS
 62
     0
100
AcDbPoint
 10
225.1141788268
 20
113.0801334078
 30
0.0
  0
ENDBLK
  5
D00
330
CF5
100
AcDbEntity
  8
0
100
AcDbBlockEnd
  0
BLOCK
  5
D0B
330
D01
100
AcDbEntity
  8
0
100
AcDbBlockBegin
  2
*D20
 70
     1
 10
0.0
 20
0.0
 30
0.0
  3
*D20
  1

  0
POINT
  5
10C9
330
D01
100
AcDbEntity
  8
DEFPOINTS
 62
     0
100
AcDbPoint
 10
290.3738108014
 20
138.7801344078
 30
0.0
  0
POINT
  5
10CA
330
D01
100
AcDbEntity
  8
DEFPOINTS
 62
     0
100
AcDbPoint
 10
306.8738108014
 20
73.7801344078
 30
0.0
  0
POINT
  5
10CB
330
D01
100
AcDbEntity
  8
DEFPOINTS
 62
     0
100
AcDbPoint
 10
327.6368077401
 20
73.7801344078
 30
0.0
  0
ENDBLK
  5
D0C
330
D01
100
AcDbEntity
  8
0
100
AcDbBlockEnd
  0
BLOCK
  5
D17
330
D0D
100
AcDbEntity
  8
0
100
AcDbBlockBegin
  2
*D21
 70
     1
 10
0.0
 20
0.0
 30
0.0
  3
*D21
  1

  0
POINT
  5
10B7
330
D0D
100
AcDbEntity
  8
DEFPOINTS
 62
     0
100
AcDbPoint
 10
299.8738108014
 20
182.7801344078
 30
0.0
  0
POINT
  5
10B8
330
D0D
100
AcDbEntity
  8
DEFPOINTS
 62
     0
100
AcDbPoint
 10
299.8738108014
 20
64.7801344078
 30
0.0
  0
POINT
  5
10B9
330
D0D
100
AcDbEntity
  8
DEFPOINTS
 62
     0
100
AcDbPoint
 10
339.5840439153
 20
64.7801344078
 30
0.0
  0
ENDBLK
  5
D18
330
D0D
100
AcDbEntity
  8
0
100
AcDbBlockEnd
  0
BLOCK
  5
D23
330
D19
100
AcDbEntity
  8
0
100
AcDbBlockBegin
  2
*D22
 70
     1
 10
0.0
 20
0.0
 30
0.0
  3
*D22
  1

  0
POINT
  5
10E6
330
D19
100
AcDbEntity
  8
DEFPOINTS
 62
     0
100
AcDbPoint
 10
290.3738108014
 20
138.7801344078
 30
0.0
  0
POINT
  5
10E7
330
D19
100
AcDbEntity
  8
DEFPOINTS
 62
     0
100
AcDbPoint
 10
306.8738108014
 20
173.7801344078
 30
0.0
  0
POINT
  5
10E8
330
D19
100
AcDbEntity
  8
DEFPOINTS
 62
     0
100
AcDbPoint
 10
327.6368077401
 20
173.7801344078
 30
0.0
  0
ENDBLK
  5
D24
330
D19
100
AcDbEntity
  8
0
100
AcDbBlockEnd
  0
BLOCK
  5
D2F
330
D25
100
AcDbEntity
  8
0
100
AcDbBlockBegin
  2
*D23
 70
     1
 10
0.0
 20
0.0
 30
0.0
  3
*D23
  1

  0
POINT
  5
11DF
330
D25
100
AcDbEntity
  8
DEFPOINTS
 62
     0
100
AcDbPoint
 10
376.2871422085
 20
66.7801314078
 30
0.0
  0
POINT
  5
11E0
330
D25
100
AcDbEntity
  8
DEFPOINTS
 62
     0
100
AcDbPoint
 10
366.2871422085
 20
64.7801314078
 30
0.0
  0
POINT
  5
11E1
330
D25
100
AcDbEntity
  8
DEFPOINTS
 62
     0
100
AcDbPoint
 10
366.2871422085
 20
50.3271113569
 30
0.0
  0
ENDBLK
  5
D30
330
D25
100
AcDbEntity
  8
0
100
AcDbBlockEnd
  0
BLOCK
  5
D3C
330
D31
100
AcDbEntity
  8
0
100
AcDbBlockBegin
  2
*D24
 70
     1
 10
0.0
 20
0.0
 30
0.0
  3
*D24
  1

  0
POINT
  5
120D
330
D31
100
AcDbEntity
  8
DEFPOINTS
 62
     0
100
AcDbPoint
 10
488.2871442085
 20
129.7801344078
 30
0.0
  0
POINT
  5
120E
330
D31
100
AcDbEntity
  8
DEFPOINTS
 62
     0
100
AcDbPoint
 10
488.2871442085
 20
147.7801344078
 30
0.0
  0
POINT
  5
120F
330
D31
100
AcDbEntity
  8
DEFPOINTS
 62
     0
100
AcDbPoint
 10
500.5501411472
 20
147.7801344078
 30
0.0
  0
ENDBLK
  5
D3D
330
D31
100
AcDbEntity
  8
0
100
AcDbBlockEnd
  0
BLOCK
  5
1587
330
1584
100
AcDbEntity
  8
0
100
AcDbBlockBegin
  2
A$C57c306b1
 70
     0
 10
0.0
 20
0.0
 30
0.0
  3
A$C57c306b1
  1

  0
ARC
  5
1588
330
1584
100
AcDbEntity
  8
0
100
AcDbCircle
 10
0.0
 20
1.56
 30
0.0
 40
0.3900000000000001
100
AcDbArc
 50
17.2352852571
 51
162.7647147429
  0
ARC
  5
1589
330
1584
100
AcDbEntity
  8
0
100
AcDbCircle
 10
-1.117462403
 20
1.9066666667
 30
0.0
 40
0.7800000000000002
100
AcDbArc
 50
300.3737861998
 51
342.7647147429
  0
ARC
  5
158A
330
1584
100
AcDbEntity
  8
0
100
AcDbCircle
 10
1.117462403
 20
1.9066666667
 30
0.0
 40
0.7800000000000002
100
AcDbArc
 50
197.2352852571
 51
239.6262138002
  0
ARC
  5
158B
330
1584
100
AcDbEntity
  8
0
100
AcDbCircle
 10
-1.3509996299
 20
0.78
 30
0.0
 40
0.3900000000000001
100
AcDbArc
 50
77.2352852571
 51
222.7647147429
  0
ARC
  5
158C
330
1584
100
AcDbEntity
  8
0
100
AcDbCircle
 10
-2.2099529714
 20
-0.0144174955
 30
0.0
 40
0.7800000000000002
100
AcDbArc
 50
0.3737861998
 51
42.7647147429
  0
ARC
  5
158D
330
1584
100
AcDbEntity
  8
0
100
AcDbCircle
 10
-1.0924905684
 20
1.9210841621
 30
0.0
 40
0.7800000000000002
100
AcDbArc
 50
257.2352852571
 51
299.6262138002
  0
ARC
  5
158E
330
1584
100
AcDbEntity
  8
0
100
AcDbCircle
 10
1.3509996299
 20
0.78
 30
0.0
 40
0.3900000000000001
100
AcDbArc
 50
317.2352852571
 51
102.7647147429
  0
ARC
  5
158F
330
1584
100
AcDbEntity
  8
0
100
AcDbCircle
 10
2.2099529714
 20
-0.0144174955
 30
0.0
 40
0.7800000000000002
100
AcDbArc
 50
137.2352852571
 51
179.6262138002
  0
ARC
  5
1590
330
1584
100
AcDbEntity
  8
0
100
AcDbCircle
 10
1.0924905684
 20
1.9210841621
 30
0.0
 40
0.7800000000000002
100
AcDbArc
 50
240.3737861998
 51
282.7647147429
  0
ARC
  5
1591
330
1584
100
AcDbEntity
  8
0
100
AcDbCircle
 10
0.0
 20
-1.56
 30
0.0
 40
0.3900000000000001
100
AcDbArc
 50
197.2352852571
 51
342.7647147429
  0
ARC
  5
1592
330
1584
100
AcDbEntity
  8
0
100
AcDbCircle
 10
-1.117462403
 20
-1.9066666667
 30
0.0
 40
0.7800000000000002
100
AcDbArc
 50
17.2352852571
 51
59.6262138002
  0
ARC
  5
1593
330
1584
100
AcDbEntity
  8
0
100
AcDbCircle
 10
1.117462403
 20
-1.9066666667
 30
0.0
 40
0.7800000000000002
100
AcDbArc
 50
120.3737861998
 51
162.7647147429
  0
ARC
  5
1594
330
1584
100
AcDbEntity
  8
0
100
AcDbCircle
 10
-1.3509996299
 20
-0.78
 30
0.0
 40
0.3900000000000001
100
AcDbArc
 50
137.2352852571
 51
282.7647147429
  0
ARC
  5
1595
330
1584
100
AcDbEntity
  8
0
100
AcDbCircle
 10
-2.2099529714
 20
0.0144174955
 30
0.0
 40
0.7800000000000002
100
AcDbArc
 50
317.2352852571
 51
359.6262138002
  0
ARC
  5
1596
330
1584
100
AcDbEntity
  8
0
100
AcDbCircle
 10
-1.0924905684
 20
-1.9210841621
 30
0.0
 40
0.7800000000000002
100
AcDbArc
 50
60.3737861998
 51
102.7647147429
  0
ARC
  5
1597
330
1584
100
AcDbEntity
  8
0
100
AcDbCircle
 10
1.3509996299
 20
-0.78
 30
0.0
 40
0.3900000000000001
100
AcDbArc
 50
257.2352852571
 51
42.7647147429
  0
ARC
  5
1598
330
1584
100
AcDbEntity
  8
0
100
AcDbCircle
 10
1.0924905684
 20
-1.9210841621
 30
0.0
 40
0.7800000000000002
100
AcDbArc
 50
77.2352852571
 51
119.6262138002
  0
ARC
  5
1599
330
1584
100
AcDbEntity
  8
0
100
AcDbCircle
 10
2.2099529714
 20
0.0144174955
 30
0.0
 40
0.7800000000000002
100
AcDbArc
 50
180.3737861998
 51
222.7647147429
  0
ENDBLK
  5
159A
330
1584
100
AcDbEntity
  8
0
100
AcDbBlockEnd
  0
BLOCK
  5
159C
330
159B
100
AcDbEntity
  8
0
100
AcDbBlockBegin
  2
A$C0e0b3c3a
 70
     0
 10
0.0
 20
0.0
 30
0.0
  3
A$C0e0b3c3a
  1

  0
LINE
  5
159D
330
159B
100
AcDbEntity
  8
0
100
AcDbLine
 10
-57.999999
 20
36.075272
 30
0.0
 11
-57.999999
 21
-36.075287
 31
0.0
  0
LINE
  5
159E
330
159B
100
AcDbEntity
  8
CENTER
100
AcDbLine
 10
-17.5
 20
31.767502
 30
0.0
 11
-17.5
 21
-31.767502
 31
0.0
  0
LINE
  5
159F
330
159B
100
AcDbEntity
  8
0
100
AcDbLine
 10
0.0
 20
-45.000007
 30
0.0
 11
0.0
 21
45.0
 31
0.0
  0
LINE
  5
15A0
330
159B
100
AcDbEntity
  8
0
100
AcDbLine
 10
-30.999999
 20
-31.681823
 30
0.0
 11
-57.999999
 21
-32.388855
 31
0.0
  0
LINE
  5
15A1
330
159B
100
AcDbEntity
  8
0
100
AcDbLine
 10
-33.693431
 20
-35.592468
 30
0.0
 11
-57.999999
 21
-34.955978
 31
0.0
  0
ARC
  5
15A2
330
159B
100
AcDbEntity
  8
0
100
AcDbCircle
 10
-54.125018
 20
-33.537994
 30
0.0
 40
5.0
100
AcDbArc
 50
251.565048
 51
268.5
  0
ARC
  5
15A3
330
159B
100
AcDbEntity
  8
0
100
AcDbCircle
 10
-55.999999
 20
-36.075287
 30
0.0
 40
2.0
100
AcDbArc
 50
180.0
 51
251.565048
  0
LINE
  5
15A4
330
159B
100
AcDbEntity
  8
0
100
AcDbLine
 10
-55.706157
 20
-38.281418
 30
0.0
 11
-56.632457
 21
-37.972656
 31
0.0
  0
LINE
  5
15A5
330
159B
100
AcDbEntity
  8
0
100
AcDbLine
 10
-57.990749
 20
-31.320861
 30
0.0
 11
-57.999999
 21
-31.320617
 31
0.0
  0
LINE
  5
15A6
330
159B
100
AcDbEntity
  8
0
100
AcDbLine
 10
-25.035213
 20
-44.562973
 30
0.0
 11
0.0
 21
-45.000007
 31
0.0
  0
LINE
  5
15A7
330
159B
100
AcDbEntity
  8
0
100
AcDbLine
 10
-14.0
 20
-27.650009
 30
0.0
 11
-26.999999
 21
-27.309509
 31
0.0
  0
LINE
  5
15A8
330
159B
100
AcDbEntity
  8
0
100
AcDbLine
 10
-26.999999
 20
-43.269706
 30
0.0
 11
-26.999999
 21
-23.0
 31
0.0
  0
LINE
  5
15A9
330
159B
100
AcDbEntity
  8
0
100
AcDbLine
 10
-26.258399
 20
-44.235809
 30
0.0
 11
-25.035213
 21
-44.562973
 31
0.0
  0
ARC
  5
15AA
330
159B
100
AcDbEntity
  8
0
100
AcDbCircle
 10
-25.999999
 20
-43.269706
 30
0.0
 40
1.0
100
AcDbArc
 50
180.0
 51
255.023895
  0
LINE
  5
15AB
330
159B
100
AcDbEntity
  8
0
100
AcDbLine
 10
-54.255901
 20
-38.536285
 30
0.0
 11
-26.999999
 21
-39.25
 31
0.0
  0
LINE
  5
15AC
330
159B
100
AcDbEntity
  8
0
100
AcDbLine
 10
-30.999999
 20
-38.652588
 30
0.0
 11
-30.999999
 21
-29.529876
 31
0.0
  0
LINE
  5
15AD
330
159B
100
AcDbEntity
  8
0
100
AcDbLine
 10
-30.513088
 20
-39.15242
 30
0.0
 11
-26.999999
 21
-39.2444
 31
0.0
  0
ARC
  5
15AE
330
159B
100
AcDbEntity
  8
0
100
AcDbCircle
 10
-26.699951
 20
-35.290405
 30
0.0
 40
7.0
100
AcDbArc
 50
163.043503
 51
196.957993
  0
LINE
  5
15AF
330
159B
100
AcDbEntity
  8
0
100
AcDbLine
 10
-31.699951
 20
-38.040405
 30
0.0
 11
-31.699951
 21
-32.540405
 31
0.0
  0
ARC
  5
15B0
330
159B
100
AcDbEntity
  8
0
100
AcDbCircle
 10
-30.499999
 20
-38.652588
 30
0.0
 40
0.5
100
AcDbArc
 50
180.0
 51
268.5
  0
ARC
  5
15B1
330
159B
100
AcDbEntity
  8
0
100
AcDbCircle
 10
-32.43921
 20
-37.040405
 30
0.0
 40
1.0
100
AcDbArc
 50
196.958099
 51
270.0
  0
LINE
  5
15B2
330
159B
100
AcDbEntity
  8
0
100
AcDbLine
 10
-30.999999
 20
-38.040405
 30
0.0
 11
-32.43921
 21
-38.040405
 31
0.0
  0
ARC
  5
15B3
330
159B
100
AcDbEntity
  8
0
100
AcDbCircle
 10
-32.43921
 20
-33.540405
 30
0.0
 40
1.0
100
AcDbArc
 50
90.0
 51
163.043106
  0
LINE
  5
15B4
330
159B
100
AcDbEntity
  8
0
100
AcDbLine
 10
-30.999999
 20
-32.540405
 30
0.0
 11
-32.43921
 21
-32.540405
 31
0.0
  0
LINE
  5
15B5
330
159B
100
AcDbEntity
  8
0
100
AcDbLine
 10
-30.999999
 20
-29.529876
 30
0.0
 11
-26.999999
 21
-29.529876
 31
0.0
  0
LINE
  5
15B6
330
159B
100
AcDbEntity
  8
0
100
AcDbLine
 10
-13.5131
 20
-28.646103
 30
0.0
 11
0.0
 21
-29.0
 31
0.0
  0
ARC
  5
15B7
330
159B
100
AcDbEntity
  8
0
100
AcDbCircle
 10
-13.5
 20
-28.146209
 30
0.0
 40
0.5
100
AcDbArc
 50
180.0
 51
268.496399
  0
ARC
  5
15B8
330
159B
100
AcDbEntity
  8
0
100
AcDbCircle
 10
-8.59997
 20
-24.0
 30
0.0
 40
8.999999
100
AcDbArc
 50
173.620636
 51
196.601013
  0
LINE
  5
15B9
330
159B
100
AcDbEntity
  8
0
100
AcDbLine
 10
-15.0
 20
-23.0
 30
0.0
 11
-15.0
 21
-27.5
 31
0.0
  0
LINE
  5
15BA
330
159B
100
AcDbEntity
  8
0
100
AcDbLine
 10
-14.0
 20
-28.146209
 30
0.0
 11
-14.0
 21
-23.0
 31
0.0
  0
ARC
  5
15BB
330
159B
100
AcDbEntity
  8
0
100
AcDbCircle
 10
-15.97901
 20
-26.200012
 30
0.0
 40
1.3
100
AcDbArc
 50
196.600906
 51
270.0
  0
LINE
  5
15BC
330
159B
100
AcDbEntity
  8
0
100
AcDbLine
 10
-14.0
 20
-27.5
 30
0.0
 11
-15.97901
 21
-27.5
 31
0.0
  0
LINE
  5
15BD
330
159B
100
AcDbEntity
  8
0
100
AcDbLine
 10
-30.999999
 20
31.681809
 30
0.0
 11
-57.999999
 21
32.38884
 31
0.0
  0
LINE
  5
15BE
330
159B
100
AcDbEntity
  8
0
100
AcDbLine
 10
-33.693431
 20
35.592453
 30
0.0
 11
-57.999999
 21
34.955963
 31
0.0
  0
ARC
  5
15BF
330
159B
100
AcDbEntity
  8
0
100
AcDbCircle
 10
-54.125018
 20
33.537979
 30
0.0
 40
5.0
100
AcDbArc
 50
91.5
 51
108.434952
  0
ARC
  5
15C0
330
159B
100
AcDbEntity
  8
0
100
AcDbCircle
 10
-55.999999
 20
36.075272
 30
0.0
 40
2.0
100
AcDbArc
 50
108.434952
 51
180.0
  0
LINE
  5
15C1
330
159B
100
AcDbEntity
  8
0
100
AcDbLine
 10
-55.706157
 20
38.281403
 30
0.0
 11
-56.632457
 21
37.972641
 31
0.0
  0
ARC
  5
15C2
330
159B
100
AcDbEntity
  8
0
100
AcDbCircle
 10
-15.97901
 20
26.200013
 30
0.0
 40
1.3
100
AcDbArc
 50
90.0
 51
163.399094
  0
LINE
  5
15C3
330
159B
100
AcDbEntity
  8
0
100
AcDbLine
 10
-14.0
 20
27.649994
 30
0.0
 11
-26.999999
 21
27.309494
 31
0.0
  0
LINE
  5
15C4
330
159B
100
AcDbEntity
  8
0
100
AcDbLine
 10
-14.0
 20
28.146195
 30
0.0
 11
-14.0
 21
23.0
 31
0.0
  0
LINE
  5
15C5
330
159B
100
AcDbEntity
  8
0
100
AcDbLine
 10
-26.999999
 20
43.269699
 30
0.0
 11
-26.999999
 21
23.0
 31
0.0
  0
ARC
  5
15C6
330
159B
100
AcDbEntity
  8
0
100
AcDbCircle
 10
-8.59997
 20
24.0
 30
0.0
 40
8.999999
100
AcDbArc
 50
163.398987
 51
186.379364
  0
LINE
  5
15C7
330
159B
100
AcDbEntity
  8
0
100
AcDbLine
 10
-14.0
 20
27.5
 30
0.0
 11
-15.97901
 21
27.5
 31
0.0
  0
LINE
  5
15C8
330
159B
100
AcDbEntity
  8
0
100
AcDbLine
 10
-15.0
 20
23.0
 30
0.0
 11
-15.0
 21
27.5
 31
0.0
  0
LINE
  5
15C9
330
159B
100
AcDbEntity
  8
0
100
AcDbLine
 10
-25.035201
 20
44.562958
 30
0.0
 11
0.0
 21
45.0
 31
0.0
  0
LINE
  5
15CA
330
159B
100
AcDbEntity
  8
0
100
AcDbLine
 10
-54.255901
 20
38.53627
 30
0.0
 11
-26.999999
 21
39.25
 31
0.0
  0
ARC
  5
15CB
330
159B
100
AcDbEntity
  8
0
100
AcDbCircle
 10
-30.499999
 20
38.652573
 30
0.0
 40
0.5
100
AcDbArc
 50
91.5
 51
180.0
  0
LINE
  5
15CC
330
159B
100
AcDbEntity
  8
0
100
AcDbLine
 10
-30.999999
 20
29.529862
 30
0.0
 11
-26.999999
 21
29.529862
 31
0.0
  0
ARC
  5
15CD
330
159B
100
AcDbEntity
  8
0
100
AcDbCircle
 10
-26.699951
 20
35.29039
 30
0.0
 40
7.0
100
AcDbArc
 50
163.042007
 51
196.956497
  0
LINE
  5
15CE
330
159B
100
AcDbEntity
  8
0
100
AcDbLine
 10
-31.699951
 20
38.04039
 30
0.0
 11
-31.699951
 21
32.54039
 31
0.0
  0
LINE
  5
15CF
330
159B
100
AcDbEntity
  8
0
100
AcDbLine
 10
-30.999999
 20
38.652573
 30
0.0
 11
-30.999999
 21
29.529862
 31
0.0
  0
ARC
  5
15D0
330
159B
100
AcDbEntity
  8
0
100
AcDbCircle
 10
-32.43921
 20
33.54039
 30
0.0
 40
1.0
100
AcDbArc
 50
196.956894
 51
270.0
  0
LINE
  5
15D1
330
159B
100
AcDbEntity
  8
0
100
AcDbLine
 10
-30.999999
 20
32.54039
 30
0.0
 11
-32.43921
 21
32.54039
 31
0.0
  0
ARC
  5
15D2
330
159B
100
AcDbEntity
  8
0
100
AcDbCircle
 10
-32.43921
 20
37.04039
 30
0.0
 40
1.0
100
AcDbArc
 50
90.0
 51
163.041901
  0
LINE
  5
15D3
330
159B
100
AcDbEntity
  8
0
100
AcDbLine
 10
-30.999999
 20
38.04039
 30
0.0
 11
-32.43921
 21
38.04039
 31
0.0
  0
LINE
  5
15D4
330
159B
100
AcDbEntity
  8
0
100
AcDbLine
 10
-30.513088
 20
39.152405
 30
0.0
 11
-26.999999
 21
39.2444
 31
0.0
  0
LINE
  5
15D5
330
159B
100
AcDbEntity
  8
0
100
AcDbLine
 10
-26.258399
 20
44.235688
 30
0.0
 11
-25.035201
 21
44.562958
 31
0.0
  0
ARC
  5
15D6
330
159B
100
AcDbEntity
  8
0
100
AcDbCircle
 10
-25.999999
 20
43.269699
 30
0.0
 40
1.0
100
AcDbArc
 50
104.976105
 51
180.0
  0
LINE
  5
15D7
330
159B
100
AcDbEntity
  8
0
100
AcDbLine
 10
0.0
 20
29.0
 30
0.0
 11
-13.5131
 21
28.646088
 31
0.0
  0
ARC
  5
15D8
330
159B
100
AcDbEntity
  8
0
100
AcDbCircle
 10
-13.5
 20
28.146195
 30
0.0
 40
0.5
100
AcDbArc
 50
91.503601
 51
180.0
  0
ARC
  5
15D9
330
159B
100
AcDbEntity
  8
0
100
AcDbCircle
 10
-4.5
 20
-21.0
 30
0.0
 40
2.0
100
AcDbArc
 50
270.0
 51
0.0
  0
ARC
  5
15DA
330
159B
100
AcDbEntity
  8
0
100
AcDbCircle
 10
-30.500107
 20
-21.0
 30
0.0
 40
2.0
100
AcDbArc
 50
180.0
 51
270.0
  0
LINE
  5
15DB
330
159B
100
AcDbEntity
  8
0
100
AcDbLine
 10
-9.0
 20
-22.0
 30
0.0
 11
-9.0
 21
-20.0
 31
0.0
  0
LINE
  5
15DC
330
159B
100
AcDbEntity
  8
0
100
AcDbLine
 10
-26.0
 20
-22.0
 30
0.0
 11
-26.0
 21
-20.0
 31
0.0
  0
ARC
  5
15DD
330
159B
100
AcDbEntity
  8
0
100
AcDbCircle
 10
-4.5
 20
-20.982483
 30
0.0
 40
2.0
100
AcDbArc
 50
269.499939
 51
0.0
  0
LINE
  5
15DE
330
159B
100
AcDbEntity
  8
0
100
AcDbLine
 10
-4.5
 20
-23.0
 30
0.0
 11
-30.500107
 21
-23.0
 31
0.0
  0
ARC
  5
15DF
330
159B
100
AcDbEntity
  8
0
100
AcDbCircle
 10
-25.0
 20
-22.0
 30
0.0
 40
1.0
100
AcDbArc
 50
180.0
 51
270.0
  0
ARC
  5
15E0
330
159B
100
AcDbEntity
  8
0
100
AcDbCircle
 10
-10.0
 20
-22.0
 30
0.0
 40
1.0
100
AcDbArc
 50
270.0
 51
0.0
  0
LINE
  5
15E1
330
159B
100
AcDbEntity
  8
0
100
AcDbLine
 10
-48.796883
 20
3.850006
 30
0.0
 11
-34.499886
 21
3.850006
 31
0.0
  0
LINE
  5
15E2
330
159B
100
AcDbEntity
  8
0
100
AcDbLine
 10
-49.648682
 20
-3.850006
 30
0.0
 11
-34.499886
 21
-3.850006
 31
0.0
  0
LINE
  5
15E3
330
159B
100
AcDbEntity
  8
HOJO
100
AcDbLine
 10
-48.720581
 20
-1.460083
 30
0.0
 11
-49.648682
 21
-3.850006
 31
0.0
  0
LINE
  5
15E4
330
159B
100
AcDbEntity
  8
HOJO
100
AcDbLine
 10
-49.532684
 20
1.014893
 30
0.0
 11
-48.720581
 21
-1.460083
 31
0.0
  0
LINE
  5
15E5
330
159B
100
AcDbEntity
  8
HOJO
100
AcDbLine
 10
-48.796883
 20
3.850006
 30
0.0
 11
-49.532684
 21
1.014893
 31
0.0
  0
LINE
  5
15E6
330
159B
100
AcDbEntity
  8
0
100
AcDbLine
 10
-2.5
 20
21.0
 30
0.0
 11
-2.5
 21
-21.0
 31
0.0
  0
LINE
  5
15E7
330
159B
100
AcDbEntity
  8
0
100
AcDbLine
 10
-32.500107
 20
-21.0
 30
0.0
 11
-32.500107
 21
21.0
 31
0.0
  0
ARC
  5
15E8
330
159B
100
AcDbEntity
  8
0
100
AcDbCircle
 10
-29.5
 20
-20.0
 30
0.0
 40
3.5
100
AcDbArc
 50
0.0
 51
90.0
  0
ARC
  5
15E9
330
159B
100
AcDbEntity
  8
0
100
AcDbCircle
 10
-31.500107
 20
-15.5
 30
0.0
 40
1.0
100
AcDbArc
 50
180.0
 51
270.0
  0
LINE
  5
15EA
330
159B
100
AcDbEntity
  8
0
100
AcDbLine
 10
-31.500107
 20
-16.5
 30
0.0
 11
-29.5
 21
-16.5
 31
0.0
  0
LINE
  5
15EB
330
159B
100
AcDbEntity
  8
0
100
AcDbLine
 10
-3.499901
 20
-16.5
 30
0.0
 11
-5.5
 21
-16.5
 31
0.0
  0
ARC
  5
15EC
330
159B
100
AcDbEntity
  8
0
100
AcDbCircle
 10
-5.5
 20
-20.0
 30
0.0
 40
3.5
100
AcDbArc
 50
90.0
 51
180.0
  0
ARC
  5
15ED
330
159B
100
AcDbEntity
  8
0
100
AcDbCircle
 10
-3.499901
 20
-15.5
 30
0.0
 40
1.0
100
AcDbArc
 50
270.0
 51
0.0
  0
LINE
  5
15EE
330
159B
100
AcDbEntity
  8
0
100
AcDbLine
 10
-4.5
 20
23.0
 30
0.0
 11
-30.500107
 21
23.0
 31
0.0
  0
ARC
  5
15EF
330
159B
100
AcDbEntity
  8
0
100
AcDbCircle
 10
-29.5
 20
20.0
 30
0.0
 40
3.5
100
AcDbArc
 50
270.0
 51
0.0
  0
ARC
  5
15F0
330
159B
100
AcDbEntity
  8
0
100
AcDbCircle
 10
-30.500107
 20
21.0
 30
0.0
 40
2.0
100
AcDbArc
 50
90.0
 51
180.0
  0
ARC
  5
15F1
330
159B
100
AcDbEntity
  8
0
100
AcDbCircle
 10
-31.500107
 20
15.5
 30
0.0
 40
1.0
100
AcDbArc
 50
90.0
 51
180.0
  0
LINE
  5
15F2
330
159B
100
AcDbEntity
  8
0
100
AcDbLine
 10
-31.500107
 20
16.5
 30
0.0
 11
-29.5
 21
16.5
 31
0.0
  0
ARC
  5
15F3
330
159B
100
AcDbEntity
  8
0
100
AcDbCircle
 10
-25.0
 20
22.0
 30
0.0
 40
1.0
100
AcDbArc
 50
90.0
 51
180.0
  0
LINE
  5
15F4
330
159B
100
AcDbEntity
  8
0
100
AcDbLine
 10
-26.0
 20
22.0
 30
0.0
 11
-26.0
 21
20.0
 31
0.0
  0
LINE
  5
15F5
330
159B
100
AcDbEntity
  8
0
100
AcDbLine
 10
-3.499901
 20
16.5
 30
0.0
 11
-5.5
 21
16.5
 31
0.0
  0
ARC
  5
15F6
330
159B
100
AcDbEntity
  8
0
100
AcDbCircle
 10
-10.0
 20
22.0
 30
0.0
 40
1.0
100
AcDbArc
 50
0.0
 51
90.0
  0
LINE
  5
15F7
330
159B
100
AcDbEntity
  8
0
100
AcDbLine
 10
-9.0
 20
22.0
 30
0.0
 11
-9.0
 21
20.0
 31
0.0
  0
ARC
  5
15F8
330
159B
100
AcDbEntity
  8
0
100
AcDbCircle
 10
-5.5
 20
20.0
 30
0.0
 40
3.5
100
AcDbArc
 50
180.0
 51
270.0
  0
ARC
  5
15F9
330
159B
100
AcDbEntity
  8
0
100
AcDbCircle
 10
-4.5
 20
21.0
 30
0.0
 40
2.0
100
AcDbArc
 50
0.0
 51
90.0
  0
ARC
  5
15FA
330
159B
100
AcDbEntity
  8
0
100
AcDbCircle
 10
-3.499901
 20
15.5
 30
0.0
 40
1.0
100
AcDbArc
 50
0.0
 51
90.0
  0
CIRCLE
  5
15FB
330
159B
100
AcDbEntity
  8
0
100
AcDbCircle
 10
-5.5
 20
-20.0
 30
0.0
 40
2.75
  0
CIRCLE
  5
15FC
330
159B
100
AcDbEntity
  8
0
100
AcDbCircle
 10
-29.5
 20
-20.0
 30
0.0
 40
2.75
  0
LINE
  5
15FD
330
159B
100
AcDbEntity
  8
0
100
AcDbLine
 10
-34.5
 20
6.0
 30
0.0
 11
-34.5
 21
-6.0
 31
0.0
  0
ARC
  5
15FE
330
159B
100
AcDbEntity
  8
0
100
AcDbCircle
 10
-33.0
 20
-7.5
 30
0.0
 40
0.5
100
AcDbArc
 50
0.0
 51
90.0
  0
ARC
  5
15FF
330
159B
100
AcDbEntity
  8
0
100
AcDbCircle
 10
-33.5
 20
-6.0
 30
0.0
 40
1.0
100
AcDbArc
 50
180.0
 51
270.0
  0
LINE
  5
1600
330
159B
100
AcDbEntity
  8
0
100
AcDbLine
 10
-33.0
 20
-7.0
 30
0.0
 11
-33.5
 21
-7.0
 31
0.0
  0
ARC
  5
1601
330
159B
100
AcDbEntity
  8
0
100
AcDbCircle
 10
-33.0
 20
7.5
 30
0.0
 40
0.5
100
AcDbArc
 50
270.0
 51
0.0
  0
ARC
  5
1602
330
159B
100
AcDbEntity
  8
0
100
AcDbCircle
 10
-33.5
 20
6.0
 30
0.0
 40
1.0
100
AcDbArc
 50
90.0
 51
180.0
  0
LINE
  5
1603
330
159B
100
AcDbEntity
  8
0
100
AcDbLine
 10
-33.0
 20
7.0
 30
0.0
 11
-33.5
 21
7.0
 31
0.0
  0
LINE
  5
1604
330
159B
100
AcDbEntity
  8
0
100
AcDbLine
 10
-0.500004
 20
6.0
 30
0.0
 11
-0.500004
 21
-6.0
 31
0.0
  0
LINE
  5
1605
330
159B
100
AcDbEntity
  8
0
100
AcDbLine
 10
-0.500004
 20
4.883698
 30
0.0
 11
-0.500004
 21
-4.883697
 31
0.0
  0
ARC
  5
1606
330
159B
100
AcDbEntity
  8
0
100
AcDbCircle
 10
-2.000004
 20
-7.5
 30
0.0
 40
0.5
100
AcDbArc
 50
90.0
 51
180.0
  0
ARC
  5
1607
330
159B
100
AcDbEntity
  8
0
100
AcDbCircle
 10
-1.500004
 20
-6.0
 30
0.0
 40
1.0
100
AcDbArc
 50
270.0
 51
0.0
  0
LINE
  5
1608
330
159B
100
AcDbEntity
  8
0
100
AcDbLine
 10
-2.000004
 20
-7.0
 30
0.0
 11
-1.500004
 21
-7.0
 31
0.0
  0
ARC
  5
1609
330
159B
100
AcDbEntity
  8
0
100
AcDbCircle
 10
-2.000004
 20
7.5
 30
0.0
 40
0.5
100
AcDbArc
 50
180.0
 51
270.0
  0
ARC
  5
160A
330
159B
100
AcDbEntity
  8
0
100
AcDbCircle
 10
-1.500004
 20
6.0
 30
0.0
 40
1.0
100
AcDbArc
 50
0.0
 51
90.0
  0
LINE
  5
160B
330
159B
100
AcDbEntity
  8
0
100
AcDbLine
 10
-2.000004
 20
7.0
 30
0.0
 11
-1.500004
 21
7.0
 31
0.0
  0
CIRCLE
  5
160C
330
159B
100
AcDbEntity
  8
0
100
AcDbCircle
 10
-29.5
 20
20.0
 30
0.0
 40
2.75
  0
CIRCLE
  5
160D
330
159B
100
AcDbEntity
  8
0
100
AcDbCircle
 10
-5.5
 20
20.0
 30
0.0
 40
2.75
  0
INSERT
  5
160E
330
159B
100
AcDbEntity
  8
0
100
AcDbBlockReference
  2
A$C57c306b1
 10
-5.5
 20
20.0
 30
0.0
  0
INSERT
  5
160F
330
159B
100
AcDbEntity
  8
0
100
AcDbBlockReference
  2
A$C57c306b1
 10
-29.5
 20
20.0093289677
 30
0.0
  0
INSERT
  5
1610
330
159B
100
AcDbEntity
  8
0
100
AcDbBlockReference
  2
A$C57c306b1
 10
-5.5
 20
-19.9906710323
 30
0.0
  0
INSERT
  5
1611
330
159B
100
AcDbEntity
  8
0
100
AcDbBlockReference
  2
A$C57c306b1
 10
-29.5
 20
-19.9906710323
 30
0.0
  0
ENDBLK
  5
1612
330
159B
100
AcDbEntity
  8
0
100
AcDbBlockEnd
  0
BLOCK
  5
161C
330
161B
100
AcDbEntity
  8
0
100
AcDbBlockBegin
  2
A$Ccaa00782
 70
     0
 10
0.0
 20
0.0
 30
0.0
  3
A$Ccaa00782
  1

  0
LINE
  5
161D
330
161B
100
AcDbEntity
  8
0
100
AcDbLine
 10
-30.999999
 20
17.401186
 30
0.0
 11
-57.999984
 21
18.1082
 31
0.0
  0
LINE
  5
161E
330
161B
100
AcDbEntity
  8
0
100
AcDbLine
 10
-30.999999
 20
23.348813
 30
0.0
 11
-57.999984
 21
22.6418
 31
0.0
  0
ARC
  5
161F
330
161B
100
AcDbEntity
  8
0
100
AcDbCircle
 10
-54.065933
 20
-33.24854
 30
0.0
 40
5.0
100
AcDbArc
 50
250.219727
 51
268.5
  0
ARC
  5
1620
330
161B
100
AcDbEntity
  8
0
100
AcDbCircle
 10
-54.065933
 20
33.539539
 30
0.0
 40
5.0
100
AcDbArc
 50
91.5
 51
109.780281
  0
ARC
  5
1621
330
161B
100
AcDbEntity
  8
0
100
AcDbCircle
 10
-55.999977
 20
-35.741101
 30
0.0
 40
2.0
100
AcDbArc
 50
180.0
 51
250.219681
  0
LINE
  5
1622
330
161B
100
AcDbEntity
  8
0
100
AcDbLine
 10
-55.758003
 20
-37.953526
 30
0.0
 11
-56.676807
 21
-37.623093
 31
0.0
  0
LINE
  5
1623
330
161B
100
AcDbEntity
  8
0
100
AcDbLine
 10
-57.99998
 20
36.0321
 30
0.0
 11
-58.0000178466
 21
-35.741101
 31
0.0
  0
ARC
  5
1624
330
161B
100
AcDbEntity
  8
0
100
AcDbCircle
 10
-55.999977
 20
36.0321
 30
0.0
 40
2.0
100
AcDbArc
 50
109.780319
 51
180.0
  0
LINE
  5
1625
330
161B
100
AcDbEntity
  8
0
100
AcDbLine
 10
-55.758003
 20
38.244525
 30
0.0
 11
-56.676807
 21
37.914094
 31
0.0
  0
LINE
  5
1626
330
161B
100
AcDbEntity
  8
0
100
AcDbLine
 10
-26.999999
 20
38.026143
 30
0.0
 11
-26.999999
 21
-44.250001
 31
0.0
  0
LINE
  5
1627
330
161B
100
AcDbEntity
  8
0
100
AcDbLine
 10
0.0
 20
-45.000001
 30
0.0
 11
0.0
 21
44.999999
 31
0.0
  0
LINE
  5
1628
330
161B
100
AcDbEntity
  8
0
100
AcDbLine
 10
-25.000251
 20
-35.500409
 30
0.0
 11
-14.0
 21
-35.500409
 31
0.0
  0
LINE
  5
1629
330
161B
100
AcDbEntity
  8
0
100
AcDbLine
 10
-25.032016
 20
-44.60238
 30
0.0
 11
0.0
 21
-45.000001
 31
0.0
  0
LINE
  5
162A
330
161B
100
AcDbEntity
  8
0
100
AcDbLine
 10
-54.196819
 20
-38.246827
 30
0.0
 11
-26.999999
 21
-38.959
 31
0.0
  0
ARC
  5
162B
330
161B
100
AcDbEntity
  8
0
100
AcDbCircle
 10
-26.699951
 20
-40.749982
 30
0.0
 40
7.0
100
AcDbArc
 50
163.968933
 51
196.957993
  0
LINE
  5
162C
330
161B
100
AcDbEntity
  8
0
100
AcDbLine
 10
-31.699951
 20
-43.499982
 30
0.0
 11
-31.699951
 21
-38.862115
 31
0.0
  0
LINE
  5
162D
330
161B
100
AcDbEntity
  8
0
100
AcDbLine
 10
-30.999999
 20
-43.658177
 30
0.0
 11
-30.999999
 21
-38.880441
 31
0.0
  0
LINE
  5
162E
330
161B
100
AcDbEntity
  8
0
100
AcDbLine
 10
-30.51309
 20
-44.158006
 30
0.0
 11
-26.999999
 21
-44.250001
 31
0.0
  0
ARC
  5
162F
330
161B
100
AcDbEntity
  8
0
100
AcDbCircle
 10
-30.499999
 20
-43.658177
 30
0.0
 40
0.5
100
AcDbArc
 50
180.0
 51
268.5
  0
ARC
  5
1630
330
161B
100
AcDbEntity
  8
0
100
AcDbCircle
 10
-32.43921
 20
-42.499982
 30
0.0
 40
1.0
100
AcDbArc
 50
196.958099
 51
270.0
  0
LINE
  5
1631
330
161B
100
AcDbEntity
  8
0
100
AcDbLine
 10
-30.999999
 20
-43.499982
 30
0.0
 11
-32.43921
 21
-43.499982
 31
0.0
  0
LINE
  5
1632
330
161B
100
AcDbEntity
  8
0
100
AcDbLine
 10
-26.256984
 20
-44.276643
 30
0.0
 11
-25.000251
 21
-44.610825
 31
0.0
  0
ARC
  5
1633
330
161B
100
AcDbEntity
  8
0
100
AcDbCircle
 10
-25.999999
 20
-43.310227
 30
0.0
 40
1.0
100
AcDbArc
 50
180.0
 51
255.108749
  0
LINE
  5
1634
330
161B
100
AcDbEntity
  8
0
100
AcDbLine
 10
-26.256984
 20
-35.166226
 30
0.0
 11
-25.000251
 21
-35.500409
 31
0.0
  0
ARC
  5
1635
330
161B
100
AcDbEntity
  8
0
100
AcDbCircle
 10
-25.999999
 20
-34.199811
 30
0.0
 40
1.0
100
AcDbArc
 50
180.0
 51
255.108749
  0
LINE
  5
1636
330
161B
100
AcDbEntity
  8
0
100
AcDbLine
 10
0.0
 20
-34.409291
 30
0.0
 11
-14.0
 21
-34.409291
 31
0.0
  0
ARC
  5
1637
330
161B
100
AcDbEntity
  8
0
100
AcDbCircle
 10
-8.59997
 20
-40.000409
 30
0.0
 40
8.999999
100
AcDbArc
 50
163.398987
 51
196.601517
  0
LINE
  5
1638
330
161B
100
AcDbEntity
  8
0
100
AcDbLine
 10
-15.0
 20
-43.500409
 30
0.0
 11
-15.0
 21
-36.500409
 31
0.0
  0
LINE
  5
1639
330
161B
100
AcDbEntity
  8
0
100
AcDbLine
 10
-14.0
 20
-44.264279
 30
0.0
 11
-14.0
 21
-34.409291
 31
0.0
  0
ARC
  5
163A
330
161B
100
AcDbEntity
  8
0
100
AcDbCircle
 10
-13.5
 20
-44.264279
 30
0.0
 40
0.5
100
AcDbArc
 50
180.0
 51
269.0
  0
ARC
  5
163B
330
161B
100
AcDbEntity
  8
0
100
AcDbCircle
 10
-15.97901
 20
-42.200391
 30
0.0
 40
1.3
100
AcDbArc
 50
196.601578
 51
270.0
  0
LINE
  5
163C
330
161B
100
AcDbEntity
  8
0
100
AcDbLine
 10
-14.0
 20
-43.500409
 30
0.0
 11
-15.97901
 21
-43.500409
 31
0.0
  0
ARC
  5
163D
330
161B
100
AcDbEntity
  8
0
100
AcDbCircle
 10
-15.97901
 20
-37.800397
 30
0.0
 40
1.3
100
AcDbArc
 50
90.0
 51
163.399094
  0
LINE
  5
163E
330
161B
100
AcDbEntity
  8
0
100
AcDbLine
 10
-14.0
 20
-36.500409
 30
0.0
 11
-15.97901
 21
-36.500409
 31
0.0
  0
LINE
  5
163F
330
161B
100
AcDbEntity
  8
0
100
AcDbLine
 10
-30.999999
 20
12.26356
 30
0.0
 11
-30.999999
 21
24.374999
 31
0.0
  0
LINE
  5
1640
330
161B
100
AcDbEntity
  8
0
100
AcDbLine
 10
-30.999999
 20
12.26356
 30
0.0
 11
-26.999999
 21
12.26356
 31
0.0
  0
LINE
  5
1641
330
161B
100
AcDbEntity
  8
0
100
AcDbLine
 10
-25.000251
 20
35.500409
 30
0.0
 11
-14.0
 21
35.500409
 31
0.0
  0
LINE
  5
1642
330
161B
100
AcDbEntity
  8
0
100
AcDbLine
 10
0.0
 20
44.999999
 30
0.0
 11
-32.499931
 21
44.999999
 31
0.0
  0
ARC
  5
1643
330
161B
100
AcDbEntity
  8
0
100
AcDbCircle
 10
-27.999999
 20
38.026143
 30
0.0
 40
1.0
100
AcDbArc
 50
0.0
 51
88.499985
  0
ARC
  5
1644
330
161B
100
AcDbEntity
  8
0
100
AcDbCircle
 10
-30.499931
 20
41.092635
 30
0.0
 40
2.0
100
AcDbArc
 50
180.0
 51
268.5
  0
LINE
  5
1645
330
161B
100
AcDbEntity
  8
0
100
AcDbLine
 10
-54.196819
 20
38.537826
 30
0.0
 11
-30.96013
 21
39.146301
 31
0.0
  0
LINE
  5
1646
330
161B
100
AcDbEntity
  8
0
100
AcDbLine
 10
-30.999999
 20
24.374999
 30
0.0
 11
-26.999999
 21
24.374999
 31
0.0
  0
ARC
  5
1647
330
161B
100
AcDbEntity
  8
0
100
AcDbCircle
 10
-26.699951
 20
20.375
 30
0.0
 40
7.0
100
AcDbArc
 50
163.043503
 51
196.957993
  0
LINE
  5
1648
330
161B
100
AcDbEntity
  8
0
100
AcDbLine
 10
-31.699951
 20
17.625
 30
0.0
 11
-31.699951
 21
23.124999
 31
0.0
  0
ARC
  5
1649
330
161B
100
AcDbEntity
  8
0
100
AcDbCircle
 10
-32.43921
 20
18.625
 30
0.0
 40
1.0
100
AcDbArc
 50
196.958099
 51
270.0
  0
LINE
  5
164A
330
161B
100
AcDbEntity
  8
0
100
AcDbLine
 10
-30.999999
 20
17.625
 30
0.0
 11
-32.43921
 21
17.625
 31
0.0
  0
ARC
  5
164B
330
161B
100
AcDbEntity
  8
0
100
AcDbCircle
 10
-32.43921
 20
22.125
 30
0.0
 40
1.0
100
AcDbArc
 50
90.0
 51
163.043106
  0
LINE
  5
164C
330
161B
100
AcDbEntity
  8
0
100
AcDbLine
 10
-30.999999
 20
23.124999
 30
0.0
 11
-32.43921
 21
23.124999
 31
0.0
  0
LINE
  5
164D
330
161B
100
AcDbEntity
  8
0
100
AcDbLine
 10
-27.973823
 20
39.025802
 30
0.0
 11
-30.552284
 21
39.093318
 31
0.0
  0
LINE
  5
164E
330
161B
100
AcDbEntity
  8
0
100
AcDbLine
 10
-26.256984
 20
35.166225
 30
0.0
 11
-25.000251
 21
35.500409
 31
0.0
  0
ARC
  5
164F
330
161B
100
AcDbEntity
  8
0
100
AcDbCircle
 10
-25.999999
 20
34.199809
 30
0.0
 40
1.0
100
AcDbArc
 50
104.891251
 51
180.0
  0
LINE
  5
1650
330
161B
100
AcDbEntity
  8
0
100
AcDbLine
 10
-32.499654
 20
57.000236
 30
0.0
 11
-32.499952
 21
45.002742
 31
0.0
  0
LINE
  5
1651
330
161B
100
AcDbEntity
  8
0
100
AcDbLine
 10
-32.499931
 20
41.092635
 30
0.0
 11
-32.499931
 21
44.999999
 31
0.0
  0
ARC
  5
1652
330
161B
100
AcDbEntity
  8
0
100
AcDbCircle
 10
-8.59997
 20
40.0004
 30
0.0
 40
8.999999
100
AcDbArc
 50
163.398987
 51
196.601517
  0
LINE
  5
1653
330
161B
100
AcDbEntity
  8
0
100
AcDbLine
 10
-15.0
 20
36.5004
 30
0.0
 11
-15.0
 21
43.5004
 31
0.0
  0
LINE
  5
1654
330
161B
100
AcDbEntity
  8
0
100
AcDbLine
 10
-14.0
 20
44.499999
 30
0.0
 11
-14.0
 21
34.499999
 31
0.0
  0
LINE
  5
1655
330
161B
100
AcDbEntity
  8
0
100
AcDbLine
 10
0.0
 20
34.409299
 30
0.0
 11
-14.0
 21
34.409299
 31
0.0
  0
ARC
  5
1656
330
161B
100
AcDbEntity
  8
0
100
AcDbCircle
 10
-15.97901
 20
37.800418
 30
0.0
 40
1.3
100
AcDbArc
 50
196.601578
 51
270.0
  0
LINE
  5
1657
330
161B
100
AcDbEntity
  8
0
100
AcDbLine
 10
-14.0
 20
36.5004
 30
0.0
 11
-15.97901
 21
36.5004
 31
0.0
  0
ARC
  5
1658
330
161B
100
AcDbEntity
  8
0
100
AcDbCircle
 10
-13.5
 20
44.499999
 30
0.0
 40
0.5
100
AcDbArc
 50
90.0
 51
180.0
  0
ARC
  5
1659
330
161B
100
AcDbEntity
  8
0
100
AcDbCircle
 10
-15.97901
 20
42.200412
 30
0.0
 40
1.3
100
AcDbArc
 50
90.0
 51
163.399094
  0
LINE
  5
165A
330
161B
100
AcDbEntity
  8
0
100
AcDbLine
 10
-14.0
 20
43.5004
 30
0.0
 11
-15.97901
 21
43.5004
 31
0.0
  0
LINE
  5
165B
330
161B
100
AcDbEntity
  8
0
100
AcDbLine
 10
-2.5
 20
57.000301
 30
0.0
 11
-2.5
 21
45.999999
 31
0.0
  0
ARC
  5
165C
330
161B
100
AcDbEntity
  8
0
100
AcDbCircle
 10
-1.5
 20
45.999999
 30
0.0
 40
1.0
100
AcDbArc
 50
180.0
 51
270.0
  0
LINE
  5
165D
330
161B
100
AcDbEntity
  8
0
100
AcDbLine
 10
-45.53577
 20
61.65033
 30
0.0
 11
-34.499996
 21
61.65033
 31
0.0
  0
LINE
  5
165E
330
161B
100
AcDbEntity
  8
0
100
AcDbLine
 10
-46.387569
 20
53.950318
 30
0.0
 11
-34.499996
 21
53.950318
 31
0.0
  0
LINE
  5
165F
330
161B
100
AcDbEntity
  8
HOJO
100
AcDbLine
 10
-45.459469
 20
56.34021
 30
0.0
 11
-46.387569
 21
53.950318
 31
0.0
  0
LINE
  5
1660
330
161B
100
AcDbEntity
  8
HOJO
100
AcDbLine
 10
-46.271572
 20
58.815216
 30
0.0
 11
-45.459469
 21
56.34021
 31
0.0
  0
LINE
  5
1661
330
161B
100
AcDbEntity
  8
HOJO
100
AcDbLine
 10
-45.53577
 20
61.65033
 30
0.0
 11
-46.271572
 21
58.815216
 31
0.0
  0
LINE
  5
1662
330
161B
100
AcDbEntity
  8
CENTER
100
AcDbLine
 10
-17.499996
 20
46.938294
 30
0.0
 11
-17.499996
 21
68.200806
 31
0.0
  0
ARC
  5
1663
330
161B
100
AcDbEntity
  8
0
100
AcDbCircle
 10
-17.499996
 20
-184.499687
 30
0.0
 40
250.0
100
AcDbArc
 50
86.668304
 51
93.331696
  0
ARC
  5
1664
330
161B
100
AcDbEntity
  8
0
100
AcDbCircle
 10
-29.499996
 20
57.700226
 30
0.0
 40
7.0
100
AcDbArc
 50
73.042
 51
106.956497
  0
LINE
  5
1665
330
161B
100
AcDbEntity
  8
0
100
AcDbLine
 10
-26.749996
 20
62.700226
 30
0.0
 11
-32.249996
 21
62.700226
 31
0.0
  0
LINE
  5
1666
330
161B
100
AcDbEntity
  8
0
100
AcDbLine
 10
-26.499996
 20
62.000306
 30
0.0
 11
-32.249996
 21
62.000306
 31
0.0
  0
ARC
  5
1667
330
161B
100
AcDbEntity
  8
0
100
AcDbCircle
 10
-31.999996
 20
61.500306
 30
0.0
 40
0.5
100
AcDbArc
 50
90.0
 51
180.0
  0
ARC
  5
1668
330
161B
100
AcDbEntity
  8
0
100
AcDbCircle
 10
-31.249996
 20
63.439515
 30
0.0
 40
1.0
100
AcDbArc
 50
106.956902
 51
180.0
  0
LINE
  5
1669
330
161B
100
AcDbEntity
  8
0
100
AcDbLine
 10
-32.249996
 20
62.000122
 30
0.0
 11
-32.249996
 21
63.439515
 31
0.0
  0
ARC
  5
166A
330
161B
100
AcDbEntity
  8
0
100
AcDbCircle
 10
-31.999996
 20
64.578614
 30
0.0
 40
0.5
100
AcDbArc
 50
93.331696
 51
180.0
  0
LINE
  5
166B
330
161B
100
AcDbEntity
  8
0
100
AcDbLine
 10
-32.500202
 20
58.000306
 30
0.0
 11
-32.500202
 21
64.578614
 31
0.0
  0
ARC
  5
166C
330
161B
100
AcDbEntity
  8
0
100
AcDbCircle
 10
-25.499996
 20
64.87204
 30
0.0
 40
0.5
100
AcDbArc
 50
91.837456
 51
180.0
  0
ARC
  5
166D
330
161B
100
AcDbEntity
  8
0
100
AcDbCircle
 10
-26.499996
 20
62.500306
 30
0.0
 40
0.5
100
AcDbArc
 50
270.0
 51
0.0
  0
ARC
  5
166E
330
161B
100
AcDbEntity
  8
0
100
AcDbCircle
 10
-27.749996
 20
63.439515
 30
0.0
 40
1.0
100
AcDbArc
 50
0.0
 51
73.041801
  0
LINE
  5
166F
330
161B
100
AcDbEntity
  8
0
100
AcDbLine
 10
-26.749996
 20
62.000306
 30
0.0
 11
-26.749996
 21
63.439515
 31
0.0
  0
LINE
  5
1670
330
161B
100
AcDbEntity
  8
0
100
AcDbLine
 10
-25.999996
 20
62.500306
 30
0.0
 11
-25.999996
 21
64.87204
 31
0.0
  0
ARC
  5
1671
330
161B
100
AcDbEntity
  8
0
100
AcDbCircle
 10
-5.499996
 20
57.700226
 30
0.0
 40
7.0
100
AcDbArc
 50
73.043503
 51
106.958
  0
LINE
  5
1672
330
161B
100
AcDbEntity
  8
0
100
AcDbLine
 10
-8.249996
 20
62.700226
 30
0.0
 11
-2.749996
 21
62.700226
 31
0.0
  0
LINE
  5
1673
330
161B
100
AcDbEntity
  8
0
100
AcDbLine
 10
-8.499996
 20
62.000306
 30
0.0
 11
-2.749996
 21
62.000306
 31
0.0
  0
ARC
  5
1674
330
161B
100
AcDbEntity
  8
0
100
AcDbCircle
 10
-9.499996
 20
64.87204
 30
0.0
 40
0.5
100
AcDbArc
 50
0.0
 51
88.162544
  0
ARC
  5
1675
330
161B
100
AcDbEntity
  8
0
100
AcDbCircle
 10
-8.499996
 20
62.500306
 30
0.0
 40
0.5
100
AcDbArc
 50
180.0
 51
270.0
  0
ARC
  5
1676
330
161B
100
AcDbEntity
  8
0
100
AcDbCircle
 10
-7.249996
 20
63.439515
 30
0.0
 40
1.0
100
AcDbArc
 50
106.958199
 51
180.0
  0
LINE
  5
1677
330
161B
100
AcDbEntity
  8
0
100
AcDbLine
 10
-8.249996
 20
62.000306
 30
0.0
 11
-8.249996
 21
63.439515
 31
0.0
  0
LINE
  5
1678
330
161B
100
AcDbEntity
  8
0
100
AcDbLine
 10
-8.999996
 20
62.500306
 30
0.0
 11
-8.999996
 21
64.87204
 31
0.0
  0
ARC
  5
1679
330
161B
100
AcDbEntity
  8
0
100
AcDbCircle
 10
-2.999996
 20
61.500306
 30
0.0
 40
0.5
100
AcDbArc
 50
0.0
 51
90.0
  0
ARC
  5
167A
330
161B
100
AcDbEntity
  8
0
100
AcDbCircle
 10
-3.749996
 20
63.439515
 30
0.0
 40
1.0
100
AcDbArc
 50
0.0
 51
73.043098
  0
LINE
  5
167B
330
161B
100
AcDbEntity
  8
0
100
AcDbLine
 10
-2.749996
 20
62.000122
 30
0.0
 11
-2.749996
 21
63.439515
 31
0.0
  0
ARC
  5
167C
330
161B
100
AcDbEntity
  8
0
100
AcDbCircle
 10
-2.999996
 20
64.578614
 30
0.0
 40
0.5
100
AcDbArc
 50
0.0
 51
86.668304
  0
LINE
  5
167D
330
161B
100
AcDbEntity
  8
0
100
AcDbLine
 10
-2.499996
 20
58.000306
 30
0.0
 11
-2.499996
 21
64.578614
 31
0.0
  0
ARC
  5
167E
330
161B
100
AcDbEntity
  8
0
100
AcDbCircle
 10
-1.999996
 20
50.000306
 30
0.0
 40
0.5
100
AcDbArc
 50
90.0
 51
180.0
  0
ARC
  5
167F
330
161B
100
AcDbEntity
  8
0
100
AcDbCircle
 10
-32.9998262848
 20
50.000306
 30
0.0
 40
0.5
100
AcDbArc
 50
359.9985816336
 51
90.0
  0
LINE
  5
1680
330
161B
100
AcDbEntity
  8
0
100
AcDbLine
 10
-34.499996
 20
57.000306
 30
0.0
 11
-0.5
 21
57.000306
 31
0.0
  0
LINE
  5
1681
330
161B
100
AcDbEntity
  8
0
100
AcDbLine
 10
-34.499996
 20
58.000306
 30
0.0
 11
-32.500202
 21
58.000306
 31
0.0
  0
LINE
  5
1682
330
161B
100
AcDbEntity
  8
0
100
AcDbLine
 10
-24.500202
 20
58.000306
 30
0.0
 11
-10.499996
 21
58.000306
 31
0.0
  0
LINE
  5
1683
330
161B
100
AcDbEntity
  8
0
100
AcDbLine
 10
-2.499996
 20
58.000306
 30
0.0
 11
-0.5
 21
58.000306
 31
0.0
  0
ARC
  5
1684
330
161B
100
AcDbEntity
  8
0
100
AcDbCircle
 10
-32.906735134
 20
65.000306
 30
0.0
 40
0.5
100
AcDbArc
 50
270.0
 51
335.0585433099
  0
LINE
  5
1685
330
161B
100
AcDbEntity
  8
0
100
AcDbLine
 10
-34.499996
 20
57.000306
 30
0.0
 11
-34.499996
 21
51.000306
 31
0.0
  0
ARC
  5
1686
330
161B
100
AcDbEntity
  8
0
100
AcDbCircle
 10
-33.999996
 20
51.000306
 30
0.0
 40
0.5
100
AcDbArc
 50
180.0
 51
270.0
  0
LINE
  5
1687
330
161B
100
AcDbEntity
  8
0
100
AcDbLine
 10
-32.999996
 20
50.500306
 30
0.0
 11
-33.999996
 21
50.500306
 31
0.0
  0
LINE
  5
1688
330
161B
100
AcDbEntity
  8
0
100
AcDbLine
 10
-32.906735134
 20
64.500306
 30
0.0
 11
-33.999996
 21
64.500306
 31
0.0
  0
LINE
  5
1689
330
161B
100
AcDbEntity
  8
0
100
AcDbLine
 10
-34.499996
 20
61.750306
 30
0.0
 11
-34.499996
 21
58.000306
 31
0.0
  0
LINE
  5
168A
330
161B
100
AcDbEntity
  8
0
100
AcDbLine
 10
-34.499996
 20
64.000306
 30
0.0
 11
-34.499996
 21
61.750306
 31
0.0
  0
ARC
  5
168B
330
161B
100
AcDbEntity
  8
0
100
AcDbCircle
 10
-33.999996
 20
64.000306
 30
0.0
 40
0.5
100
AcDbArc
 50
90.0
 51
180.0
  0
ARC
  5
168C
330
161B
100
AcDbEntity
  8
0
100
AcDbCircle
 10
-2.093256866
 20
65.000306
 30
0.0
 40
0.5
100
AcDbArc
 50
204.9414566901
 51
270.0
  0
LINE
  5
168D
330
161B
100
AcDbEntity
  8
0
100
AcDbLine
 10
-0.5
 20
57.000306
 30
0.0
 11
-0.5
 21
51.000306
 31
0.0
  0
LINE
  5
168E
330
161B
100
AcDbEntity
  8
0
100
AcDbLine
 10
-2.0
 20
50.500306
 30
0.0
 11
-1.0
 21
50.500306
 31
0.0
  0
ARC
  5
168F
330
161B
100
AcDbEntity
  8
0
100
AcDbCircle
 10
-1.0
 20
51.000306
 30
0.0
 40
0.5
100
AcDbArc
 50
270.0
 51
0.0
  0
LINE
  5
1690
330
161B
100
AcDbEntity
  8
0
100
AcDbLine
 10
-2.093256866
 20
64.500306
 30
0.0
 11
-1.0
 21
64.500306
 31
0.0
  0
ARC
  5
1691
330
161B
100
AcDbEntity
  8
0
100
AcDbCircle
 10
-1.0
 20
64.000306
 30
0.0
 40
0.5
100
AcDbArc
 50
0.0
 51
90.0
  0
LINE
  5
1692
330
161B
100
AcDbEntity
  8
0
100
AcDbLine
 10
-0.5
 20
64.000306
 30
0.0
 11
-0.5
 21
58.000306
 31
0.0
  0
LINE
  5
1693
330
161B
100
AcDbEntity
  8
0
100
AcDbLine
 10
-32.500202
 20
58.000306
 30
0.0
 11
-32.500202
 21
57.000306
 31
0.0
  0
LINE
  5
1694
330
161B
100
AcDbEntity
  8
0
100
AcDbLine
 10
-24.500202
 20
58.000306
 30
0.0
 11
-24.500202
 21
57.000306
 31
0.0
  0
LINE
  5
1695
330
161B
100
AcDbEntity
  8
0
100
AcDbLine
 10
-34.199996
 20
58.000306
 30
0.0
 11
-34.199996
 21
57.000306
 31
0.0
  0
LINE
  5
1696
330
161B
100
AcDbEntity
  8
0
100
AcDbLine
 10
-10.499996
 20
58.000306
 30
0.0
 11
-10.499996
 21
57.000306
 31
0.0
  0
LINE
  5
1697
330
161B
100
AcDbEntity
  8
0
100
AcDbLine
 10
-2.499996
 20
58.000306
 30
0.0
 11
-2.499996
 21
57.000306
 31
0.0
  0
LINE
  5
1698
330
161B
100
AcDbEntity
  8
0
100
AcDbLine
 10
-0.8
 20
58.000306
 30
0.0
 11
-0.8
 21
57.000306
 31
0.0
  0
LINE
  5
1699
330
161B
100
AcDbEntity
  8
0
100
AcDbLine
 10
-0.5
 20
58.000306
 30
0.0
 11
-0.5
 21
57.000306
 31
0.0
  0
ENDBLK
  5
169A
330
161B
100
AcDbEntity
  8
0
100
AcDbBlockEnd
  0
ENDSEC
  0
SECTION
  2
ENTITIES
  0
LINE
  5
91B
330
2
100
AcDbEntity
  8
0
100
AcDbLine
 10
464.2871442085
 20
135.7801344078
 30
0.0
 11
488.2871442085
 21
135.7801344078
 31
0.0
  0
LINE
  5
91C
330
2
100
AcDbEntity
  8
0
100
AcDbLine
 10
464.2871442085
 20
141.7801344078
 30
0.0
 11
488.2871442085
 21
141.7801344078
 31
0.0
  0
LINE
  5
91D
330
2
100
AcDbEntity
  8
0
100
AcDbLine
 10
458.2871442085
 20
147.7801344078
 30
0.0
 11
488.2871442085
 21
147.7801344078
 31
0.0
  0
LINE
  5
91E
330
2
100
AcDbEntity
  8
0
100
AcDbLine
 10
458.2871442085
 20
129.7801344078
 30
0.0
 11
488.2871442085
 21
129.7801344078
 31
0.0
  0
LINE
  5
91F
330
2
100
AcDbEntity
  8
CENTER
100
AcDbLine
 10
359.2871422085
 20
138.7801344078
 30
0.0
 11
495.2871442085
 21
138.7801344078
 31
0.0
  0
ARC
  5
924
330
2
100
AcDbEntity
  8
0
100
AcDbCircle
 10
219.8738108014
 20
73.7801344078
 30
0.0
 40
9.0
100
AcDbArc
 50
184.120102
 51
270.0
  0
ARC
  5
925
330
2
100
AcDbEntity
  8
0
100
AcDbCircle
 10
259.8738108014
 20
123.7801344078
 30
0.0
 40
50.5
100
AcDbArc
 50
198.103806
 51
341.89621
  0
ARC
  5
926
330
2
100
AcDbEntity
  8
0
100
AcDbCircle
 10
218.8679058014
 20
87.7439534078
 30
0.0
 40
5.0
100
AcDbArc
 50
184.120499
 51
274.120209
  0
ARC
  5
927
330
2
100
AcDbEntity
  8
0
100
AcDbCircle
 10
219.8738108014
 20
173.7801344078
 30
0.0
 40
9.0
100
AcDbArc
 50
90.0
 51
175.879898
  0
ARC
  5
928
330
2
100
AcDbEntity
  8
0
100
AcDbCircle
 10
259.8738108014
 20
123.7801344078
 30
0.0
 40
50.5
100
AcDbArc
 50
18.1038
 51
161.896194
  0
ARC
  5
929
330
2
100
AcDbEntity
  8
0
100
AcDbCircle
 10
218.8679058014
 20
159.8163124078
 30
0.0
 40
5.0
100
AcDbArc
 50
85.879799
 51
175.879501
  0
LINE
  5
92A
330
2
100
AcDbEntity
  8
CENTER
100
AcDbLine
 10
212.8738108014
 20
173.7801344078
 30
0.0
 11
226.8738108014
 21
173.7801344078
 31
0.0
  0
LINE
  5
92B
330
2
100
AcDbEntity
  8
CENTER
100
AcDbLine
 10
212.8738108014
 20
73.7801344078
 30
0.0
 11
226.8738108014
 21
73.7801344078
 31
0.0
  0
LINE
  5
92C
330
2
100
AcDbEntity
  8
CENTER
100
AcDbLine
 10
71.8738183961
 20
113.0801334078
 30
0.0
 11
231.7604988014
 21
113.0801334078
 31
0.0
  0
LINE
  5
930
330
2
100
AcDbEntity
  8
0
100
AcDbLine
 10
306.1997078014
 20
349.8109925389
 30
0.0
 11
211.3221448014
 21
349.8109925389
 31
0.0
  0
LINE
  5
931
330
2
100
AcDbEntity
  8
0
100
AcDbLine
 10
209.3738108014
 20
264.8109765389
 30
0.0
 11
310.3738258014
 21
264.8109765389
 31
0.0
  0
LINE
  5
932
330
2
100
AcDbEntity
  8
0
100
AcDbLine
 10
211.1650098014
 20
274.8109765389
 30
0.0
 11
308.1636518014
 21
274.8109765389
 31
0.0
  0
LINE
  5
933
330
2
100
AcDbEntity
  8
0
100
AcDbLine
 10
136.8738108014
 20
341.8109925389
 30
0.0
 11
216.2163708014
 21
341.8109925389
 31
0.0
  0
LINE
  5
934
330
2
100
AcDbEntity
  8
CENTER
100
AcDbLine
 10
71.8738108014
 20
312.8109925389
 30
0.0
 11
316.1169004655
 21
312.8109925389
 31
0.0
  0
LINE
  5
93B
330
2
100
AcDbEntity
  8
0
100
AcDbLine
 10
207.3738108014
 20
68.0801344078
 30
0.0
 11
136.8738068014
 21
68.0801344078
 31
0.0
  0
LINE
  5
93C
330
2
100
AcDbEntity
  8
0
100
AcDbLine
 10
136.8738068014
 20
78.6708244078
 30
0.0
 11
207.8738108014
 21
78.6708244078
 31
0.0
  0
LINE
  5
93D
330
2
100
AcDbEntity
  8
0
100
AcDbLine
 10
136.8738068014
 20
158.0801374078
 30
0.0
 11
209.7195598014
 21
158.0801374078
 31
0.0
  0
LINE
  5
93E
330
2
100
AcDbEntity
  8
0
100
AcDbLine
 10
136.8738068014
 20
147.4894314078
 30
0.0
 11
207.3738108014
 21
147.4894314078
 31
0.0
  0
LINE
  5
93F
330
2
100
AcDbEntity
  8
0
100
AcDbLine
 10
136.8738068014
 20
68.0801344078
 30
0.0
 11
136.8738068014
 21
158.0801374078
 31
0.0
  0
LINE
  5
9B3
330
2
100
AcDbEntity
  8
0
100
AcDbLine
 10
211.8738108014
 20
139.4723264078
 30
0.0
 11
211.8738108014
 21
108.0876144078
 31
0.0
  0
LINE
  5
9B4
330
2
100
AcDbEntity
  8
0
100
AcDbLine
 10
209.3738108014
 20
153.2801344078
 30
0.0
 11
209.3738108014
 21
94.2801224078
 31
0.0
  0
LINE
  5
9B6
330
2
100
AcDbEntity
  8
0
100
AcDbLine
 10
209.3738108014
 20
70.0801344078
 30
0.0
 11
209.3738108014
 21
78.0801634078
 31
0.0
  0
ARC
  5
9B7
330
2
100
AcDbEntity
  8
0
100
AcDbCircle
 10
207.3738108014
 20
70.0801344078
 30
0.0
 40
2.0
100
AcDbArc
 50
270.0
 51
0.0
  0
LINE
  5
9B8
330
2
100
AcDbEntity
  8
0
100
AcDbLine
 10
210.8970038014
 20
73.1335744078
 30
0.0
 11
209.3738108014
 21
94.2801344078
 31
0.0
  0
ARC
  5
9B9
330
2
100
AcDbEntity
  8
0
100
AcDbCircle
 10
214.3738108014
 20
78.0801634078
 30
0.0
 40
5.0
100
AcDbArc
 50
143.994797
 51
180.0
  0
LINE
  5
9BA
330
2
100
AcDbEntity
  8
0
100
AcDbLine
 10
213.8809058014
 20
87.3847144078
 30
0.0
 11
211.8737038014
 21
108.0880984078
 31
0.0
  0
LINE
  5
9BB
330
2
100
AcDbEntity
  8
0
100
AcDbLine
 10
210.8970038014
 20
174.4267634078
 30
0.0
 11
209.3738108014
 21
153.2801344078
 31
0.0
  0
LINE
  5
9BC
330
2
100
AcDbEntity
  8
0
100
AcDbLine
 10
213.8809058014
 20
160.1755964078
 30
0.0
 11
211.8738108014
 21
139.4724944078
 31
0.0
  0
LINE
  5
9BD
330
2
100
AcDbEntity
  8
0
100
AcDbLine
 10
207.2160048014
 20
357.8109925389
 30
0.0
 11
136.8738108014
 21
357.8109925389
 31
0.0
  0
LINE
  5
9BE
330
2
100
AcDbEntity
  8
0
100
AcDbLine
 10
136.8738108014
 20
283.8109765389
 30
0.0
 11
207.4906938014
 21
283.8109765389
 31
0.0
  0
LINE
  5
9BF
330
2
100
AcDbEntity
  8
0
100
AcDbLine
 10
207.3469558014
 20
267.8109765389
 30
0.0
 11
136.8738108014
 21
267.8109765389
 31
0.0
  0
LINE
  5
9C4
330
2
100
AcDbEntity
  8
0
100
AcDbLine
 10
136.8738108014
 20
267.8109765389
 30
0.0
 11
136.8738108014
 21
357.8109925389
 31
0.0
  0
LINE
  5
A50
330
2
100
AcDbEntity
  8
0
100
AcDbLine
 10
208.1168838014
 20
312.8109925389
 30
0.0
 11
209.3738108014
 21
264.8109765389
 31
0.0
  0
ARC
  5
A51
330
2
100
AcDbEntity
  8
0
100
AcDbCircle
 10
211.1650098014
 20
272.8109765389
 30
0.0
 40
2.0
100
AcDbArc
 50
90.0
 51
181.5
  0
ARC
  5
A52
330
2
100
AcDbEntity
  8
0
100
AcDbCircle
 10
207.3469558014
 20
265.8109765389
 30
0.0
 40
2.0
100
AcDbArc
 50
1.5
 51
90.0
  0
LINE
  5
A53
330
2
100
AcDbEntity
  8
0
100
AcDbLine
 10
209.2153328014
 20
355.8633455389
 30
0.0
 11
209.3228158014
 21
351.7586245389
 31
0.0
  0
ARC
  5
A54
330
2
100
AcDbEntity
  8
0
100
AcDbCircle
 10
207.2160048014
 20
355.8109925389
 30
0.0
 40
2.0
100
AcDbArc
 50
1.5
 51
90.0
  0
LINE
  5
A55
330
2
100
AcDbEntity
  8
0
100
AcDbLine
 10
209.1643998014
 20
341.8137235389
 30
0.0
 11
209.3228158014
 21
347.8633455389
 31
0.0
  0
ARC
  5
A56
330
2
100
AcDbEntity
  8
0
100
AcDbCircle
 10
211.3221448014
 20
347.8109925389
 30
0.0
 40
2.0
100
AcDbArc
 50
90.0
 51
178.5
  0
ARC
  5
A57
330
2
100
AcDbEntity
  8
0
100
AcDbCircle
 10
211.3221448014
 20
351.8109925389
 30
0.0
 40
2.0
100
AcDbArc
 50
181.5
 51
270.0
  0
LINE
  5
A5B
330
2
100
AcDbEntity
  8
0
100
AcDbLine
 10
219.8738108014
 20
182.7801344078
 30
0.0
 11
299.8738108014
 21
182.7801344078
 31
0.0
  0
LINE
  5
A5C
330
2
100
AcDbEntity
  8
0
100
AcDbLine
 10
219.8738108014
 20
64.7801344078
 30
0.0
 11
299.8738108014
 21
64.7801344078
 31
0.0
  0
LINE
  5
A5D
330
2
100
AcDbEntity
  8
0
100
AcDbLine
 10
285.8738108014
 20
68.7801344078
 30
0.0
 11
233.8738108014
 21
68.7801344078
 31
0.0
  0
LINE
  5
A5E
330
2
100
AcDbEntity
  8
0
100
AcDbLine
 10
233.8738108014
 20
178.7801344078
 30
0.0
 11
285.8738108014
 21
178.7801344078
 31
0.0
  0
LINE
  5
A5F
330
2
100
AcDbEntity
  8
CENTER
100
AcDbLine
 10
229.3738108014
 20
138.7801344078
 30
0.0
 11
290.3738108014
 21
138.7801344078
 31
0.0
  0
LINE
  5
A62
330
2
100
AcDbEntity
  8
CENTER
100
AcDbLine
 10
259.8738108014
 20
189.7801344078
 30
0.0
 11
259.8738108014
 21
57.7801344078
 31
0.0
  0
LINE
  5
A67
330
2
100
AcDbEntity
  8
0
100
AcDbLine
 10
245.8738108014
 20
75.2595244078
 30
0.0
 11
245.8738108014
 21
69.9855044078
 31
0.0
  0
CIRCLE
  5
A68
330
2
100
AcDbEntity
  8
0
100
AcDbCircle
 10
219.8738108014
 20
73.7801344078
 30
0.0
 40
4.25
  0
LINE
  5
A69
330
2
100
AcDbEntity
  8
CENTER
100
AcDbLine
 10
219.8738108014
 20
66.7801344078
 30
0.0
 11
219.8738108014
 21
80.7801344078
 31
0.0
  0
ARC
  5
A6A
330
2
100
AcDbEntity
  8
0
100
AcDbCircle
 10
233.8738108014
 20
73.7801344078
 30
0.0
 40
5.0
100
AcDbArc
 50
180.0
 51
270.0
  0
ARC
  5
A6B
330
2
100
AcDbEntity
  8
0
100
AcDbCircle
 10
219.8738108014
 20
73.7801344078
 30
0.0
 40
9.0
100
AcDbArc
 50
0.0
 51
94.120163
  0
LINE
  5
A72
330
2
100
AcDbEntity
  8
0
100
AcDbLine
 10
273.8738108014
 20
75.2595244078
 30
0.0
 11
273.8738108014
 21
69.9855044078
 31
0.0
  0
CIRCLE
  5
AA9
330
2
100
AcDbEntity
  8
0
100
AcDbCircle
 10
259.8738108014
 20
138.7801344078
 30
0.0
 40
23.5
  0
ARC
  5
AAA
330
2
100
AcDbEntity
  8
0
100
AcDbCircle
 10
233.8738108014
 20
173.7801344078
 30
0.0
 40
5.0
100
AcDbArc
 50
90.0
 51
180.0
  0
ARC
  5
AAB
330
2
100
AcDbEntity
  8
0
100
AcDbCircle
 10
219.8738108014
 20
173.7801344078
 30
0.0
 40
9.0
100
AcDbArc
 50
265.879333
 51
0.0
  0
CIRCLE
  5
AAC
330
2
100
AcDbEntity
  8
0
100
AcDbCircle
 10
219.8738108014
 20
173.7801344078
 30
0.0
 40
4.25
  0
LINE
  5
AAD
330
2
100
AcDbEntity
  8
CENTER
100
AcDbLine
 10
219.8738108014
 20
166.7801344078
 30
0.0
 11
219.8738108014
 21
180.7801344078
 31
0.0
  0
LINE
  5
AAE
330
2
100
AcDbEntity
  8
0
100
AcDbLine
 10
245.8738108014
 20
177.8489364078
 30
0.0
 11
245.8738108014
 21
172.3007414078
 31
0.0
  0
LINE
  5
AAF
330
2
100
AcDbEntity
  8
HIDS
100
AcDbLine
 10
271.3738108014
 20
141.7801724078
 30
0.0
 11
265.3738108014
 21
141.7801574078
 31
0.0
  0
LINE
  5
AB0
330
2
100
AcDbEntity
  8
HIDS
100
AcDbLine
 10
271.3738108014
 20
135.7801724078
 30
0.0
 11
265.3738108014
 21
135.7801574078
 31
0.0
  0
ARC
  5
AB1
330
2
100
AcDbEntity
  8
HIDS
100
AcDbCircle
 10
259.8738108014
 20
138.7801344078
 30
0.0
 40
9.0
100
AcDbArc
 50
19.47121
 51
340.528809
  0
LINE
  5
AB2
330
2
100
AcDbEntity
  8
HIDS
100
AcDbLine
 10
265.3738108014
 20
135.7801574078
 30
0.0
 11
265.3738108014
 21
141.7801574078
 31
0.0
  0
LINE
  5
AB3
330
2
100
AcDbEntity
  8
HIDS
100
AcDbLine
 10
271.3738108014
 20
135.7801724078
 30
0.0
 11
271.3738108014
 21
141.7801724078
 31
0.0
  0
LINE
  5
AB4
330
2
100
AcDbEntity
  8
0
100
AcDbLine
 10
273.8738108014
 20
177.8489364078
 30
0.0
 11
273.8738108014
 21
172.3007564078
 31
0.0
  0
LINE
  5
AB5
330
2
100
AcDbEntity
  8
0
100
AcDbLine
 10
307.8738108014
 20
139.4724944078
 30
0.0
 11
307.8738108014
 21
108.0880984078
 31
0.0
  0
LINE
  5
AB6
330
2
100
AcDbEntity
  8
0
100
AcDbLine
 10
310.3738108014
 20
94.2801344078
 30
0.0
 11
310.3738108014
 21
153.2801344078
 31
0.0
  0
ARC
  5
ABA
330
2
100
AcDbEntity
  8
0
100
AcDbCircle
 10
285.8738108014
 20
73.7801344078
 30
0.0
 40
5.0
100
AcDbArc
 50
270.0
 51
0.0
  0
LINE
  5
ABB
330
2
100
AcDbEntity
  8
CENTER
100
AcDbLine
 10
299.8738108014
 20
66.7801344078
 30
0.0
 11
299.8738108014
 21
80.7801344078
 31
0.0
  0
CIRCLE
  5
ABC
330
2
100
AcDbEntity
  8
0
100
AcDbCircle
 10
299.8738108014
 20
73.7801344078
 30
0.0
 40
4.25
  0
ARC
  5
ABD
330
2
100
AcDbEntity
  8
0
100
AcDbCircle
 10
299.8738108014
 20
73.7801344078
 30
0.0
 40
9.0
100
AcDbArc
 50
270.0
 51
355.879913
  0
ARC
  5
ABE
330
2
100
AcDbEntity
  8
0
100
AcDbCircle
 10
300.8797008014
 20
87.7439534078
 30
0.0
 40
5.0
100
AcDbArc
 50
265.879791
 51
355.879486
  0
LINE
  5
ABF
330
2
100
AcDbEntity
  8
CENTER
100
AcDbLine
 10
292.8738108014
 20
73.7801344078
 30
0.0
 11
306.8738108014
 21
73.7801344078
 31
0.0
  0
ARC
  5
AC0
330
2
100
AcDbEntity
  8
0
100
AcDbCircle
 10
299.8738108014
 20
73.7801344078
 30
0.0
 40
9.0
100
AcDbArc
 50
85.879837
 51
180.0
  0
LINE
  5
AC1
330
2
100
AcDbEntity
  8
0
100
AcDbLine
 10
308.8505108014
 20
73.1335744078
 30
0.0
 11
310.3738108014
 21
94.2801344078
 31
0.0
  0
LINE
  5
AC2
330
2
100
AcDbEntity
  8
0
100
AcDbLine
 10
305.8666998014
 20
87.3847144078
 30
0.0
 11
307.8739018014
 21
108.0880984078
 31
0.0
  0
LINE
  5
AC5
330
2
100
AcDbEntity
  8
0
100
AcDbLine
 10
305.8666998014
 20
160.1755964078
 30
0.0
 11
307.8738108014
 21
139.4724944078
 31
0.0
  0
LINE
  5
AC6
330
2
100
AcDbEntity
  8
0
100
AcDbLine
 10
308.8505108014
 20
174.4267634078
 30
0.0
 11
310.3738108014
 21
153.2801344078
 31
0.0
  0
CIRCLE
  5
AC7
330
2
100
AcDbEntity
  8
0
100
AcDbCircle
 10
299.8738108014
 20
173.7801344078
 30
0.0
 40
4.25
  0
ARC
  5
AC8
330
2
100
AcDbEntity
  8
0
100
AcDbCircle
 10
300.8797008014
 20
159.8163124078
 30
0.0
 40
5.0
100
AcDbArc
 50
4.120544
 51
94.120201
  0
LINE
  5
AC9
330
2
100
AcDbEntity
  8
CENTER
100
AcDbLine
 10
292.8738108014
 20
173.7801344078
 30
0.0
 11
306.8738108014
 21
173.7801344078
 31
0.0
  0
ARC
  5
ACA
330
2
100
AcDbEntity
  8
0
100
AcDbCircle
 10
299.8738108014
 20
173.7801344078
 30
0.0
 40
9.0
100
AcDbArc
 50
4.120065
 51
90.0
  0
ARC
  5
ACB
330
2
100
AcDbEntity
  8
0
100
AcDbCircle
 10
285.8738108014
 20
173.7801344078
 30
0.0
 40
5.0
100
AcDbArc
 50
0.0
 51
90.0
  0
ARC
  5
ACC
330
2
100
AcDbEntity
  8
0
100
AcDbCircle
 10
299.8738108014
 20
173.7801344078
 30
0.0
 40
9.0
100
AcDbArc
 50
180.0
 51
274.120697
  0
LINE
  5
ACD
330
2
100
AcDbEntity
  8
CENTER
100
AcDbLine
 10
299.8738108014
 20
166.7801344078
 30
0.0
 11
299.8738108014
 21
180.7801344078
 31
0.0
  0
LINE
  5
ACE
330
2
100
AcDbEntity
  8
0
100
AcDbLine
 10
449.3349422085
 20
94.2801304078
 30
0.0
 11
379.2871422085
 21
94.2801304078
 31
0.0
  0
LINE
  5
ACF
330
2
100
AcDbEntity
  8
0
100
AcDbLine
 10
448.3395432085
 20
70.7286814078
 30
0.0
 11
378.2522422085
 21
69.5050514078
 31
0.0
  0
LINE
  5
AD0
330
2
100
AcDbEntity
  8
0
100
AcDbLine
 10
388.2871422085
 20
68.0801314078
 30
0.0
 11
440.2871442085
 21
68.0801314078
 31
0.0
  0
LINE
  5
AD1
330
2
100
AcDbEntity
  8
0
100
AcDbLine
 10
448.3394442085
 20
176.8315714078
 30
0.0
 11
378.2522422085
 21
178.0546704078
 31
0.0
  0
LINE
  5
AD2
330
2
100
AcDbEntity
  8
0
100
AcDbLine
 10
449.3349422085
 20
153.2801344078
 30
0.0
 11
381.4529422085
 21
153.2801344078
 31
0.0
  0
ARC
  5
AD3
330
2
100
AcDbEntity
  8
0
100
AcDbCircle
 10
414.2871402085
 20
-71.4195725922
 30
0.0
 40
250.0
100
AcDbArc
 50
84.826019
 51
94.598679
  0
LINE
  5
AD4
330
2
100
AcDbEntity
  8
HIDS
100
AcDbLine
 10
387.2522422085
 20
157.6099304078
 30
0.0
 11
414.2871402085
 21
158.0818234078
 31
0.0
  0
LINE
  5
AD5
330
2
100
AcDbEntity
  8
CENTER
100
AcDbLine
 10
359.2871422085
 20
113.0801294078
 30
0.0
 11
466.2871402085
 21
113.0801294078
 31
0.0
  0
ARC
  5
AD6
330
2
100
AcDbEntity
  8
HIDS
100
AcDbCircle
 10
414.2871402085
 20
113.0801294078
 30
0.0
 40
45.0
100
AcDbArc
 50
131.810318
 51
228.189682
  0
LINE
  5
AD7
330
2
100
AcDbEntity
  8
0
100
AcDbLine
 10
366.2871422085
 20
64.7801314078
 30
0.0
 11
366.2871422085
 21
182.7801344078
 31
0.0
  0
LINE
  5
AD8
330
2
100
AcDbEntity
  8
0
100
AcDbLine
 10
376.2871422085
 20
180.7801344078
 30
0.0
 11
376.2871422085
 21
91.2801494078
 31
0.0
  0
LINE
  5
AD9
330
2
100
AcDbEntity
  8
HIDS
100
AcDbLine
 10
366.2871422085
 20
69.5301314078
 30
0.0
 11
376.2871422085
 21
69.5301314078
 31
0.0
  0
LINE
  5
ADA
330
2
100
AcDbEntity
  8
HIDS
100
AcDbLine
 10
366.2871422085
 20
78.0301304078
 30
0.0
 11
376.2871422085
 21
78.0301304078
 31
0.0
  0
LINE
  5
ADB
330
2
100
AcDbEntity
  8
0
100
AcDbLine
 10
374.7525422085
 20
64.7801314078
 30
0.0
 11
366.2871422085
 21
64.7801314078
 31
0.0
  0
LINE
  5
ADC
330
2
100
AcDbEntity
  8
CENTER
100
AcDbLine
 10
362.7871422085
 20
73.7801314078
 30
0.0
 11
379.7871422085
 21
73.7801314078
 31
0.0
  0
LINE
  5
ADE
330
2
100
AcDbEntity
  8
0
100
AcDbLine
 10
376.2871422085
 20
66.7801314078
 30
0.0
 11
376.2871422085
 21
91.2801424078
 31
0.0
  0
LINE
  5
ADF
330
2
100
AcDbEntity
  8
HIDS
100
AcDbLine
 10
385.2871422085
 20
71.0801314078
 30
0.0
 11
385.2871422085
 21
77.3030434078
 31
0.0
  0
ARC
  5
AE0
330
2
100
AcDbEntity
  8
0
100
AcDbCircle
 10
374.7525422085
 20
66.7801314078
 30
0.0
 40
2.0
100
AcDbArc
 50
270.0
 51
345.0
  0
ARC
  5
AE1
330
2
100
AcDbEntity
  8
0
100
AcDbCircle
 10
374.2871422085
 20
66.7801314078
 30
0.0
 40
2.0
100
AcDbArc
 50
270.0
 51
0.0
  0
ARC
  5
AE2
330
2
100
AcDbEntity
  8
0
100
AcDbCircle
 10
379.8625422085
 20
66.5327114078
 30
0.0
 40
3.0
100
AcDbArc
 50
91.000458
 51
165.000305
  0
ARC
  5
AE3
330
2
100
AcDbEntity
  8
0
100
AcDbCircle
 10
378.2871422085
 20
67.5053514078
 30
0.0
 40
2.0
100
AcDbArc
 50
91.000526
 51
180.0
  0
LINE
  5
AE4
330
2
100
AcDbEntity
  8
0
100
AcDbLine
 10
376.6843422085
 20
66.2625014078
 30
0.0
 11
376.9647412085
 21
67.3091514078
 31
0.0
  0
ARC
  5
AE5
330
2
100
AcDbEntity
  8
HIDS
100
AcDbCircle
 10
388.2871422085
 20
71.0801314078
 30
0.0
 40
3.0
100
AcDbArc
 50
180.0
 51
208.811234
  0
ARC
  5
AE6
330
2
100
AcDbEntity
  8
0
100
AcDbCircle
 10
388.2871422085
 20
71.0801314078
 30
0.0
 40
3.0
100
AcDbArc
 50
208.811234
 51
270.0
  0
ARC
  5
AE7
330
2
100
AcDbEntity
  8
0
100
AcDbCircle
 10
379.2871422085
 20
91.2801494078
 30
0.0
 40
3.0
100
AcDbArc
 50
90.0
 51
180.0
  0
ARC
  5
AE8
330
2
100
AcDbEntity
  8
HIDS
100
AcDbCircle
 10
382.2871422085
 20
77.3030434078
 30
0.0
 40
3.0
100
AcDbArc
 50
0.0
 51
48.189686
  0
LINE
  5
AE9
330
2
100
AcDbEntity
  8
0
100
AcDbLine
 10
374.7525422085
 20
182.7801344078
 30
0.0
 11
366.2871422085
 21
182.7801344078
 31
0.0
  0
LINE
  5
AEA
330
2
100
AcDbEntity
  8
HIDS
100
AcDbLine
 10
366.2871422085
 20
178.0301344078
 30
0.0
 11
376.2871422085
 21
178.0301344078
 31
0.0
  0
LINE
  5
AEB
330
2
100
AcDbEntity
  8
HIDS
100
AcDbLine
 10
366.2871422085
 20
169.5301344078
 30
0.0
 11
376.2871422085
 21
169.5301344078
 31
0.0
  0
LINE
  5
AEC
330
2
100
AcDbEntity
  8
CENTER
100
AcDbLine
 10
362.7871422085
 20
173.7801344078
 30
0.0
 11
379.7871422085
 21
173.7801344078
 31
0.0
  0
ARC
  5
AED
330
2
100
AcDbEntity
  8
HIDS
100
AcDbCircle
 10
387.2871422085
 20
155.6102274078
 30
0.0
 40
2.0
100
AcDbArc
 50
90.999809
 51
180.0
  0
LINE
  5
AEE
330
2
100
AcDbEntity
  8
HIDS
100
AcDbLine
 10
385.2871422085
 20
155.6102434078
 30
0.0
 11
385.2871422085
 21
148.8572214078
 31
0.0
  0
ARC
  5
AEF
330
2
100
AcDbEntity
  8
HIDS
100
AcDbCircle
 10
382.2871422085
 20
148.8572214078
 30
0.0
 40
3.0
100
AcDbArc
 50
311.810314
 51
0.0
  0
ARC
  5
AF0
330
2
100
AcDbEntity
  8
HIDS
100
AcDbCircle
 10
391.7871422085
 20
177.0638334078
 30
0.0
 40
0.5
100
AcDbArc
 50
95.173981
 51
180.0
  0
ARC
  5
AF1
330
2
100
AcDbEntity
  8
0
100
AcDbCircle
 10
374.7525422085
 20
180.7801194078
 30
0.0
 40
2.0
100
AcDbArc
 50
15.0005
 51
90.0
  0
ARC
  5
AF2
330
2
100
AcDbEntity
  8
0
100
AcDbCircle
 10
374.2871422085
 20
180.7801194078
 30
0.0
 40
2.0
100
AcDbArc
 50
0.0
 51
90.0
  0
ARC
  5
AF3
330
2
100
AcDbEntity
  8
0
100
AcDbCircle
 10
379.8627422085
 20
181.0270294078
 30
0.0
 40
3.0
100
AcDbArc
 50
195.000504
 51
269.00061
  0
ARC
  5
AF4
330
2
100
AcDbEntity
  8
0
100
AcDbCircle
 10
378.2871422085
 20
180.0543804078
 30
0.0
 40
2.0
100
AcDbArc
 50
180.0
 51
269.00061
  0
LINE
  5
AF5
330
2
100
AcDbEntity
  8
0
100
AcDbLine
 10
376.6843422085
 20
181.2977734078
 30
0.0
 11
376.9649412085
 21
180.2505404078
 31
0.0
  0
ARC
  5
AF6
330
2
100
AcDbEntity
  8
HIDS
100
AcDbCircle
 10
414.2871402085
 20
-71.4195725922
 30
0.0
 40
250.0
100
AcDbArc
 50
94.598679
 51
95.173981
  0
LINE
  5
AFA
330
2
100
AcDbEntity
  8
HIDS
100
AcDbLine
 10
391.2871422085
 20
177.0638334078
 30
0.0
 11
391.2871422085
 21
157.6786634078
 31
0.0
  0
ARC
  5
AFC
330
2
100
AcDbEntity
  8
0
100
AcDbCircle
 10
398.2871402085
 20
177.5668774078
 30
0.0
 40
0.5
100
AcDbArc
 50
93.676804
 51
162.961609
  0
ARC
  5
AFD
330
2
100
AcDbEntity
  8
0
100
AcDbCircle
 10
453.2871442085
 20
113.2801384078
 30
0.0
 40
2.0
100
AcDbArc
 50
90.0
 51
180.0
  0
ARC
  5
AFE
330
2
100
AcDbEntity
  8
0
100
AcDbCircle
 10
414.2871402085
 20
113.0801294078
 30
0.0
 40
45.0
100
AcDbArc
 50
325.307869
 51
20.419371
  0
LINE
  5
AFF
330
2
100
AcDbEntity
  8
0
100
AcDbLine
 10
451.2871442085
 20
173.8320144078
 30
0.0
 11
451.2871442085
 21
73.7282114078
 31
0.0
  0
LINE
  5
B00
330
2
100
AcDbEntity
  8
CENTER
100
AcDbLine
 10
414.2871402085
 20
61.0801314078
 30
0.0
 11
414.2871402085
 21
185.5804274078
 31
0.0
  0
ARC
  5
B01
330
2
100
AcDbEntity
  8
HIDS
100
AcDbCircle
 10
446.2871442085
 20
77.3030434078
 30
0.0
 40
3.0
100
AcDbArc
 50
131.810318
 51
180.0
  0
LINE
  5
B02
330
2
100
AcDbEntity
  8
HIDS
100
AcDbLine
 10
443.2871442085
 20
71.0801314078
 30
0.0
 11
443.2871442085
 21
77.3030434078
 31
0.0
  0
ARC
  5
B03
330
2
100
AcDbEntity
  8
0
100
AcDbCircle
 10
440.2871442085
 20
71.0801314078
 30
0.0
 40
3.0
100
AcDbArc
 50
270.0
 51
351.561859
  0
ARC
  5
B04
330
2
100
AcDbEntity
  8
HIDS
100
AcDbCircle
 10
440.2871442085
 20
71.0801314078
 30
0.0
 40
3.0
100
AcDbArc
 50
351.56185
 51
0.0
  0
ARC
  5
B05
330
2
100
AcDbEntity
  8
0
100
AcDbCircle
 10
448.2871442085
 20
73.7282114078
 30
0.0
 40
3.0
100
AcDbArc
 50
271.000313
 51
0.0
  0
ARC
  5
B06
330
2
100
AcDbEntity
  8
HIDS
100
AcDbCircle
 10
414.2871402085
 20
113.0801294078
 30
0.0
 40
45.0
100
AcDbArc
 50
311.810314
 51
325.307869
  0
ARC
  5
B07
330
2
100
AcDbEntity
  8
HIDS
100
AcDbCircle
 10
446.2871442085
 20
148.8572214078
 30
0.0
 40
3.0
100
AcDbArc
 50
180.0
 51
228.189682
  0
ARC
  5
B08
330
2
100
AcDbEntity
  8
HIDS
100
AcDbCircle
 10
441.2871442085
 20
155.6102274078
 30
0.0
 40
2.0
100
AcDbArc
 50
0.0
 51
89.000191
  0
LINE
  5
B09
330
2
100
AcDbEntity
  8
HIDS
100
AcDbLine
 10
443.2871442085
 20
155.6102434078
 30
0.0
 11
443.2871442085
 21
148.8572214078
 31
0.0
  0
LINE
  5
B0A
330
2
100
AcDbEntity
  8
HIDS
100
AcDbLine
 10
441.3220412085
 20
157.6099304078
 30
0.0
 11
414.2871402085
 21
158.0818234078
 31
0.0
  0
ARC
  5
B0B
330
2
100
AcDbEntity
  8
0
100
AcDbCircle
 10
436.0371442085
 20
176.5196284078
 30
0.0
 40
1.0
100
AcDbArc
 50
30.772787
 51
73.041847
  0
ARC
  5
B0E
330
2
100
AcDbEntity
  8
0
100
AcDbCircle
 10
434.2871442085
 20
170.7803324078
 30
0.0
 40
7.0
100
AcDbArc
 50
73.041977
 51
106.956497
  0
ARC
  5
B0F
330
2
100
AcDbEntity
  8
0
100
AcDbCircle
 10
432.5371442085
 20
176.5196284078
 30
0.0
 40
1.0
100
AcDbArc
 50
106.956902
 51
143.012054
  0
ARC
  5
B10
330
2
100
AcDbEntity
  8
0
100
AcDbCircle
 10
430.2871442085
 20
177.5668774078
 30
0.0
 40
0.5
100
AcDbArc
 50
0.0
 51
86.323196
  0
LINE
  5
B11
330
2
100
AcDbEntity
  8
0
100
AcDbLine
 10
430.7871442085
 20
177.5668774078
 30
0.0
 11
430.7871442085
 21
177.1378764078
 31
0.0
  0
ARC
  5
B13
330
2
100
AcDbEntity
  8
0
100
AcDbCircle
 10
436.7871442085
 20
177.0638334078
 30
0.0
 40
0.5
100
AcDbArc
 50
0.0
 51
84.826019
  0
LINE
  5
B14
330
2
100
AcDbEntity
  8
HIDS
100
AcDbLine
 10
437.2871442085
 20
177.0244462365
 30
0.0
 11
437.2871442085
 21
157.6786634078
 31
0.0
  0
LINE
  5
B16
330
2
100
AcDbEntity
  8
0
100
AcDbLine
 10
456.2871442085
 20
161.2801194078
 30
0.0
 11
456.2871442085
 21
116.2801234078
 31
0.0
  0
ARC
  5
B17
330
2
100
AcDbEntity
  8
0
100
AcDbCircle
 10
464.2871442085
 20
138.7801344078
 30
0.0
 40
3.0
100
AcDbArc
 50
90.0
 51
270.0
  0
LINE
  5
B18
330
2
100
AcDbEntity
  8
0
100
AcDbLine
 10
456.2871442085
 20
148.7801344078
 30
0.0
 11
458.2871442085
 21
148.7801344078
 31
0.0
  0
LINE
  5
B19
330
2
100
AcDbEntity
  8
0
100
AcDbLine
 10
453.2871442085
 20
115.2801264078
 30
0.0
 11
455.2871442085
 21
115.2801264078
 31
0.0
  0
ARC
  5
B1A
330
2
100
AcDbEntity
  8
0
100
AcDbCircle
 10
455.2871442085
 20
116.2801264078
 30
0.0
 40
1.0
100
AcDbArc
 50
270.0
 51
0.0
  0
LINE
  5
B1B
330
2
100
AcDbEntity
  8
0
100
AcDbLine
 10
456.2871442085
 20
128.7801344078
 30
0.0
 11
458.2871442085
 21
128.7801344078
 31
0.0
  0
ARC
  5
B1C
330
2
100
AcDbEntity
  8
HIDS
100
AcDbCircle
 10
414.2871402085
 20
113.0801294078
 30
0.0
 40
45.0
100
AcDbArc
 50
20.419371
 51
48.189686
  0
LINE
  5
B1D
330
2
100
AcDbEntity
  8
0
100
AcDbLine
 10
458.2871442085
 20
148.7801344078
 30
0.0
 11
458.2871442085
 21
128.7801344078
 31
0.0
  0
LINE
  5
B1E
330
2
100
AcDbEntity
  8
0
100
AcDbLine
 10
464.2871442085
 20
141.7801344078
 30
0.0
 11
464.2871442085
 21
135.7801344078
 31
0.0
  0
ARC
  5
B1F
330
2
100
AcDbEntity
  8
0
100
AcDbCircle
 10
453.2871442085
 20
164.2801344078
 30
0.0
 40
2.0
100
AcDbArc
 50
180.0
 51
270.0
  0
ARC
  5
B20
330
2
100
AcDbEntity
  8
0
100
AcDbCircle
 10
448.2871442085
 20
173.8320144078
 30
0.0
 40
3.0
100
AcDbArc
 50
0.0
 51
89.000359
  0
ARC
  5
B21
330
2
100
AcDbEntity
  8
0
100
AcDbCircle
 10
455.2871442085
 20
161.2801194078
 30
0.0
 40
1.0
100
AcDbArc
 50
0.0
 51
90.0
  0
LINE
  5
B22
330
2
100
AcDbEntity
  8
0
100
AcDbLine
 10
453.2871442085
 20
162.2801344078
 30
0.0
 11
455.2871442085
 21
162.2801344078
 31
0.0
  0
LINE
  5
B23
330
2
100
AcDbEntity
  8
0
100
AcDbLine
 10
271.3738258014
 20
386.8109925389
 30
0.0
 11
271.3738258014
 21
362.8109925389
 31
0.0
  0
LINE
  5
B24
330
2
100
AcDbEntity
  8
0
100
AcDbLine
 10
268.3588268014
 20
386.8109925389
 30
0.0
 11
268.3588268014
 21
362.8109925389
 31
0.0
  0
LINE
  5
B25
330
2
100
AcDbEntity
  8
0
100
AcDbLine
 10
250.8738108014
 20
356.8109925389
 30
0.0
 11
250.8738108014
 21
386.8109925389
 31
0.0
  0
LINE
  5
B26
330
2
100
AcDbEntity
  8
CENTER
100
AcDbLine
 10
259.8738108014
 20
393.8109925389
 30
0.0
 11
259.8738108014
 21
257.8109765389
 31
0.0
  0
LINE
  5
B27
330
2
100
AcDbEntity
  8
0
100
AcDbLine
 10
276.8738258014
 20
344.8109925389
 30
0.0
 11
276.8738258014
 21
276.8109765389
 31
0.0
  0
LINE
  5
B28
330
2
100
AcDbEntity
  8
0
100
AcDbLine
 10
242.8738108014
 20
344.8109925389
 30
0.0
 11
242.8738108014
 21
276.8109765389
 31
0.0
  0
LINE
  5
B29
330
2
100
AcDbEntity
  8
0
100
AcDbLine
 10
216.2163708014
 20
339.8109925389
 30
0.0
 11
216.2163708014
 21
276.3459805389
 31
0.0
  0
LINE
  5
B2A
330
2
100
AcDbEntity
  8
0
100
AcDbLine
 10
242.7318738014
 20
276.0709865389
 30
0.0
 11
277.0157638014
 21
276.0709865389
 31
0.0
  0
LINE
  5
B2B
330
2
100
AcDbEntity
  8
HIDS
100
AcDbLine
 10
224.1238108014
 20
274.8109765389
 30
0.0
 11
224.1238108014
 21
264.8109765389
 31
0.0
  0
LINE
  5
B2C
330
2
100
AcDbEntity
  8
HIDS
100
AcDbLine
 10
215.6238108014
 20
274.8109765389
 30
0.0
 11
215.6238108014
 21
264.8109765389
 31
0.0
  0
LINE
  5
B2D
330
2
100
AcDbEntity
  8
CENTER
100
AcDbLine
 10
219.8738108014
 20
261.3109765389
 30
0.0
 11
219.8738108014
 21
278.3109765389
 31
0.0
  0
ARC
  5
B2E
330
2
100
AcDbEntity
  8
0
100
AcDbCircle
 10
240.8738108014
 20
276.8109765389
 30
0.0
 40
2.0
100
AcDbArc
 50
270.0
 51
0.0
  0
ARC
  5
B2F
330
2
100
AcDbEntity
  8
0
100
AcDbCircle
 10
278.8738258014
 20
276.8109765389
 30
0.0
 40
2.0
100
AcDbArc
 50
180.0
 51
270.0
  0
LINE
  5
B30
330
2
100
AcDbEntity
  8
0
100
AcDbLine
 10
249.8738108014
 20
356.8109925389
 30
0.0
 11
269.8738258014
 21
356.8109925389
 31
0.0
  0
LINE
  5
B31
330
2
100
AcDbEntity
  8
0
100
AcDbLine
 10
282.3738258014
 20
354.8109925389
 30
0.0
 11
237.3738108014
 21
354.8109925389
 31
0.0
  0
LINE
  5
B32
330
2
100
AcDbEntity
  8
0
100
AcDbLine
 10
236.3738108014
 20
353.8109925389
 30
0.0
 11
236.3738108014
 21
351.8109925389
 31
0.0
  0
ARC
  5
B33
330
2
100
AcDbEntity
  8
0
100
AcDbCircle
 10
237.3738418014
 20
353.8109925389
 30
0.0
 40
1.0
100
AcDbArc
 50
90.0
 51
180.0
  0
LINE
  5
B34
330
2
100
AcDbEntity
  8
0
100
AcDbLine
 10
249.8738108014
 20
354.8109925389
 30
0.0
 11
249.8738108014
 21
356.8109925389
 31
0.0
  0
ARC
  5
B35
330
2
100
AcDbEntity
  8
0
100
AcDbCircle
 10
234.3738108014
 20
351.8109925389
 30
0.0
 40
2.0
100
AcDbArc
 50
270.0
 51
0.0
  0
LINE
  5
B36
330
2
100
AcDbEntity
  8
0
100
AcDbLine
 10
268.8738258014
 20
356.8109925389
 30
0.0
 11
268.8738258014
 21
362.8109925389
 31
0.0
  0
LINE
  5
B37
330
2
100
AcDbEntity
  8
0
100
AcDbLine
 10
271.3738258014
 20
362.8109925389
 30
0.0
 11
268.3588268014
 21
362.8109925389
 31
0.0
  0
LINE
  5
B38
330
2
100
AcDbEntity
  8
0
100
AcDbLine
 10
283.3738258014
 20
353.8109925389
 30
0.0
 11
283.3738258014
 21
351.8109925389
 31
0.0
  0
ARC
  5
B39
330
2
100
AcDbEntity
  8
0
100
AcDbCircle
 10
282.3738258014
 20
353.8109925389
 30
0.0
 40
1.0
100
AcDbArc
 50
0.0
 51
90.0
  0
LINE
  5
B3A
330
2
100
AcDbEntity
  8
0
100
AcDbLine
 10
269.8738258014
 20
354.8109925389
 30
0.0
 11
269.8738258014
 21
356.8109925389
 31
0.0
  0
ARC
  5
B3B
330
2
100
AcDbEntity
  8
0
100
AcDbCircle
 10
285.3738108014
 20
351.8109925389
 30
0.0
 40
2.0
100
AcDbArc
 50
180.0
 51
270.0
  0
LINE
  5
B3C
330
2
100
AcDbEntity
  8
0
100
AcDbLine
 10
308.1990218014
 20
347.8633455389
 30
0.0
 11
310.3738258014
 21
264.8109765389
 31
0.0
  0
LINE
  5
B3D
330
2
100
AcDbEntity
  8
HIDS
100
AcDbLine
 10
295.6238258014
 20
274.8109765389
 30
0.0
 11
295.6238258014
 21
264.8109765389
 31
0.0
  0
LINE
  5
B3E
330
2
100
AcDbEntity
  8
CENTER
100
AcDbLine
 10
299.8738258014
 20
261.3109765389
 30
0.0
 11
299.8738258014
 21
278.3109765389
 31
0.0
  0
ARC
  5
B3F
330
2
100
AcDbEntity
  8
0
100
AcDbCircle
 10
308.1636518014
 20
272.8109765389
 30
0.0
 40
2.0
100
AcDbArc
 50
1.5
 51
90.0
  0
LINE
  5
B40
330
2
100
AcDbEntity
  8
HIDS
100
AcDbLine
 10
304.1238258014
 20
274.8109765389
 30
0.0
 11
304.1238258014
 21
264.8109765389
 31
0.0
  0
ARC
  5
B41
330
2
100
AcDbEntity
  8
0
100
AcDbCircle
 10
306.1997078014
 20
347.8109925389
 30
0.0
 40
2.0
100
AcDbArc
 50
1.5
 51
90.0
  0
LINE
  5
B42
330
2
100
AcDbEntity
  8
0
100
AcDbLine
 10
271.3738258014
 20
386.8109925389
 30
0.0
 11
250.8738108014
 21
386.8109925389
 31
0.0
  0
TEXT
  5
B43
330
2
100
AcDbEntity
  8
TITLE
100
AcDbText
 10
368.3392163775
 20
322.432247016
 30
0.0
 40
5.0
  1
HFV-18L-160~240-T40
100
AcDbText
  0
TEXT
  5
B44
330
2
100
AcDbEntity
  8
TITLE
100
AcDbText
 10
368.3392163775
 20
298.432247016
 30
0.0
 40
5.0
  1
HFV-18L-10~240-S40
100
AcDbText
  0
TEXT
  5
B45
330
2
100
AcDbEntity
  8
TITLE
100
AcDbText
 10
368.3392163775
 20
306.432247016
 30
0.0
 40
5.0
  1
HFV-18L-10~240-T90
100
AcDbText
  0
TEXT
  5
B46
330
2
100
AcDbEntity
  8
TITLE
100
AcDbText
 10
368.3392163775
 20
314.432247016
 30
0.0
 40
5.0
  1
HFV-18L-10~240-T60
100
AcDbText
  0
LINE
  5
B47
330
2
100
AcDbEntity
  8
CENTER
100
AcDbLine
 10
767.0342297205
 20
113.0801294078
 30
0.0
 11
610.4391258731
 21
113.0801294078
 31
0.0
  0
LINE
  5
B4C
330
2
100
AcDbEntity
  8
0
100
AcDbLine
 10
619.0342498731
 20
182.7801344078
 30
0.0
 11
539.0342348731
 21
182.7801344078
 31
0.0
  0
LINE
  5
B4D
330
2
100
AcDbEntity
  8
0
100
AcDbLine
 10
619.0342498731
 20
64.7801314078
 30
0.0
 11
539.0342348731
 21
64.7801314078
 31
0.0
  0
LINE
  5
B4E
330
2
100
AcDbEntity
  8
CENTER
100
AcDbLine
 10
612.0342498731
 20
73.7801344078
 30
0.0
 11
626.0342498731
 21
73.7801344078
 31
0.0
  0
ARC
  5
B4F
330
2
100
AcDbEntity
  8
0
100
AcDbCircle
 10
615.1471338731
 20
78.0801414078
 30
0.0
 40
5.0
100
AcDbArc
 50
90.0
 51
125.049698
  0
LINE
  5
B50
330
2
100
AcDbEntity
  8
0
100
AcDbLine
 10
597.3268518731
 20
175.8734194078
 30
0.0
 11
627.4056488731
 21
154.7733214078
 31
0.0
  0
LINE
  5
B51
330
2
100
AcDbEntity
  8
CENTER
100
AcDbLine
 10
612.0342498731
 20
173.7801344078
 30
0.0
 11
626.0342498731
 21
173.7801344078
 31
0.0
  0
LINE
  5
B52
330
2
100
AcDbEntity
  8
CENTER
100
AcDbLine
 10
532.0342498731
 20
73.7801344078
 30
0.0
 11
546.0342498731
 21
73.7801344078
 31
0.0
  0
CIRCLE
  5
B53
330
2
100
AcDbEntity
  8
0
100
AcDbCircle
 10
539.0342348731
 20
73.7801314078
 30
0.0
 40
4.25
  0
LINE
  5
B54
330
2
100
AcDbEntity
  8
0
100
AcDbLine
 10
560.7416468731
 20
71.6868514078
 30
0.0
 11
528.5342348731
 21
94.2801304078
 31
0.0
  0
LINE
  5
B55
330
2
100
AcDbEntity
  8
CENTER
100
AcDbLine
 10
532.0342498731
 20
173.7801344078
 30
0.0
 11
546.0342498731
 21
173.7801344078
 31
0.0
  0
CIRCLE
  5
B56
330
2
100
AcDbEntity
  8
0
100
AcDbCircle
 10
539.0342348731
 20
173.7801344078
 30
0.0
 40
4.25
  0
LINE
  5
B57
330
2
100
AcDbEntity
  8
0
100
AcDbLine
 10
560.7417388731
 20
175.8734114078
 30
0.0
 11
528.5342348731
 21
153.2801344078
 31
0.0
  0
LINE
  5
B58
330
2
100
AcDbEntity
  8
0
100
AcDbLine
 10
528.5342348731
 20
94.2801304078
 30
0.0
 11
528.5342348731
 21
153.2801344078
 31
0.0
  0
LINE
  5
B59
330
2
100
AcDbEntity
  8
CENTER
100
AcDbLine
 10
539.0342498731
 20
66.7801344078
 30
0.0
 11
539.0342498731
 21
80.7801344078
 31
0.0
  0
ARC
  5
B5A
330
2
100
AcDbEntity
  8
0
100
AcDbCircle
 10
539.0342348731
 20
73.7801314078
 30
0.0
 40
9.0
100
AcDbArc
 50
184.120102
 51
270.0
  0
LINE
  5
B5B
330
2
100
AcDbEntity
  8
0
100
AcDbLine
 10
530.0575348731
 20
73.1335714078
 30
0.0
 11
528.5342348731
 21
94.2801304078
 31
0.0
  0
LINE
  5
B5D
330
2
100
AcDbEntity
  8
0
100
AcDbLine
 10
488.2871442085
 20
129.7801344078
 30
0.0
 11
488.2871442085
 21
147.7801344078
 31
0.0
  0
LINE
  5
B5E
330
2
100
AcDbEntity
  8
0
100
AcDbLine
 10
530.0575348731
 20
174.4267634078
 30
0.0
 11
528.5342348731
 21
153.2801344078
 31
0.0
  0
LINE
  5
B5F
330
2
100
AcDbEntity
  8
CENTER
100
AcDbLine
 10
539.0342498731
 20
166.7801344078
 30
0.0
 11
539.0342498731
 21
180.7801344078
 31
0.0
  0
ARC
  5
B60
330
2
100
AcDbEntity
  8
0
100
AcDbCircle
 10
539.0342348731
 20
173.7801344078
 30
0.0
 40
9.0
100
AcDbArc
 50
90.0
 51
175.879898
  0
LINE
  5
B61
330
2
100
AcDbEntity
  8
CENTER
100
AcDbLine
 10
579.0342498731
 20
189.7801344078
 30
0.0
 11
579.0342498731
 21
57.7801314078
 31
0.0
  0
LINE
  5
B64
330
2
100
AcDbEntity
  8
0
100
AcDbLine
 10
594.4553308731
 20
70.7801314078
 30
0.0
 11
563.6131378731
 21
70.7801314078
 31
0.0
  0
ARC
  5
B65
330
2
100
AcDbEntity
  8
0
100
AcDbCircle
 10
563.6131378731
 20
75.7801304078
 30
0.0
 40
5.0
100
AcDbArc
 50
234.9505
 51
270.0
  0
ARC
  5
B87
330
2
100
AcDbEntity
  8
0
100
AcDbCircle
 10
594.4553308731
 20
75.7801304078
 30
0.0
 40
5.0
100
AcDbArc
 50
270.0
 51
305.049591
  0
LINE
  5
BAA
330
2
100
AcDbEntity
  8
0
100
AcDbLine
 10
597.3268518731
 20
71.6868414078
 30
0.0
 11
612.2757348731
 21
82.1734014078
 31
0.0
  0
LINE
  5
BAB
330
2
100
AcDbEntity
  8
CENTER
100
AcDbLine
 10
609.5342498731
 20
138.7801344078
 30
0.0
 11
548.5342498731
 21
138.7801344078
 31
0.0
  0
ARC
  5
BAC
330
2
100
AcDbEntity
  8
0
100
AcDbCircle
 10
579.0342498731
 20
138.7801344078
 30
0.0
 40
9.0
100
AcDbArc
 50
199.471207
 51
160.528793
  0
LINE
  5
BAD
330
2
100
AcDbEntity
  8
0
100
AcDbLine
 10
563.6131378731
 20
176.7801344078
 30
0.0
 11
594.4553308731
 21
176.7801344078
 31
0.0
  0
CIRCLE
  5
BAE
330
2
100
AcDbEntity
  8
0
100
AcDbCircle
 10
579.0342498731
 20
138.7801344078
 30
0.0
 40
23.5
  0
LINE
  5
BAF
330
2
100
AcDbEntity
  8
0
100
AcDbLine
 10
567.5342348731
 20
141.7801344078
 30
0.0
 11
573.5342498731
 21
141.7801344078
 31
0.0
  0
LINE
  5
BB0
330
2
100
AcDbEntity
  8
0
100
AcDbLine
 10
567.5342348731
 20
135.7801344078
 30
0.0
 11
573.5342498731
 21
135.7801344078
 31
0.0
  0
LINE
  5
BB1
330
2
100
AcDbEntity
  8
0
100
AcDbLine
 10
573.5342498731
 20
141.7801344078
 30
0.0
 11
573.5342498731
 21
135.7801344078
 31
0.0
  0
LINE
  5
BB2
330
2
100
AcDbEntity
  8
0
100
AcDbLine
 10
567.5342348731
 20
141.7801344078
 30
0.0
 11
567.5342348731
 21
135.7801344078
 31
0.0
  0
ARC
  5
BB3
330
2
100
AcDbEntity
  8
0
100
AcDbCircle
 10
563.6131378731
 20
171.7801344078
 30
0.0
 40
5.0
100
AcDbArc
 50
90.0
 51
125.0495
  0
ARC
  5
BB4
330
2
100
AcDbEntity
  8
0
100
AcDbCircle
 10
594.4554528731
 20
171.7801344078
 30
0.0
 40
5.0
100
AcDbArc
 50
54.95071
 51
90.0
  0
LINE
  5
BB5
330
2
100
AcDbEntity
  8
0
100
AcDbLine
 10
702.0342498731
 20
158.0801294078
 30
0.0
 11
622.6916288731
 21
158.0801294078
 31
0.0
  0
LINE
  5
BB6
330
2
100
AcDbEntity
  8
0
100
AcDbLine
 10
702.0342498731
 20
147.4894314078
 30
0.0
 11
631.5342498731
 21
147.4894314078
 31
0.0
  0
LINE
  5
BB7
330
2
100
AcDbEntity
  8
0
100
AcDbLine
 10
631.5342498731
 20
68.0801314078
 30
0.0
 11
702.0342498731
 21
68.0801314078
 31
0.0
  0
LINE
  5
BB8
330
2
100
AcDbEntity
  8
0
100
AcDbLine
 10
702.0342498731
 20
78.6708204078
 30
0.0
 11
631.0342498731
 21
78.6708204078
 31
0.0
  0
LINE
  5
BB9
330
2
100
AcDbEntity
  8
0
100
AcDbLine
 10
629.5342498731
 20
150.6800214078
 30
0.0
 11
629.5342498731
 21
78.0801624078
 31
0.0
  0
ARC
  5
BBA
330
2
100
AcDbEntity
  8
0
100
AcDbCircle
 10
619.0342498731
 20
73.7801314078
 30
0.0
 40
9.0
100
AcDbArc
 50
270.0
 51
355.879913
  0
LINE
  5
BBB
330
2
100
AcDbEntity
  8
CENTER
100
AcDbLine
 10
619.0342498731
 20
66.7801344078
 30
0.0
 11
619.0342498731
 21
80.7801344078
 31
0.0
  0
CIRCLE
  5
BBC
330
2
100
AcDbEntity
  8
0
100
AcDbCircle
 10
619.0342498731
 20
73.7801314078
 30
0.0
 40
4.25
  0
LINE
  5
BBD
330
2
100
AcDbEntity
  8
0
100
AcDbLine
 10
629.5342498731
 20
70.0801314078
 30
0.0
 11
629.5342498731
 21
78.0801624078
 31
0.0
  0
ARC
  5
BBE
330
2
100
AcDbEntity
  8
0
100
AcDbCircle
 10
631.5342498731
 20
70.0801314078
 30
0.0
 40
2.0
100
AcDbArc
 50
180.0
 51
270.0
  0
ARC
  5
BBF
330
2
100
AcDbEntity
  8
0
100
AcDbCircle
 10
624.5342498731
 20
78.0801624078
 30
0.0
 40
5.0
100
AcDbArc
 50
0.0
 51
90.0
  0
LINE
  5
BC0
330
2
100
AcDbEntity
  8
0
100
AcDbLine
 10
615.1471338731
 20
83.0801314078
 30
0.0
 11
624.5342498731
 21
83.0801314078
 31
0.0
  0
LINE
  5
BC1
330
2
100
AcDbEntity
  8
0
100
AcDbLine
 10
628.0109338731
 20
73.1335714078
 30
0.0
 11
628.5790498731
 21
81.0194514078
 31
0.0
  0
ARC
  5
BC2
330
2
100
AcDbEntity
  8
0
100
AcDbCircle
 10
624.5342498731
 20
150.6800214078
 30
0.0
 40
5.0
100
AcDbArc
 50
0.0
 51
54.950691
  0
CIRCLE
  5
BC3
330
2
100
AcDbEntity
  8
0
100
AcDbCircle
 10
619.0342498731
 20
173.7801344078
 30
0.0
 40
4.25
  0
LINE
  5
BC4
330
2
100
AcDbEntity
  8
0
100
AcDbLine
 10
628.0109338731
 20
174.4267634078
 30
0.0
 11
629.1884548731
 21
158.0801294078
 31
0.0
  0
LINE
  5
BC5
330
2
100
AcDbEntity
  8
CENTER
100
AcDbLine
 10
619.0342498731
 20
166.7801344078
 30
0.0
 11
619.0342498731
 21
180.7801344078
 31
0.0
  0
ARC
  5
BC6
330
2
100
AcDbEntity
  8
0
100
AcDbCircle
 10
619.0342498731
 20
173.7801344078
 30
0.0
 40
9.0
100
AcDbArc
 50
4.120102
 51
90.0
  0
LINE
  5
BC7
330
2
100
AcDbEntity
  8
0
100
AcDbLine
 10
702.0342498731
 20
68.0801314078
 30
0.0
 11
702.0342498731
 21
158.0801294078
 31
0.0
  0
INSERT
  5
161A
330
2
100
AcDbEntity
  8
0
100
AcDbBlockReference
  2
A$C0e0b3c3a
 10
136.8738108014
 20
312.8109925389
 30
0.0
  0
INSERT
  5
16A0
330
2
100
AcDbEntity
  8
0
100
AcDbBlockReference
  2
A$Ccaa00782
 10
136.8738068014
 20
113.0801334078
 30
0.0
  0
LINE
  5
1728
330
2
100
AcDbEntity
  8
0
100
AcDbLine
 10
733.0342488731
 20
130.4813154078
 30
0.0
 11
760.0342338731
 21
131.1883294078
 31
0.0
  0
LINE
  5
1729
330
2
100
AcDbEntity
  8
0
100
AcDbLine
 10
733.0342488731
 20
136.4289424078
 30
0.0
 11
760.0342338731
 21
135.7219294078
 31
0.0
  0
ARC
  5
172A
330
2
100
AcDbEntity
  8
0
100
AcDbCircle
 10
756.1001828731
 20
79.8315894078
 30
0.0
 40
5.0
100
AcDbArc
 50
271.5
 51
289.780273
  0
ARC
  5
172B
330
2
100
AcDbEntity
  8
0
100
AcDbCircle
 10
756.1001828731
 20
146.6196684078
 30
0.0
 40
5.0
100
AcDbArc
 50
70.219719
 51
88.5
  0
ARC
  5
172C
330
2
100
AcDbEntity
  8
0
100
AcDbCircle
 10
758.0342268731
 20
77.3390284078
 30
0.0
 40
2.0
100
AcDbArc
 50
289.780319
 51
0.0
  0
LINE
  5
172D
330
2
100
AcDbEntity
  8
0
100
AcDbLine
 10
757.7922528731
 20
75.1266034078
 30
0.0
 11
758.7110568731
 21
75.4570364078
 31
0.0
  0
LINE
  5
172E
330
2
100
AcDbEntity
  8
0
100
AcDbLine
 10
760.0342298731
 20
149.1122294078
 30
0.0
 11
760.0342677197
 21
77.3390284078
 31
0.0
  0
ARC
  5
172F
330
2
100
AcDbEntity
  8
0
100
AcDbCircle
 10
758.0342268731
 20
149.1122294078
 30
0.0
 40
2.0
100
AcDbArc
 50
0.0
 51
70.219681
  0
LINE
  5
1730
330
2
100
AcDbEntity
  8
0
100
AcDbLine
 10
757.7922528731
 20
151.3246544078
 30
0.0
 11
758.7110568731
 21
150.9942234078
 31
0.0
  0
LINE
  5
1731
330
2
100
AcDbEntity
  8
0
100
AcDbLine
 10
729.0342488731
 20
151.1062724078
 30
0.0
 11
729.0342488731
 21
68.8301284078
 31
0.0
  0
LINE
  5
1732
330
2
100
AcDbEntity
  8
0
100
AcDbLine
 10
702.0342498731
 20
68.0801284078
 30
0.0
 11
702.0342498731
 21
158.0801284078
 31
0.0
  0
LINE
  5
1733
330
2
100
AcDbEntity
  8
0
100
AcDbLine
 10
727.0345008731
 20
77.5797204078
 30
0.0
 11
716.0342498731
 21
77.5797204078
 31
0.0
  0
LINE
  5
1734
330
2
100
AcDbEntity
  8
0
100
AcDbLine
 10
727.0662658731
 20
68.4777494078
 30
0.0
 11
702.0342498731
 21
68.0801284078
 31
0.0
  0
LINE
  5
1735
330
2
100
AcDbEntity
  8
0
100
AcDbLine
 10
756.2310688731
 20
74.8333024078
 30
0.0
 11
729.0342488731
 21
74.1211294078
 31
0.0
  0
ARC
  5
1736
330
2
100
AcDbEntity
  8
0
100
AcDbCircle
 10
728.7342008731
 20
72.3301474078
 30
0.0
 40
7.0
100
AcDbArc
 50
343.042007
 51
16.031067
  0
LINE
  5
1737
330
2
100
AcDbEntity
  8
0
100
AcDbLine
 10
733.7342008731
 20
69.5801474078
 30
0.0
 11
733.7342008731
 21
74.2180144078
 31
0.0
  0
LINE
  5
1738
330
2
100
AcDbEntity
  8
0
100
AcDbLine
 10
733.0342488731
 20
69.4219524078
 30
0.0
 11
733.0342488731
 21
74.1996884078
 31
0.0
  0
LINE
  5
1739
330
2
100
AcDbEntity
  8
0
100
AcDbLine
 10
732.5473398731
 20
68.9221234078
 30
0.0
 11
729.0342488731
 21
68.8301284078
 31
0.0
  0
ARC
  5
173A
330
2
100
AcDbEntity
  8
0
100
AcDbCircle
 10
732.5342488731
 20
69.4219524078
 30
0.0
 40
0.5
100
AcDbArc
 50
271.5
 51
0.0
  0
ARC
  5
173B
330
2
100
AcDbEntity
  8
0
100
AcDbCircle
 10
734.4734598731
 20
70.5801474078
 30
0.0
 40
1.0
100
AcDbArc
 50
270.0
 51
343.041901
  0
LINE
  5
173C
330
2
100
AcDbEntity
  8
0
100
AcDbLine
 10
733.0342488731
 20
69.5801474078
 30
0.0
 11
734.4734598731
 21
69.5801474078
 31
0.0
  0
LINE
  5
173D
330
2
100
AcDbEntity
  8
0
100
AcDbLine
 10
728.2912338731
 20
68.8034864078
 30
0.0
 11
727.0345008731
 21
68.4693044078
 31
0.0
  0
ARC
  5
173E
330
2
100
AcDbEntity
  8
0
100
AcDbCircle
 10
728.0342488731
 20
69.7699024078
 30
0.0
 40
1.0
100
AcDbArc
 50
284.891251
 51
0.0
  0
LINE
  5
173F
330
2
100
AcDbEntity
  8
0
100
AcDbLine
 10
728.2912338731
 20
77.9139034078
 30
0.0
 11
727.0345008731
 21
77.5797204078
 31
0.0
  0
ARC
  5
1740
330
2
100
AcDbEntity
  8
0
100
AcDbCircle
 10
728.0342488731
 20
78.8803184078
 30
0.0
 40
1.0
100
AcDbArc
 50
284.891251
 51
0.0
  0
LINE
  5
1741
330
2
100
AcDbEntity
  8
0
100
AcDbLine
 10
702.0342498731
 20
78.6708384078
 30
0.0
 11
716.0342498731
 21
78.6708384078
 31
0.0
  0
ARC
  5
1742
330
2
100
AcDbEntity
  8
0
100
AcDbCircle
 10
710.6342198731
 20
73.0797204078
 30
0.0
 40
8.999999
100
AcDbArc
 50
343.398483
 51
16.601013
  0
LINE
  5
1743
330
2
100
AcDbEntity
  8
0
100
AcDbLine
 10
717.0342498731
 20
69.5797204078
 30
0.0
 11
717.0342498731
 21
76.5797204078
 31
0.0
  0
LINE
  5
1744
330
2
100
AcDbEntity
  8
0
100
AcDbLine
 10
716.0342498731
 20
68.8158504078
 30
0.0
 11
716.0342498731
 21
78.6708384078
 31
0.0
  0
ARC
  5
1745
330
2
100
AcDbEntity
  8
0
100
AcDbCircle
 10
715.5342498731
 20
68.8158504078
 30
0.0
 40
0.5
100
AcDbArc
 50
271.0
 51
0.0
  0
ARC
  5
1746
330
2
100
AcDbEntity
  8
0
100
AcDbCircle
 10
718.0132598731
 20
70.8797384078
 30
0.0
 40
1.3
100
AcDbArc
 50
270.0
 51
343.398422
  0
LINE
  5
1747
330
2
100
AcDbEntity
  8
0
100
AcDbLine
 10
716.0342498731
 20
69.5797204078
 30
0.0
 11
718.0132598731
 21
69.5797204078
 31
0.0
  0
ARC
  5
1748
330
2
100
AcDbEntity
  8
0
100
AcDbCircle
 10
718.0132598731
 20
75.2797324078
 30
0.0
 40
1.3
100
AcDbArc
 50
16.600906
 51
90.0
  0
LINE
  5
1749
330
2
100
AcDbEntity
  8
0
100
AcDbLine
 10
716.0342498731
 20
76.5797204078
 30
0.0
 11
718.0132598731
 21
76.5797204078
 31
0.0
  0
LINE
  5
174A
330
2
100
AcDbEntity
  8
0
100
AcDbLine
 10
733.0342488731
 20
125.3436894078
 30
0.0
 11
733.0342488731
 21
137.4551284078
 31
0.0
  0
LINE
  5
174B
330
2
100
AcDbEntity
  8
0
100
AcDbLine
 10
733.0342488731
 20
125.3436894078
 30
0.0
 11
729.0342488731
 21
125.3436894078
 31
0.0
  0
LINE
  5
174C
330
2
100
AcDbEntity
  8
0
100
AcDbLine
 10
727.0345008731
 20
148.5805384078
 30
0.0
 11
716.0342498731
 21
148.5805384078
 31
0.0
  0
LINE
  5
174D
330
2
100
AcDbEntity
  8
0
100
AcDbLine
 10
702.0342498731
 20
158.0801284078
 30
0.0
 11
734.5341808731
 21
158.0801284078
 31
0.0
  0
ARC
  5
174E
330
2
100
AcDbEntity
  8
0
100
AcDbCircle
 10
730.0342488731
 20
151.1062724078
 30
0.0
 40
1.0
100
AcDbArc
 50
91.500015
 51
180.0
  0
ARC
  5
174F
330
2
100
AcDbEntity
  8
0
100
AcDbCircle
 10
732.5341808731
 20
154.1727644078
 30
0.0
 40
2.0
100
AcDbArc
 50
271.5
 51
0.0
  0
LINE
  5
1750
330
2
100
AcDbEntity
  8
0
100
AcDbLine
 10
756.2310688731
 20
151.6179554078
 30
0.0
 11
732.9943798731
 21
152.2264304078
 31
0.0
  0
LINE
  5
1751
330
2
100
AcDbEntity
  8
0
100
AcDbLine
 10
733.0342488731
 20
137.4551284078
 30
0.0
 11
729.0342488731
 21
137.4551284078
 31
0.0
  0
ARC
  5
1752
330
2
100
AcDbEntity
  8
0
100
AcDbCircle
 10
728.7342008731
 20
133.4551294078
 30
0.0
 40
7.0
100
AcDbArc
 50
343.042007
 51
16.956497
  0
LINE
  5
1753
330
2
100
AcDbEntity
  8
0
100
AcDbLine
 10
733.7342008731
 20
130.7051294078
 30
0.0
 11
733.7342008731
 21
136.2051284078
 31
0.0
  0
ARC
  5
1754
330
2
100
AcDbEntity
  8
0
100
AcDbCircle
 10
734.4734598731
 20
131.7051294078
 30
0.0
 40
1.0
100
AcDbArc
 50
270.0
 51
343.041901
  0
LINE
  5
1755
330
2
100
AcDbEntity
  8
0
100
AcDbLine
 10
733.0342488731
 20
130.7051294078
 30
0.0
 11
734.4734598731
 21
130.7051294078
 31
0.0
  0
ARC
  5
1756
330
2
100
AcDbEntity
  8
0
100
AcDbCircle
 10
734.4734598731
 20
135.2051294078
 30
0.0
 40
1.0
100
AcDbArc
 50
16.956894
 51
90.0
  0
LINE
  5
1757
330
2
100
AcDbEntity
  8
0
100
AcDbLine
 10
733.0342488731
 20
136.2051284078
 30
0.0
 11
734.4734598731
 21
136.2051284078
 31
0.0
  0
LINE
  5
1758
330
2
100
AcDbEntity
  8
0
100
AcDbLine
 10
730.0080728731
 20
152.1059314078
 30
0.0
 11
732.5865338731
 21
152.1734474078
 31
0.0
  0
LINE
  5
1759
330
2
100
AcDbEntity
  8
0
100
AcDbLine
 10
728.2912338731
 20
148.2463544078
 30
0.0
 11
727.0345008731
 21
148.5805384078
 31
0.0
  0
ARC
  5
175A
330
2
100
AcDbEntity
  8
0
100
AcDbCircle
 10
728.0342488731
 20
147.2799384078
 30
0.0
 40
1.0
100
AcDbArc
 50
0.0
 51
75.108749
  0
LINE
  5
175B
330
2
100
AcDbEntity
  8
0
100
AcDbLine
 10
734.5339038731
 20
170.0803654078
 30
0.0
 11
734.5342018731
 21
158.0828714078
 31
0.0
  0
LINE
  5
175C
330
2
100
AcDbEntity
  8
0
100
AcDbLine
 10
734.5341808731
 20
154.1727644078
 30
0.0
 11
734.5341808731
 21
158.0801284078
 31
0.0
  0
ARC
  5
175D
330
2
100
AcDbEntity
  8
0
100
AcDbCircle
 10
710.6342198731
 20
153.0805294078
 30
0.0
 40
8.999999
100
AcDbArc
 50
343.398483
 51
16.601013
  0
LINE
  5
175E
330
2
100
AcDbEntity
  8
0
100
AcDbLine
 10
717.0342498731
 20
149.5805294078
 30
0.0
 11
717.0342498731
 21
156.5805294078
 31
0.0
  0
LINE
  5
175F
330
2
100
AcDbEntity
  8
0
100
AcDbLine
 10
716.0342498731
 20
157.5801284078
 30
0.0
 11
716.0342498731
 21
147.5801284078
 31
0.0
  0
LINE
  5
1760
330
2
100
AcDbEntity
  8
0
100
AcDbLine
 10
702.0342498731
 20
147.4894284078
 30
0.0
 11
716.0342498731
 21
147.4894284078
 31
0.0
  0
ARC
  5
1761
330
2
100
AcDbEntity
  8
0
100
AcDbCircle
 10
718.0132598731
 20
150.8805474078
 30
0.0
 40
1.3
100
AcDbArc
 50
270.0
 51
343.398422
  0
LINE
  5
1762
330
2
100
AcDbEntity
  8
0
100
AcDbLine
 10
716.0342498731
 20
149.5805294078
 30
0.0
 11
718.0132598731
 21
149.5805294078
 31
0.0
  0
ARC
  5
1763
330
2
100
AcDbEntity
  8
0
100
AcDbCircle
 10
715.5342498731
 20
157.5801284078
 30
0.0
 40
0.5
100
AcDbArc
 50
0.0
 51
90.0
  0
ARC
  5
1764
330
2
100
AcDbEntity
  8
0
100
AcDbCircle
 10
718.0132598731
 20
155.2805414078
 30
0.0
 40
1.3
100
AcDbArc
 50
16.600906
 51
90.0
  0
LINE
  5
1765
330
2
100
AcDbEntity
  8
0
100
AcDbLine
 10
716.0342498731
 20
156.5805294078
 30
0.0
 11
718.0132598731
 21
156.5805294078
 31
0.0
  0
LINE
  5
1766
330
2
100
AcDbEntity
  8
0
100
AcDbLine
 10
704.5342498731
 20
170.0804304078
 30
0.0
 11
704.5342498731
 21
159.0801284078
 31
0.0
  0
ARC
  5
1767
330
2
100
AcDbEntity
  8
0
100
AcDbCircle
 10
703.5342498731
 20
159.0801284078
 30
0.0
 40
1.0
100
AcDbArc
 50
270.0
 51
0.0
  0
LINE
  5
1768
330
2
100
AcDbEntity
  8
0
100
AcDbLine
 10
747.5700198731
 20
174.7304594078
 30
0.0
 11
736.5342458731
 21
174.7304594078
 31
0.0
  0
LINE
  5
1769
330
2
100
AcDbEntity
  8
0
100
AcDbLine
 10
748.4218188731
 20
167.0304474078
 30
0.0
 11
736.5342458731
 21
167.0304474078
 31
0.0
  0
LINE
  5
176A
330
2
100
AcDbEntity
  8
HOJO
100
AcDbLine
 10
747.4937188731
 20
169.4203394078
 30
0.0
 11
748.4218188731
 21
167.0304474078
 31
0.0
  0
LINE
  5
176B
330
2
100
AcDbEntity
  8
HOJO
100
AcDbLine
 10
748.3058218731
 20
171.8953454078
 30
0.0
 11
747.4937188731
 21
169.4203394078
 31
0.0
  0
LINE
  5
176C
330
2
100
AcDbEntity
  8
HOJO
100
AcDbLine
 10
747.5700198731
 20
174.7304594078
 30
0.0
 11
748.3058218731
 21
171.8953454078
 31
0.0
  0
LINE
  5
176D
330
2
100
AcDbEntity
  8
CENTER
100
AcDbLine
 10
719.5342458731
 20
160.0184234078
 30
0.0
 11
719.5342458731
 21
181.2809354078
 31
0.0
  0
ARC
  5
176E
330
2
100
AcDbEntity
  8
0
100
AcDbCircle
 10
719.5342458731
 20
-71.4195575922
 30
0.0
 40
250.0
100
AcDbArc
 50
86.668304
 51
93.331696
  0
ARC
  5
176F
330
2
100
AcDbEntity
  8
0
100
AcDbCircle
 10
731.5342458731
 20
170.7803554078
 30
0.0
 40
7.0
100
AcDbArc
 50
73.043503
 51
106.958
  0
LINE
  5
1770
330
2
100
AcDbEntity
  8
0
100
AcDbLine
 10
728.7842458731
 20
175.7803554078
 30
0.0
 11
734.2842458731
 21
175.7803554078
 31
0.0
  0
LINE
  5
1771
330
2
100
AcDbEntity
  8
0
100
AcDbLine
 10
728.5342458731
 20
175.0804354078
 30
0.0
 11
734.2842458731
 21
175.0804354078
 31
0.0
  0
ARC
  5
1772
330
2
100
AcDbEntity
  8
0
100
AcDbCircle
 10
734.0342458731
 20
174.5804354078
 30
0.0
 40
0.5
100
AcDbArc
 50
0.0
 51
90.0
  0
ARC
  5
1773
330
2
100
AcDbEntity
  8
0
100
AcDbCircle
 10
733.2842458731
 20
176.5196444078
 30
0.0
 40
1.0
100
AcDbArc
 50
0.0
 51
73.043098
  0
LINE
  5
1774
330
2
100
AcDbEntity
  8
0
100
AcDbLine
 10
734.2842458731
 20
175.0802514078
 30
0.0
 11
734.2842458731
 21
176.5196444078
 31
0.0
  0
ARC
  5
1775
330
2
100
AcDbEntity
  8
0
100
AcDbCircle
 10
734.0342458731
 20
177.6587434078
 30
0.0
 40
0.5
100
AcDbArc
 50
0.0
 51
86.668304
  0
LINE
  5
1776
330
2
100
AcDbEntity
  8
0
100
AcDbLine
 10
734.5344518731
 20
171.0804354078
 30
0.0
 11
734.5344518731
 21
177.6587434078
 31
0.0
  0
ARC
  5
1777
330
2
100
AcDbEntity
  8
0
100
AcDbCircle
 10
727.5342458731
 20
177.9521694078
 30
0.0
 40
0.5
100
AcDbArc
 50
0.0
 51
88.162544
  0
ARC
  5
1778
330
2
100
AcDbEntity
  8
0
100
AcDbCircle
 10
728.5342458731
 20
175.5804354078
 30
0.0
 40
0.5
100
AcDbArc
 50
180.0
 51
270.0
  0
ARC
  5
1779
330
2
100
AcDbEntity
  8
0
100
AcDbCircle
 10
729.7842458731
 20
176.5196444078
 30
0.0
 40
1.0
100
AcDbArc
 50
106.958199
 51
180.0
  0
LINE
  5
177A
330
2
100
AcDbEntity
  8
0
100
AcDbLine
 10
728.7842458731
 20
175.0804354078
 30
0.0
 11
728.7842458731
 21
176.5196444078
 31
0.0
  0
LINE
  5
177B
330
2
100
AcDbEntity
  8
0
100
AcDbLine
 10
728.0342458731
 20
175.5804354078
 30
0.0
 11
728.0342458731
 21
177.9521694078
 31
0.0
  0
ARC
  5
177C
330
2
100
AcDbEntity
  8
0
100
AcDbCircle
 10
707.5342458731
 20
170.7803554078
 30
0.0
 40
7.0
100
AcDbArc
 50
73.042
 51
106.956497
  0
LINE
  5
177D
330
2
100
AcDbEntity
  8
0
100
AcDbLine
 10
710.2842458731
 20
175.7803554078
 30
0.0
 11
704.7842458731
 21
175.7803554078
 31
0.0
  0
LINE
  5
177E
330
2
100
AcDbEntity
  8
0
100
AcDbLine
 10
710.5342458731
 20
175.0804354078
 30
0.0
 11
704.7842458731
 21
175.0804354078
 31
0.0
  0
ARC
  5
177F
330
2
100
AcDbEntity
  8
0
100
AcDbCircle
 10
711.5342458731
 20
177.9521694078
 30
0.0
 40
0.5
100
AcDbArc
 50
91.837456
 51
180.0
  0
ARC
  5
1780
330
2
100
AcDbEntity
  8
0
100
AcDbCircle
 10
710.5342458731
 20
175.5804354078
 30
0.0
 40
0.5
100
AcDbArc
 50
270.0
 51
0.0
  0
ARC
  5
1781
330
2
100
AcDbEntity
  8
0
100
AcDbCircle
 10
709.2842458731
 20
176.5196444078
 30
0.0
 40
1.0
100
AcDbArc
 50
0.0
 51
73.041801
  0
LINE
  5
1782
330
2
100
AcDbEntity
  8
0
100
AcDbLine
 10
710.2842458731
 20
175.0804354078
 30
0.0
 11
710.2842458731
 21
176.5196444078
 31
0.0
  0
LINE
  5
1783
330
2
100
AcDbEntity
  8
0
100
AcDbLine
 10
711.0342458731
 20
175.5804354078
 30
0.0
 11
711.0342458731
 21
177.9521694078
 31
0.0
  0
ARC
  5
1784
330
2
100
AcDbEntity
  8
0
100
AcDbCircle
 10
705.0342458731
 20
174.5804354078
 30
0.0
 40
0.5
100
AcDbArc
 50
90.0
 51
180.0
  0
ARC
  5
1785
330
2
100
AcDbEntity
  8
0
100
AcDbCircle
 10
705.7842458731
 20
176.5196444078
 30
0.0
 40
1.0
100
AcDbArc
 50
106.956902
 51
180.0
  0
LINE
  5
1786
330
2
100
AcDbEntity
  8
0
100
AcDbLine
 10
704.7842458731
 20
175.0802514078
 30
0.0
 11
704.7842458731
 21
176.5196444078
 31
0.0
  0
ARC
  5
1787
330
2
100
AcDbEntity
  8
0
100
AcDbCircle
 10
705.0342458731
 20
177.6587434078
 30
0.0
 40
0.5
100
AcDbArc
 50
93.331696
 51
180.0
  0
LINE
  5
1788
330
2
100
AcDbEntity
  8
0
100
AcDbLine
 10
704.5342458731
 20
171.0804354078
 30
0.0
 11
704.5342458731
 21
177.6587434078
 31
0.0
  0
ARC
  5
1789
330
2
100
AcDbEntity
  8
0
100
AcDbCircle
 10
704.0342458731
 20
163.0804354078
 30
0.0
 40
0.5
100
AcDbArc
 50
0.0
 51
90.0
  0
ARC
  5
178A
330
2
100
AcDbEntity
  8
0
100
AcDbCircle
 10
735.0340761579
 20
163.0804354078
 30
0.0
 40
0.5
100
AcDbArc
 50
90.0
 51
180.0014183664
  0
LINE
  5
178B
330
2
100
AcDbEntity
  8
0
100
AcDbLine
 10
736.5342458731
 20
170.0804354078
 30
0.0
 11
702.5342498731
 21
170.0804354078
 31
0.0
  0
LINE
  5
178C
330
2
100
AcDbEntity
  8
0
100
AcDbLine
 10
736.5342458731
 20
171.0804354078
 30
0.0
 11
734.5344518731
 21
171.0804354078
 31
0.0
  0
LINE
  5
178D
330
2
100
AcDbEntity
  8
0
100
AcDbLine
 10
726.5344518731
 20
171.0804354078
 30
0.0
 11
712.5342458731
 21
171.0804354078
 31
0.0
  0
LINE
  5
178E
330
2
100
AcDbEntity
  8
0
100
AcDbLine
 10
704.5342458731
 20
171.0804354078
 30
0.0
 11
702.5342498731
 21
171.0804354078
 31
0.0
  0
ARC
  5
178F
330
2
100
AcDbEntity
  8
0
100
AcDbCircle
 10
734.9409850071
 20
178.0804354078
 30
0.0
 40
0.5
100
AcDbArc
 50
204.9414566901
 51
270.0
  0
LINE
  5
1790
330
2
100
AcDbEntity
  8
0
100
AcDbLine
 10
736.5342458731
 20
170.0804354078
 30
0.0
 11
736.5342458731
 21
164.0804354078
 31
0.0
  0
ARC
  5
1791
330
2
100
AcDbEntity
  8
0
100
AcDbCircle
 10
736.0342458731
 20
164.0804354078
 30
0.0
 40
0.5
100
AcDbArc
 50
270.0
 51
0.0
  0
LINE
  5
1792
330
2
100
AcDbEntity
  8
0
100
AcDbLine
 10
735.0342458731
 20
163.5804354078
 30
0.0
 11
736.0342458731
 21
163.5804354078
 31
0.0
  0
LINE
  5
1793
330
2
100
AcDbEntity
  8
0
100
AcDbLine
 10
734.9409850071
 20
177.5804354078
 30
0.0
 11
736.0342458731
 21
177.5804354078
 31
0.0
  0
LINE
  5
1794
330
2
100
AcDbEntity
  8
0
100
AcDbLine
 10
736.5342458731
 20
174.8304354078
 30
0.0
 11
736.5342458731
 21
171.0804354078
 31
0.0
  0
LINE
  5
1795
330
2
100
AcDbEntity
  8
0
100
AcDbLine
 10
736.5342458731
 20
177.0804354078
 30
0.0
 11
736.5342458731
 21
174.8304354078
 31
0.0
  0
ARC
  5
1796
330
2
100
AcDbEntity
  8
0
100
AcDbCircle
 10
736.0342458731
 20
177.0804354078
 30
0.0
 40
0.5
100
AcDbArc
 50
0.0
 51
90.0
  0
ARC
  5
1797
330
2
100
AcDbEntity
  8
0
100
AcDbCircle
 10
704.1275067391
 20
178.0804354078
 30
0.0
 40
0.5
100
AcDbArc
 50
270.0
 51
335.0585433099
  0
LINE
  5
1798
330
2
100
AcDbEntity
  8
0
100
AcDbLine
 10
702.5342498731
 20
170.0804354078
 30
0.0
 11
702.5342498731
 21
164.0804354078
 31
0.0
  0
LINE
  5
1799
330
2
100
AcDbEntity
  8
0
100
AcDbLine
 10
704.0342498731
 20
163.5804354078
 30
0.0
 11
703.0342498731
 21
163.5804354078
 31
0.0
  0
ARC
  5
179A
330
2
100
AcDbEntity
  8
0
100
AcDbCircle
 10
703.0342498731
 20
164.0804354078
 30
0.0
 40
0.5
100
AcDbArc
 50
180.0
 51
270.0
  0
LINE
  5
179B
330
2
100
AcDbEntity
  8
0
100
AcDbLine
 10
704.1275067391
 20
177.5804354078
 30
0.0
 11
703.0342498731
 21
177.5804354078
 31
0.0
  0
ARC
  5
179C
330
2
100
AcDbEntity
  8
0
100
AcDbCircle
 10
703.0342498731
 20
177.0804354078
 30
0.0
 40
0.5
100
AcDbArc
 50
90.0
 51
180.0
  0
LINE
  5
179D
330
2
100
AcDbEntity
  8
0
100
AcDbLine
 10
702.5342498731
 20
177.0804354078
 30
0.0
 11
702.5342498731
 21
171.0804354078
 31
0.0
  0
LINE
  5
179E
330
2
100
AcDbEntity
  8
0
100
AcDbLine
 10
734.5344518731
 20
171.0804354078
 30
0.0
 11
734.5344518731
 21
170.0804354078
 31
0.0
  0
LINE
  5
179F
330
2
100
AcDbEntity
  8
0
100
AcDbLine
 10
726.5344518731
 20
171.0804354078
 30
0.0
 11
726.5344518731
 21
170.0804354078
 31
0.0
  0
LINE
  5
17A0
330
2
100
AcDbEntity
  8
0
100
AcDbLine
 10
736.2342458731
 20
171.0804354078
 30
0.0
 11
736.2342458731
 21
170.0804354078
 31
0.0
  0
LINE
  5
17A1
330
2
100
AcDbEntity
  8
0
100
AcDbLine
 10
712.5342458731
 20
171.0804354078
 30
0.0
 11
712.5342458731
 21
170.0804354078
 31
0.0
  0
LINE
  5
17A2
330
2
100
AcDbEntity
  8
0
100
AcDbLine
 10
704.5342458731
 20
171.0804354078
 30
0.0
 11
704.5342458731
 21
170.0804354078
 31
0.0
  0
LINE
  5
17A3
330
2
100
AcDbEntity
  8
0
100
AcDbLine
 10
702.8342498731
 20
171.0804354078
 30
0.0
 11
702.8342498731
 21
170.0804354078
 31
0.0
  0
LINE
  5
17A4
330
2
100
AcDbEntity
  8
0
100
AcDbLine
 10
702.5342498731
 20
171.0804354078
 30
0.0
 11
702.5342498731
 21
170.0804354078
 31
0.0
  0
ENDSEC
  0
SECTION
  2
OBJECTS
  0
DICTIONARY
  5
7
330
0
100
AcDbDictionary
281
     1
  3
ACAD_CIP_PREVIOUS_PRODUCT_INFO
350
1522
  3
ACAD_COLOR
350
1464
  3
ACAD_DETAILVIEWSTYLE
350
151E
  3
ACAD_GROUP
350
75
  3
ACAD_LAYOUT
350
61
  3
ACAD_MATERIAL
350
143A
  3
ACAD_MLEADERSTYLE
350
1489
  3
ACAD_MLINESTYLE
350
76
  3
ACAD_PLOTSETTINGS
350
77
  3
ACAD_PLOTSTYLENAME
350
6
  3
ACAD_SCALELIST
350
1467
  3
ACAD_SECTIONVIEWSTYLE
350
151C
  3
ACAD_TABLESTYLE
350
1465
  3
ACAD_VISUALSTYLE
350
1453
  3
AcadDim
350
480
  3
ACDB_RECOMPOSE_DATA
350
18C8
  3
AcDbVariableDictionary
350
102
  3
DWGPROPS
350
18C9
  0
DICTIONARY
  5
14B8
330
6E
100
AcDbDictionary
280
     1
281
     1
  0
DICTIONARY
  5
1613
330
66
100
AcDbDictionary
280
     1
281
     1
  3
ACAD_LAYERSTATES
360
1614
  0
DICTIONARY
  5
148E
330
5E
100
AcDbDictionary
280
     1
281
     1
  3
ADSK_XREC_LAYER_RECONCILED
360
148F
  0
DICTIONARY
  5
1490
330
3E
100
AcDbDictionary
280
     1
281
     1
  3
ADSK_XREC_LAYER_RECONCILED
360
1491
  0
DICTIONARY
  5
1496
330
2B5
100
AcDbDictionary
280
     1
281
     1
  3
ADSK_XREC_LAYER_RECONCILED
360
1497
  0
DICTIONARY
  5
1498
330
2BA
100
AcDbDictionary
280
     1
281
     1
  3
ADSK_XREC_LAYER_RECONCILED
360
1499
  0
DICTIONARY
  5
149C
330
3FA
100
AcDbDictionary
280
     1
281
     1
  3
ADSK_XREC_LAYER_RECONCILED
360
149D
  0
DICTIONARY
  5
1585
330
1584
100
AcDbDictionary
280
     1
281
     1
  3
ACAD_SORTENTS
360
1586
  0
XRECORD
  5
1522
102
{ACAD_REACTORS
330
7
102
}
330
7
100
AcDbXrecord
280
     1
300
ACD
300
2020
300
87224ACD_2020_0F
  0
DICTIONARY
  5
1464
102
{ACAD_REACTORS
330
7
102
}
330
7
100
AcDbDictionary
281
     1
  0
DICTIONARY
  5
151E
102
{ACAD_REACTORS
330
7
102
}
330
7
100
AcDbDictionary
281
     1
  3
Imperial24
350
151F
  0
DICTIONARY
  5
75
102
{ACAD_REACTORS
330
7
102
}
330
7
100
AcDbDictionary
281
     1
  0
DICTIONARY
  5
61
102
{ACAD_REACTORS
330
7
102
}
330
7
100
AcDbDictionary
281
     1
  3
Model
350
60
  3
レイアウト1
350
18C2
  0
DICTIONARY
  5
143A
102
{ACAD_REACTORS
330
7
102
}
330
7
100
AcDbDictionary
281
     1
  3
ByBlock
350
1443
  3
ByLayer
350
143B
  3
Global
350
144B
  0
DICTIONARY
  5
1489
102
{ACAD_REACTORS
330
7
102
}
330
7
100
AcDbDictionary
281
     1
  3
Standard
350
148A
  0
DICTIONARY
  5
76
102
{ACAD_REACTORS
330
7
102
}
330
7
100
AcDbDictionary
281
     1
  3
STANDARD
350
78
  0
DICTIONARY
  5
77
102
{ACAD_REACTORS
330
7
102
}
330
7
100
AcDbDictionary
281
     1
  0
ACDBDICTIONARYWDFLT
  5
6
102
{ACAD_REACTORS
330
7
102
}
330
7
100
AcDbDictionary
281
     1
  3
Normal
350
5
100
AcDbDictionaryWithDefault
340
5
  0
DICTIONARY
  5
1467
102
{ACAD_REACTORS
330
7
102
}
330
7
100
AcDbDictionary
281
     1
  3
A0
350
1468
  3
A1
350
1469
  3
A2
350
146A
  3
A3
350
146B
  3
A4
350
146C
  3
A5
350
146D
  3
A6
350
146E
  3
A7
350
146F
  3
A8
350
1470
  3
A9
350
1471
  3
B0
350
1472
  3
B1
350
1473
  3
B2
350
1474
  3
B3
350
1475
  3
B4
350
1476
  3
B5
350
1477
  3
B6
350
1478
  3
B7
350
1479
  3
B8
350
147A
  3
B9
350
147B
  3
C0
350
147C
  3
C1
350
147D
  3
C2
350
147E
  3
C3
350
147F
  3
C4
350
1480
  3
C5
350
1481
  3
C6
350
1482
  3
C7
350
1483
  3
C8
350
1484
  3
C9
350
1485
  3
D0
350
1486
  3
D1
350
1487
  3
D2
350
1488
  0
DICTIONARY
  5
151C
102
{ACAD_REACTORS
330
7
102
}
330
7
100
AcDbDictionary
281
     1
  3
Imperial24
350
151D
  0
DICTIONARY
  5
1465
102
{ACAD_REACTORS
330
7
102
}
330
7
100
AcDbDictionary
281
     1
  3
Standard
350
1466
  0
DICTIONARY
  5
1453
102
{ACAD_REACTORS
330
7
102
}
330
7
100
AcDbDictionary
281
     1
  3
2dWireframe
350
1459
  3
3D Hidden
350
145B
  3
3dWireframe
350
145A
  3
Basic
350
1458
  3
Brighten
350
145F
  3
ColorChange
350
1463
  3
Conceptual
350
145C
  3
Dim
350
145E
  3
EdgeColorOff
350
151B
  3
Facepattern
350
1462
  3
Flat
350
1454
  3
FlatWithEdges
350
1455
  3
Gouraud
350
1456
  3
GouraudWithEdges
350
1457
  3
Hidden
350
1513
  3
JitterOff
350
1519
  3
Linepattern
350
1461
  3
OverhangOff
350
151A
  3
Realistic
350
145D
  3
Shaded
350
1518
  3
Shaded with edges
350
1517
  3
Shades of Gray
350
1514
  3
Sketchy
350
1515
  3
Thicken
350
1460
  3
Wireframe
350
1512
  3
X-Ray
350
1516
  0
XRECORD
  5
480
102
{ACAD_REACTORS
330
7
102
}
330
7
100
AcDbXrecord
280
     1
 90
   990106
  3

 60
     0
 61
     0
 62
     1
 63
     3
 64
     1
 65
     0
 66
     0
 67
     3
 68
     1
 69
     0
 70
     0
 71
     0
 72
     0
 40
0.0
170
     2
340
0
  0
XRECORD
  5
18C8
102
{ACAD_REACTORS
330
7
102
}
330
7
100
AcDbXrecord
280
     1
 90
        1
330
1466
  0
DICTIONARY
  5
102
102
{ACAD_REACTORS
330
7
102
}
330
7
100
AcDbDictionary
281
     1
  3
CANNOSCALE
350
14A0
  3
CMLEADERSTYLE
350
149F
  3
CTABLESTYLE
350
149E
  3
CVIEWDETAILSTYLE
350
157E
  3
CVIEWSECTIONSTYLE
350
157F
  3
DIMASSOC
350
103
  3
INDEXCTL
350
14D9
  3
SORTENTS
350
14D8
  3
XCLIPFRAME
350
18C6
  0
XRECORD
  5
18C9
102
{ACAD_REACTORS
330
7
102
}
330
7
100
AcDbXrecord
280
     1
  1
DWGPROPS COOKIE
  2

  3

  4

  6

  7

  8
ykitaga
  9

300
=
301
=
302
=
303
=
304
=
305
=
306
=
307
=
308
=
309
=
 40
0.103239456
 41
2453759.701076389
 42
2460516.499328704
  1

 90
        0
  0
DICTIONARY
  5
1614
102
{ACAD_REACTORS
330
1613
102
}
330
1613
100
AcDbDictionary
281
     1
  0
XRECORD
  5
148F
102
{ACAD_REACTORS
330
148E
102
}
330
148E
100
AcDbXrecord
280
     1
290
     1
  0
XRECORD
  5
1491
102
{ACAD_REACTORS
330
1490
102
}
330
1490
100
AcDbXrecord
280
     1
290
     1
  0
XRECORD
  5
1497
102
{ACAD_REACTORS
330
1496
102
}
330
1496
100
AcDbXrecord
280
     1
290
     1
  0
XRECORD
  5
1499
102
{ACAD_REACTORS
330
1498
102
}
330
1498
100
AcDbXrecord
280
     1
290
     1
  0
XRECORD
  5
149D
102
{ACAD_REACTORS
330
149C
102
}
330
149C
100
AcDbXrecord
280
     1
290
     1
  0
SORTENTSTABLE
  5
1586
102
{ACAD_REACTORS
330
1585
102
}
330
1585
100
AcDbSortentsTable
330
1584
  0
ACDBDETAILVIEWSTYLE
  5
151F
102
{ACAD_XDICTIONARY
360
1915
102
}
102
{ACAD_REACTORS
330
151E
102
}
330
151E
100
AcDbModelDocViewStyle
 70
     0
  3
Imperial24
290
     0
100
AcDbDetailViewStyle
 70
     0
 71
     0
 90
        3
 71
     1
340
16
 40
0.24
340
0
 40
0.24
300

 40
0.36
280
     3
 71
     2
340
8
 90
       25
 71
     3
340
16
 40
0.24
 90
        1
 40
0.75
 90
        1
300
%<\AcVar ViewType \f "%tc1">% %<\AcVar ViewDetailId>%\PSCALE %<\AcVar ViewScale \f "%sn">%
 71
     4
340
8
 90
       25
340
8
 90
       25
280
     0
  0
LAYOUT
  5
60
102
{ACAD_XDICTIONARY
360
1830
102
}
102
{ACAD_REACTORS
330
61
102
}
330
61
100
AcDbPlotSettings
  1

  2
Canon LBP-1420
  4
A4
  6

 40
5.873749733
 41
5.8737478256
 42
5.8737487793
 43
5.8737487793
 44
209.9733276367
 45
296.925994873
 46
0.0
 47
5.37
 48
0.0
 49
0.0
140
0.0
141
0.0
142
1.0
143
0.088099941
 70
 11956
 72
     1
 73
     1
 74
     1
  7
Sekkei.ctb
 75
     0
147
11.3507453947
148
-88.9740150773
149
-101.3630682339
100
AcDbLayout
  1
Model
 70
     1
 71
     0
 10
0.0
 20
0.0
 11
12.0
 21
9.0
 12
0.0
 22
0.0
 32
0.0
 14
0.0
 24
0.0
 34
0.0
 15
0.0
 25
0.0
 35
0.0
146
0.0
 13
0.0
 23
0.0
 33
0.0
 16
1.0
 26
0.0
 36
0.0
 17
0.0
 27
1.0
 37
0.0
 76
     0
330
2
331
1438
  0
LAYOUT
  5
18C2
102
{ACAD_XDICTIONARY
360
1917
102
}
102
{ACAD_REACTORS
330
61
102
}
330
61
100
AcDbPlotSettings
  1

  2
LBP8610
  4

  6

 40
0.0
 41
0.0
 42
0.0
 43
0.0
 44
0.0
 45
0.0
 46
0.0
 47
0.0
 48
0.0
 49
0.0
140
0.0
141
0.0
142
1.0
143
1.0
 70
   688
 72
     0
 73
     0
 74
     5
  7

 75
    16
147
1.0
148
0.0
149
0.0
100
AcDbLayout
  1
レイアウト1
 70
     1
 71
     1
 10
0.0
 20
0.0
 11
12.0
 21
9.0
 12
0.0
 22
0.0
 32
0.0
 14
0.0
 24
0.0
 34
0.0
 15
0.0
 25
0.0
 35
0.0
146
0.0
 13
0.0
 23
0.0
 33
0.0
 16
1.0
 26
0.0
 36
0.0
 17
0.0
 27
1.0
 37
0.0
 76
     0
330
18C1
  0
MATERIAL
  5
1443
102
{ACAD_XDICTIONARY
360
1444
102
}
102
{ACAD_REACTORS
330
143A
102
}
330
143A
100
AcDbMaterial
  1
ByBlock
 72
     0
 43
0.0208333333
 43
0.0
 43
0.0
 43
0.0
 43
0.0
 43
0.0208333333
 43
0.0
 43
0.0
 43
0.0
 43
0.0
 43
1.0
 43
0.0
 43
0.0
 43
0.0
 43
0.0
 43
1.0
 77
     0
 47
0.0208333333
 47
0.0
 47
0.0
 47
0.0
 47
0.0
 47
0.0208333333
 47
0.0
 47
0.0
 47
0.0
 47
0.0
 47
1.0
 47
0.0
 47
0.0
 47
0.0
 47
0.0
 47
1.0
171
     0
 49
0.0208333333
 49
0.0
 49
0.0
 49
0.0
 49
0.0
 49
0.0208333333
 49
0.0
 49
0.0
 49
0.0
 49
0.0
 49
1.0
 49
0.0
 49
0.0
 49
0.0
 49
0.0
 49
1.0
175
     0
142
0.0208333333
142
0.0
142
0.0
142
0.0
142
0.0
142
0.0208333333
142
0.0
142
0.0
142
0.0
142
0.0
142
1.0
142
0.0
142
0.0
142
0.0
142
0.0
142
1.0
179
     0
144
0.0208333333
144
0.0
144
0.0
144
0.0
144
0.0
144
0.0208333333
144
0.0
144
0.0
144
0.0
144
0.0
144
1.0
144
0.0
144
0.0
144
0.0
144
0.0
144
1.0
147
0.0208333333
147
0.0
147
0.0
147
0.0
147
0.0
147
0.0208333333
147
0.0
147
0.0
147
0.0
147
0.0
147
1.0
147
0.0
147
0.0
147
0.0
147
0.0
147
1.0
  0
MATERIAL
  5
143B
102
{ACAD_XDICTIONARY
360
143C
102
}
102
{ACAD_REACTORS
330
143A
102
}
330
143A
100
AcDbMaterial
  1
ByLayer
 72
     0
 43
0.0208333333
 43
0.0
 43
0.0
 43
0.0
 43
0.0
 43
0.0208333333
 43
0.0
 43
0.0
 43
0.0
 43
0.0
 43
1.0
 43
0.0
 43
0.0
 43
0.0
 43
0.0
 43
1.0
 77
     0
 47
0.0208333333
 47
0.0
 47
0.0
 47
0.0
 47
0.0
 47
0.0208333333
 47
0.0
 47
0.0
 47
0.0
 47
0.0
 47
1.0
 47
0.0
 47
0.0
 47
0.0
 47
0.0
 47
1.0
171
     0
 49
0.0208333333
 49
0.0
 49
0.0
 49
0.0
 49
0.0
 49
0.0208333333
 49
0.0
 49
0.0
 49
0.0
 49
0.0
 49
1.0
 49
0.0
 49
0.0
 49
0.0
 49
0.0
 49
1.0
175
     0
142
0.0208333333
142
0.0
142
0.0
142
0.0
142
0.0
142
0.0208333333
142
0.0
142
0.0
142
0.0
142
0.0
142
1.0
142
0.0
142
0.0
142
0.0
142
0.0
142
1.0
179
     0
144
0.0208333333
144
0.0
144
0.0
144
0.0
144
0.0
144
0.0208333333
144
0.0
144
0.0
144
0.0
144
0.0
144
1.0
144
0.0
144
0.0
144
0.0
144
0.0
144
1.0
147
0.0208333333
147
0.0
147
0.0
147
0.0
147
0.0
147
0.0208333333
147
0.0
147
0.0
147
0.0
147
0.0
147
1.0
147
0.0
147
0.0
147
0.0
147
0.0
147
1.0
  0
MATERIAL
  5
144B
102
{ACAD_XDICTIONARY
360
144C
102
}
102
{ACAD_REACTORS
330
143A
102
}
330
143A
100
AcDbMaterial
  1
Global
 72
     0
 43
0.0208333333
 43
0.0
 43
0.0
 43
0.0
 43
0.0
 43
0.0208333333
 43
0.0
 43
0.0
 43
0.0
 43
0.0
 43
1.0
 43
0.0
 43
0.0
 43
0.0
 43
0.0
 43
1.0
 77
     0
 47
0.0208333333
 47
0.0
 47
0.0
 47
0.0
 47
0.0
 47
0.0208333333
 47
0.0
 47
0.0
 47
0.0
 47
0.0
 47
1.0
 47
0.0
 47
0.0
 47
0.0
 47
0.0
 47
1.0
171
     0
 49
0.0208333333
 49
0.0
 49
0.0
 49
0.0
 49
0.0
 49
0.0208333333
 49
0.0
 49
0.0
 49
0.0
 49
0.0
 49
1.0
 49
0.0
 49
0.0
 49
0.0
 49
0.0
 49
1.0
175
     0
142
0.0208333333
142
0.0
142
0.0
142
0.0
142
0.0
142
0.0208333333
142
0.0
142
0.0
142
0.0
142
0.0
142
1.0
142
0.0
142
0.0
142
0.0
142
0.0
142
1.0
179
     0
144
0.0208333333
144
0.0
144
0.0
144
0.0
144
0.0
144
0.0208333333
144
0.0
144
0.0
144
0.0
144
0.0
144
1.0
144
0.0
144
0.0
144
0.0
144
0.0
144
1.0
147
0.0208333333
147
0.0
147
0.0
147
0.0
147
0.0
147
0.0208333333
147
0.0
147
0.0
147
0.0
147
0.0
147
1.0
147
0.0
147
0.0
147
0.0
147
0.0
147
1.0
  0
MLEADERSTYLE
  5
148A
102
{ACAD_REACTORS
330
1489
102
}
330
1489
100
AcDbMLeaderStyle
170
     2
171
     1
172
     0
 90
        2
 40
0.0
 41
0.0
173
     1
 91
-1056964608
340
6A
 92
       -2
290
     1
 42
0.09
291
     1
 43
0.36
  3
Standard
 44
0.18
300

342
16
174
     1
178
     6
175
     1
176
     0
 93
-1056964608
 45
0.18
292
     0
297
     0
 46
0.18
 94
-1056964608
 47
1.0
 49
1.0
140
1.0
293
     1
141
0.0
294
     1
177
     0
142
1.0
295
     0
296
     0
143
0.125
1001
ACAD_MLEADERVER
1070
     2
  0
MLINESTYLE
  5
78
102
{ACAD_REACTORS
330
76
102
}
330
76
100
AcDbMlineStyle
  2
STANDARD
 70
     0
  3

 62
     0
 51
90.0
 52
90.0
 71
     2
 49
0.5
 62
   256
  6
BYLAYER
 49
-0.5
 62
   256
  6
BYLAYER
  0
ACDBPLACEHOLDER
  5
5
102
{ACAD_REACTORS
330
6
102
}
330
6
  0
SCALE
  5
1468
102
{ACAD_REACTORS
330
1467
102
}
330
1467
100
AcDbScale
 70
     0
300
1:1
140
1.0
141
1.0
290
     1
  0
SCALE
  5
1469
102
{ACAD_REACTORS
330
1467
102
}
330
1467
100
AcDbScale
 70
     0
300
1:2
140
1.0
141
2.0
290
     0
  0
SCALE
  5
146A
102
{ACAD_REACTORS
330
1467
102
}
330
1467
100
AcDbScale
 70
     0
300
1:4
140
1.0
141
4.0
290
     0
  0
SCALE
  5
146B
102
{ACAD_REACTORS
330
1467
102
}
330
1467
100
AcDbScale
 70
     0
300
1:5
140
1.0
141
5.0
290
     0
  0
SCALE
  5
146C
102
{ACAD_REACTORS
330
1467
102
}
330
1467
100
AcDbScale
 70
     0
300
1:8
140
1.0
141
8.0
290
     0
  0
SCALE
  5
146D
102
{ACAD_REACTORS
330
1467
102
}
330
1467
100
AcDbScale
 70
     0
300
1:10
140
1.0
141
10.0
290
     0
  0
SCALE
  5
146E
102
{ACAD_REACTORS
330
1467
102
}
330
1467
100
AcDbScale
 70
     0
300
1:16
140
1.0
141
16.0
290
     0
  0
SCALE
  5
146F
102
{ACAD_REACTORS
330
1467
102
}
330
1467
100
AcDbScale
 70
     0
300
1:20
140
1.0
141
20.0
290
     0
  0
SCALE
  5
1470
102
{ACAD_REACTORS
330
1467
102
}
330
1467
100
AcDbScale
 70
     0
300
1:30
140
1.0
141
30.0
290
     0
  0
SCALE
  5
1471
102
{ACAD_REACTORS
330
1467
102
}
330
1467
100
AcDbScale
 70
     0
300
1:40
140
1.0
141
40.0
290
     0
  0
SCALE
  5
1472
102
{ACAD_REACTORS
330
1467
102
}
330
1467
100
AcDbScale
 70
     0
300
1:50
140
1.0
141
50.0
290
     0
  0
SCALE
  5
1473
102
{ACAD_REACTORS
330
1467
102
}
330
1467
100
AcDbScale
 70
     0
300
1:100
140
1.0
141
100.0
290
     0
  0
SCALE
  5
1474
102
{ACAD_REACTORS
330
1467
102
}
330
1467
100
AcDbScale
 70
     0
300
2:1
140
2.0
141
1.0
290
     0
  0
SCALE
  5
1475
102
{ACAD_REACTORS
330
1467
102
}
330
1467
100
AcDbScale
 70
     0
300
4:1
140
4.0
141
1.0
290
     0
  0
SCALE
  5
1476
102
{ACAD_REACTORS
330
1467
102
}
330
1467
100
AcDbScale
 70
     0
300
8:1
140
8.0
141
1.0
290
     0
  0
SCALE
  5
1477
102
{ACAD_REACTORS
330
1467
102
}
330
1467
100
AcDbScale
 70
     0
300
10:1
140
10.0
141
1.0
290
     0
  0
SCALE
  5
1478
102
{ACAD_REACTORS
330
1467
102
}
330
1467
100
AcDbScale
 70
     0
300
100:1
140
100.0
141
1.0
290
     0
  0
SCALE
  5
1479
102
{ACAD_REACTORS
330
1467
102
}
330
1467
100
AcDbScale
 70
     0
300
1/128" = 1'-0"
140
0.0078125
141
12.0
290
     0
  0
SCALE
  5
147A
102
{ACAD_REACTORS
330
1467
102
}
330
1467
100
AcDbScale
 70
     0
300
1/64" = 1'-0"
140
0.015625
141
12.0
290
     0
  0
SCALE
  5
147B
102
{ACAD_REACTORS
330
1467
102
}
330
1467
100
AcDbScale
 70
     0
300
1/32" = 1'-0"
140
0.03125
141
12.0
290
     0
  0
SCALE
  5
147C
102
{ACAD_REACTORS
330
1467
102
}
330
1467
100
AcDbScale
 70
     0
300
1/16" = 1'-0"
140
0.0625
141
12.0
290
     0
  0
SCALE
  5
147D
102
{ACAD_REACTORS
330
1467
102
}
330
1467
100
AcDbScale
 70
     0
300
3/32" = 1'-0"
140
0.09375
141
12.0
290
     0
  0
SCALE
  5
147E
102
{ACAD_REACTORS
330
1467
102
}
330
1467
100
AcDbScale
 70
     0
300
1/8" = 1'-0"
140
0.125
141
12.0
290
     0
  0
SCALE
  5
147F
102
{ACAD_REACTORS
330
1467
102
}
330
1467
100
AcDbScale
 70
     0
300
3/16" = 1'-0"
140
0.1875
141
12.0
290
     0
  0
SCALE
  5
1480
102
{ACAD_REACTORS
330
1467
102
}
330
1467
100
AcDbScale
 70
     0
300
1/4" = 1'-0"
140
0.25
141
12.0
290
     0
  0
SCALE
  5
1481
102
{ACAD_REACTORS
330
1467
102
}
330
1467
100
AcDbScale
 70
     0
300
3/8" = 1'-0"
140
0.375
141
12.0
290
     0
  0
SCALE
  5
1482
102
{ACAD_REACTORS
330
1467
102
}
330
1467
100
AcDbScale
 70
     0
300
1/2" = 1'-0"
140
0.5
141
12.0
290
     0
  0
SCALE
  5
1483
102
{ACAD_REACTORS
330
1467
102
}
330
1467
100
AcDbScale
 70
     0
300
3/4" = 1'-0"
140
0.75
141
12.0
290
     0
  0
SCALE
  5
1484
102
{ACAD_REACTORS
330
1467
102
}
330
1467
100
AcDbScale
 70
     0
300
1" = 1'-0"
140
1.0
141
12.0
290
     0
  0
SCALE
  5
1485
102
{ACAD_REACTORS
330
1467
102
}
330
1467
100
AcDbScale
 70
     0
300
1-1/2" = 1'-0"
140
1.5
141
12.0
290
     0
  0
SCALE
  5
1486
102
{ACAD_REACTORS
330
1467
102
}
330
1467
100
AcDbScale
 70
     0
300
3" = 1'-0"
140
3.0
141
12.0
290
     0
  0
SCALE
  5
1487
102
{ACAD_REACTORS
330
1467
102
}
330
1467
100
AcDbScale
 70
     0
300
6" = 1'-0"
140
6.0
141
12.0
290
     0
  0
SCALE
  5
1488
102
{ACAD_REACTORS
330
1467
102
}
330
1467
100
AcDbScale
 70
     0
300
1'-0" = 1'-0"
140
12.0
141
12.0
290
     0
  0
ACDBSECTIONVIEWSTYLE
  5
151D
102
{ACAD_XDICTIONARY
360
1913
102
}
102
{ACAD_REACTORS
330
151C
102
}
330
151C
100
AcDbModelDocViewStyle
 70
     0
  3
Imperial24
290
     0
100
AcDbSectionViewStyle
 70
     0
 71
     0
 90
       78
 71
     1
340
16
 40
0.24
340
0
340
0
 40
0.24
300
I, O, Q, S, X, Z
 40
0.48
 90
        3
 40
0.18
 90
        1
 71
     2
340
8
 90
       25
340
8
 90
       50
 40
0.24
 40
0.0
 40
0.24
 71
     3
340
16
 40
0.24
 90
        1
 40
0.75
 90
        1
300
%<\AcVar ViewType \f "%tc1">% %<\AcVar ViewSectionStartId>%-%<\AcVar ViewSectionEndId>%\PSCALE %<\AcVar ViewScale \f "%sn">%
 71
     4
300
ANSI31
 40
1.0
 90
        0
290
     0
290
     0
 90
        6
 40
0.0
 40
1.5707963268
 40
0.2617993878
 40
1.308996939
 40
-0.2617993878
 40
1.8325957146
  0
TABLESTYLE
  5
1466
102
{ACAD_XDICTIONARY
360
14A1
102
}
102
{ACAD_REACTORS
330
1465
102
}
330
1465
100
AcDbTableStyle
  3
Standard
 70
     0
 71
     0
 40
0.06
 41
0.06
280
     0
281
     0
  7
STANDARD
140
0.18
170
     2
 62
     0
 63
     7
283
     0
274
    -2
284
     1
 64
     0
275
    -2
285
     1
 65
     0
276
    -2
286
     1
 66
     0
277
    -2
287
     1
 67
     0
278
    -2
288
     1
 68
     0
279
    -2
289
     1
 69
     0
  7
STANDARD
140
0.25
170
     5
 62
     0
 63
     7
283
     0
274
    -2
284
     1
 64
     0
275
    -2
285
     1
 65
     0
276
    -2
286
     1
 66
     0
277
    -2
287
     1
 67
     0
278
    -2
288
     1
 68
     0
279
    -2
289
     1
 69
     0
  7
STANDARD
140
0.18
170
     5
 62
     0
 63
     7
283
     0
274
    -2
284
     1
 64
     0
275
    -2
285
     1
 65
     0
276
    -2
286
     1
 66
     0
277
    -2
287
     1
 67
     0
278
    -2
288
     1
 68
     0
279
    -2
289
     1
 69
     0
  0
VISUALSTYLE
  5
1459
102
{ACAD_XDICTIONARY
360
18E8
102
}
102
{ACAD_REACTORS
330
1453
102
}
330
1453
100
AcDbVisualStyle
  2
2dWireframe
 70
     4
 71
     0
 72
     2
 73
     0
 90
        0
 40
-0.6
 41
-30.0
 62
     5
 63
     7
 74
     1
 91
        4
 64
     7
 65
   257
 75
     1
175
     1
 42
1.0
 92
        0
 66
   257
 43
1.0
 76
     1
 77
     6
 78
     2
 67
     7
 79
     5
170
     0
171
     0
290
     0
174
     0
 93
        1
 44
0.0
173
     0
291
     0
 45
0.0
1001
ACAD
1000
AcDbSavedByObjectVersion
1070
     0
  0
VISUALSTYLE
  5
145B
102
{ACAD_XDICTIONARY
360
18EC
102
}
102
{ACAD_REACTORS
330
1453
102
}
330
1453
100
AcDbVisualStyle
  2
3D Hidden
 70
     6
 71
     1
 72
     2
 73
     2
 90
        0
 40
-0.6
 41
-30.0
 62
     5
 63
     7
 74
     2
 91
        2
 64
     7
 65
   257
 75
     2
175
     1
 42
40.0
 92
        0
 66
   257
 43
1.0
 76
     1
 77
     6
 78
     2
 67
     7
 79
     3
170
     0
171
     0
290
     0
174
     0
 93
        1
 44
0.0
173
     0
291
     0
 45
0.0
1001
ACAD
1000
AcDbSavedByObjectVersion
1070
     0
  0
VISUALSTYLE
  5
145A
102
{ACAD_XDICTIONARY
360
18EA
102
}
102
{ACAD_REACTORS
330
1453
102
}
330
1453
100
AcDbVisualStyle
  2
3dWireframe
 70
     5
 71
     0
 72
     2
 73
     0
 90
        0
 40
-0.6
 41
-30.0
 62
     5
 63
     7
 74
     1
 91
        4
 64
     7
 65
   257
 75
     1
175
     1
 42
1.0
 92
        0
 66
   257
 43
1.0
 76
     1
 77
     6
 78
     2
 67
     7
 79
     5
170
     0
171
     0
290
     0
174
     0
 93
        1
 44
0.0
173
     0
291
     0
 45
0.0
1001
ACAD
1000
AcDbSavedByObjectVersion
1070
     0
  0
VISUALSTYLE
  5
1458
102
{ACAD_XDICTIONARY
360
18E6
102
}
102
{ACAD_REACTORS
330
1453
102
}
330
1453
100
AcDbVisualStyle
  2
Basic
 70
     7
 71
     1
 72
     0
 73
     1
 90
        0
 40
-0.6
 41
-30.0
 62
     5
 63
     7
 74
     0
 91
        4
 64
     7
 65
   257
 75
     1
175
     1
 42
1.0
 92
        8
 66
     7
 43
1.0
 76
     1
 77
     6
 78
     2
 67
     7
 79
     5
170
     0
171
     0
290
     0
174
     0
 93
        1
 44
0.0
173
     0
291
     1
 45
0.0
1001
ACAD
1000
AcDbSavedByObjectVersion
1070
     0
  0
VISUALSTYLE
  5
145F
102
{ACAD_XDICTIONARY
360
18F4
102
}
102
{ACAD_REACTORS
330
1453
102
}
330
1453
100
AcDbVisualStyle
  2
Brighten
 70
    12
 71
     2
 72
     2
 73
     0
 90
        0
 40
-0.6
 41
-30.0
 62
     5
 63
     7
 74
     1
 91
        4
 64
     7
 65
   257
 75
     1
175
     1
 42
1.0
 92
        8
 66
     7
 43
1.0
 76
     1
 77
     6
 78
     2
 67
     7
 79
     5
170
     0
171
     0
290
     0
174
     0
 93
        1
 44
50.0
173
     0
291
     1
 45
0.0
1001
ACAD
1000
AcDbSavedByObjectVersion
1070
     0
  0
VISUALSTYLE
  5
1463
102
{ACAD_XDICTIONARY
360
18FC
102
}
102
{ACAD_REACTORS
330
1453
102
}
330
1453
100
AcDbVisualStyle
  2
ColorChange
 70
    16
 71
     2
 72
     2
 73
     3
 90
        0
 40
-0.6
 41
-30.0
 62
     5
 63
     8
 74
     1
 91
        4
 64
     7
 65
   257
 75
     1
175
     1
 42
1.0
 92
        8
 66
     8
 43
1.0
 76
     1
 77
     6
 78
     2
 67
     7
 79
     5
170
     0
171
     0
290
     0
174
     0
 93
        1
 44
0.0
173
     0
291
     1
 45
0.0
1001
ACAD
1000
AcDbSavedByObjectVersion
1070
     0
  0
VISUALSTYLE
  5
145C
102
{ACAD_XDICTIONARY
360
18EE
102
}
102
{ACAD_REACTORS
330
1453
102
}
330
1453
100
AcDbVisualStyle
  2
Conceptual
 70
     9
 71
     3
 72
     2
 73
     0
 90
        0
 40
-0.6
 41
-30.0
 62
     5
 63
     7
 74
     2
 91
        2
 64
     7
 65
   257
 75
     1
175
     1
 42
40.0
 92
        8
 66
     7
 43
1.0
 76
     1
 77
     6
 78
     2
 67
     7
 79
     3
170
     0
171
     0
290
     0
174
     0
 93
        1
 44
0.0
173
     0
291
     0
 45
0.0
1001
ACAD
1000
AcDbSavedByObjectVersion
1070
     0
  0
VISUALSTYLE
  5
145E
102
{ACAD_XDICTIONARY
360
18F2
102
}
102
{ACAD_REACTORS
330
1453
102
}
330
1453
100
AcDbVisualStyle
  2
Dim
 70
    11
 71
     2
 72
     2
 73
     0
 90
        0
 40
-0.6
 41
-30.0
 62
     5
 63
     7
 74
     1
 91
        4
 64
     7
 65
   257
 75
     1
175
     1
 42
1.0
 92
        8
 66
     7
 43
1.0
 76
     1
 77
     6
 78
     2
 67
     7
 79
     5
170
     0
171
     0
290
     0
174
     0
 93
        1
 44
-50.0
173
     0
291
     1
 45
0.0
1001
ACAD
1000
AcDbSavedByObjectVersion
1070
     0
  0
VISUALSTYLE
  5
151B
102
{ACAD_XDICTIONARY
360
1911
102
}
102
{ACAD_REACTORS
330
1453
102
}
330
1453
100
AcDbVisualStyle
  2
EdgeColorOff
 70
    22
 71
     2
 72
     2
 73
     0
 90
        0
 40
-0.6
 41
-30.0
 62
     5
 63
     7
 74
     1
 91
        4
 64
     7
 65
   257
 75
     1
175
     1
 42
1.0
 92
        8
 66
     7
 43
1.0
 76
     1
 77
     6
 78
     2
 67
     7
 79
     5
170
     0
171
     0
290
     0
174
     0
 93
        1
 44
0.0
173
     0
291
     1
 45
0.0
1001
ACAD
1000
AcDbSavedByObjectVersion
1070
     0
  0
VISUALSTYLE
  5
1462
102
{ACAD_XDICTIONARY
360
18FA
102
}
102
{ACAD_REACTORS
330
1453
102
}
330
1453
100
AcDbVisualStyle
  2
Facepattern
 70
    15
 71
     2
 72
     2
 73
     0
 90
        0
 40
-0.6
 41
-30.0
 62
     5
 63
     7
 74
     1
 91
        4
 64
     7
 65
   257
 75
     1
175
     1
 42
1.0
 92
        8
 66
     7
 43
1.0
 76
     1
 77
     6
 78
     2
 67
     7
 79
     5
170
     0
171
     0
290
     0
174
     0
 93
        1
 44
0.0
173
     0
291
     1
 45
0.0
1001
ACAD
1000
AcDbSavedByObjectVersion
1070
     0
  0
VISUALSTYLE
  5
1454
102
{ACAD_XDICTIONARY
360
18DE
102
}
102
{ACAD_REACTORS
330
1453
102
}
330
1453
100
AcDbVisualStyle
  2
Flat
 70
     0
 71
     2
 72
     1
 73
     1
 90
        2
 40
-0.6
 41
30.0
 62
     5
 63
     7
 74
     0
 91
        4
 64
     7
 65
   257
 75
     1
175
     1
 42
1.0
 92
        8
 66
     7
 43
1.0
 76
     1
 77
     6
 78
     2
 67
     7
 79
     5
170
     0
171
     0
290
     0
174
     0
 93
       13
 44
0.0
173
     0
291
     1
 45
0.0
1001
ACAD
1000
AcDbSavedByObjectVersion
1070
     0
  0
VISUALSTYLE
  5
1455
102
{ACAD_XDICTIONARY
360
18E0
102
}
102
{ACAD_REACTORS
330
1453
102
}
330
1453
100
AcDbVisualStyle
  2
FlatWithEdges
 70
     1
 71
     2
 72
     1
 73
     1
 90
        2
 40
-0.6
 41
30.0
 62
     5
 63
     7
 74
     1
 91
        4
 64
     7
 65
   257
 75
     1
175
     1
 42
1.0
 92
        0
 66
   257
 43
1.0
 76
     1
 77
     6
 78
     2
 67
     7
 79
     5
170
     0
171
     0
290
     0
174
     0
 93
       13
 44
0.0
173
     0
291
     1
 45
0.0
1001
ACAD
1000
AcDbSavedByObjectVersion
1070
     0
  0
VISUALSTYLE
  5
1456
102
{ACAD_XDICTIONARY
360
18E2
102
}
102
{ACAD_REACTORS
330
1453
102
}
330
1453
100
AcDbVisualStyle
  2
Gouraud
 70
     2
 71
     2
 72
     2
 73
     1
 90
        2
 40
-0.6
 41
30.0
 62
     5
 63
     7
 74
     0
 91
        4
 64
     7
 65
   257
 75
     1
175
     1
 42
1.0
 92
        0
 66
     7
 43
1.0
 76
     1
 77
     6
 78
     2
 67
     7
 79
     5
170
     0
171
     0
290
     0
174
     0
 93
       13
 44
0.0
173
     0
291
     1
 45
0.0
1001
ACAD
1000
AcDbSavedByObjectVersion
1070
     0
  0
VISUALSTYLE
  5
1457
102
{ACAD_XDICTIONARY
360
18E4
102
}
102
{ACAD_REACTORS
330
1453
102
}
330
1453
100
AcDbVisualStyle
  2
GouraudWithEdges
 70
     3
 71
     2
 72
     2
 73
     1
 90
        2
 40
-0.6
 41
30.0
 62
     5
 63
     7
 74
     1
 91
        4
 64
     7
 65
   257
 75
     1
175
     1
 42
1.0
 92
        0
 66
   257
 43
1.0
 76
     1
 77
     6
 78
     2
 67
     7
 79
     5
170
     0
171
     0
290
     0
174
     0
 93
       13
 44
0.0
173
     0
291
     1
 45
0.0
1001
ACAD
1000
AcDbSavedByObjectVersion
1070
     0
  0
VISUALSTYLE
  5
1513
102
{ACAD_XDICTIONARY
360
1901
102
}
102
{ACAD_REACTORS
330
1453
102
}
330
1453
100
AcDbVisualStyle
  2
Hidden
 70
     6
 71
     1
 72
     2
 73
     2
 90
        0
 40
-0.6
 41
-30.0
 62
     5
 63
     7
 74
     2
 91
        2
 64
     7
 65
   257
 75
     2
175
     1
 42
40.0
 92
        0
 66
   257
 43
1.0
 76
     1
 77
     6
 78
     2
 67
     7
 79
     3
170
     0
171
     0
290
     0
174
     0
 93
        1
 44
0.0
173
     0
291
     0
 45
0.0
1001
ACAD
1000
AcDbSavedByObjectVersion
1070
     0
  0
VISUALSTYLE
  5
1519
102
{ACAD_XDICTIONARY
360
190D
102
}
102
{ACAD_REACTORS
330
1453
102
}
330
1453
100
AcDbVisualStyle
  2
JitterOff
 70
    20
 71
     2
 72
     2
 73
     0
 90
        0
 40
-0.6
 41
-30.0
 62
     5
 63
     7
 74
     1
 91
        4
 64
     7
 65
   257
 75
     1
175
     1
 42
1.0
 92
       10
 66
     7
 43
1.0
 76
     1
 77
     6
 78
     2
 67
     7
 79
     5
170
     0
171
     0
290
     0
174
     0
 93
        1
 44
0.0
173
     0
291
     1
 45
0.0
1001
ACAD
1000
AcDbSavedByObjectVersion
1070
     0
  0
VISUALSTYLE
  5
1461
102
{ACAD_XDICTIONARY
360
18F8
102
}
102
{ACAD_REACTORS
330
1453
102
}
330
1453
100
AcDbVisualStyle
  2
Linepattern
 70
    14
 71
     2
 72
     2
 73
     0
 90
        0
 40
-0.6
 41
-30.0
 62
     5
 63
     7
 74
     1
 91
        4
 64
     7
 65
   257
 75
     7
175
     7
 42
1.0
 92
        8
 66
     7
 43
1.0
 76
     1
 77
     6
 78
     2
 67
     7
 79
     5
170
     0
171
     0
290
     0
174
     0
 93
        1
 44
0.0
173
     0
291
     1
 45
0.0
1001
ACAD
1000
AcDbSavedByObjectVersion
1070
     0
  0
VISUALSTYLE
  5
151A
102
{ACAD_XDICTIONARY
360
190F
102
}
102
{ACAD_REACTORS
330
1453
102
}
330
1453
100
AcDbVisualStyle
  2
OverhangOff
 70
    21
 71
     2
 72
     2
 73
     0
 90
        0
 40
-0.6
 41
-30.0
 62
     5
 63
     7
 74
     1
 91
        4
 64
     7
 65
   257
 75
     1
175
     1
 42
1.0
 92
        9
 66
     7
 43
1.0
 76
     1
 77
     6
 78
     2
 67
     7
 79
     5
170
     0
171
     0
290
     0
174
     0
 93
        1
 44
0.0
173
     0
291
     1
 45
0.0
1001
ACAD
1000
AcDbSavedByObjectVersion
1070
     0
  0
VISUALSTYLE
  5
145D
102
{ACAD_XDICTIONARY
360
18F0
102
}
102
{ACAD_REACTORS
330
1453
102
}
330
1453
100
AcDbVisualStyle
  2
Realistic
 70
     8
 71
     2
 72
     2
 73
     0
 90
        0
 40
-0.6
 41
-30.0
 62
     5
 63
     7
 74
     1
 91
        0
 64
     7
 65
   257
 75
     1
175
     1
 42
1.0
 92
        8
 66
     8
 43
1.0
 76
     1
 77
     6
 78
     2
 67
     7
 79
     5
170
     0
171
     0
290
     0
174
     0
 93
       13
 44
0.0
173
     0
291
     0
 45
0.0
1001
ACAD
1000
AcDbSavedByObjectVersion
1070
     0
  0
VISUALSTYLE
  5
1518
102
{ACAD_XDICTIONARY
360
190B
102
}
102
{ACAD_REACTORS
330
1453
102
}
330
1453
100
AcDbVisualStyle
  2
Shaded
 70
    27
 71
     2
 72
     2
 73
     1
 90
        2
 40
-0.6
 41
30.0
 62
     5
 63
     7
 74
     0
 91
        4
 64
     7
 65
   257
 75
     1
175
     1
 42
1.0
 92
        8
 66
   257
 43
1.0
 76
     1
 77
     6
 78
     2
 67
     8
 79
     3
170
     0
171
     0
290
     0
174
     0
 93
        5
 44
0.0
173
     0
291
     0
 45
0.0
1001
ACAD
1000
AcDbSavedByObjectVersion
1070
     0
  0
VISUALSTYLE
  5
1517
102
{ACAD_XDICTIONARY
360
1909
102
}
102
{ACAD_REACTORS
330
1453
102
}
330
1453
100
AcDbVisualStyle
  2
Shaded with edges
 70
    26
 71
     2
 72
     2
 73
     1
 90
        2
 40
-0.6
 41
30.0
 62
     5
 63
     7
 74
     1
 91
        2
 64
     7
 65
   257
 75
     2
175
     1
 42
1.0
 92
        8
 66
   257
 43
1.0
 76
     1
 77
     6
 78
     2
 67
     7
 79
     3
170
     0
171
     0
290
     0
174
     0
 93
        5
 44
0.0
173
     0
291
     0
 45
0.0
1001
ACAD
1000
AcDbSavedByObjectVersion
1070
     0
  0
VISUALSTYLE
  5
1514
102
{ACAD_XDICTIONARY
360
1903
102
}
102
{ACAD_REACTORS
330
1453
102
}
330
1453
100
AcDbVisualStyle
  2
Shades of Gray
 70
    23
 71
     2
 72
     2
 73
     3
 90
        0
 40
-0.6
 41
-30.0
 62
     5
 63
     7
 74
     2
 91
        2
 64
     7
 65
     7
 75
     1
175
     1
 42
40.0
 92
        8
 66
     7
 43
1.0
 76
     1
 77
     6
 78
     2
 67
     7
 79
     3
170
     0
171
     0
290
     0
174
     0
 93
        1
 44
0.0
173
     0
291
     0
 45
0.0
1001
ACAD
1000
AcDbSavedByObjectVersion
1070
     0
  0
VISUALSTYLE
  5
1515
102
{ACAD_XDICTIONARY
360
1905
102
}
102
{ACAD_REACTORS
330
1453
102
}
330
1453
100
AcDbVisualStyle
  2
Sketchy
 70
    24
 71
     1
 72
     2
 73
     2
 90
        0
 40
-0.6
 41
-30.0
 62
     5
 63
     7
 74
     2
 91
        2
 64
     7
 65
     7
 75
     1
175
     1
 42
40.0
 92
       11
 66
     7
 43
1.0
 76
     1
 77
     6
 78
     2
 67
     7
 79
     6
170
     0
171
     0
290
     0
174
     0
 93
        1
 44
0.0
173
     0
291
     0
 45
0.0
1001
ACAD
1000
AcDbSavedByObjectVersion
1070
     0
  0
VISUALSTYLE
  5
1460
102
{ACAD_XDICTIONARY
360
18F6
102
}
102
{ACAD_REACTORS
330
1453
102
}
330
1453
100
AcDbVisualStyle
  2
Thicken
 70
    13
 71
     2
 72
     2
 73
     0
 90
        0
 40
-0.6
 41
-30.0
 62
     5
 63
     7
 74
     1
 91
        4
 64
     7
 65
   257
 75
     1
175
     1
 42
1.0
 92
       12
 66
     7
 43
1.0
 76
     1
 77
     6
 78
     2
 67
     7
 79
     5
170
     0
171
     0
290
     0
174
     0
 93
        1
 44
0.0
173
     0
291
     1
 45
0.0
1001
ACAD
1000
AcDbSavedByObjectVersion
1070
     0
  0
VISUALSTYLE
  5
1512
102
{ACAD_XDICTIONARY
360
18FF
102
}
102
{ACAD_REACTORS
330
1453
102
}
330
1453
100
AcDbVisualStyle
  2
Wireframe
 70
     5
 71
     0
 72
     2
 73
     0
 90
        0
 40
-0.6
 41
-30.0
 62
     5
 63
     7
 74
     1
 91
        4
 64
     7
 65
   257
 75
     1
175
     1
 42
1.0
 92
        0
 66
   257
 43
1.0
 76
     1
 77
     6
 78
     2
 67
     7
 79
     3
170
     0
171
     0
290
     0
174
     0
 93
        1
 44
0.0
173
     0
291
     0
 45
0.0
1001
ACAD
1000
AcDbSavedByObjectVersion
1070
     0
  0
VISUALSTYLE
  5
1516
102
{ACAD_XDICTIONARY
360
1907
102
}
102
{ACAD_REACTORS
330
1453
102
}
330
1453
100
AcDbVisualStyle
  2
X-Ray
 70
    25
 71
     2
 72
     2
 73
     1
 90
        1
 40
0.5
 41
-30.0
 62
     5
 63
     7
 74
     1
 91
        0
 64
     7
 65
   257
 75
     1
175
     1
 42
1.0
 92
        8
 66
     7
 43
1.0
 76
     1
 77
     6
 78
     2
 67
     7
 79
     3
170
     0
171
     0
290
     0
174
     0
 93
       13
 44
0.0
173
     0
291
     0
 45
0.0
1001
ACAD
1000
AcDbSavedByObjectVersion
1070
     0
  0
DICTIONARYVAR
  5
14A0
102
{ACAD_REACTORS
330
102
102
}
330
102
100
DictionaryVariables
280
     0
  1
1:1
  0
DICTIONARYVAR
  5
149F
102
{ACAD_REACTORS
330
102
102
}
330
102
100
DictionaryVariables
280
     0
  1
STANDARD
  0
DICTIONARYVAR
  5
149E
102
{ACAD_REACTORS
330
102
102
}
330
102
100
DictionaryVariables
280
     0
  1
STANDARD
  0
DICTIONARYVAR
  5
157E
102
{ACAD_REACTORS
330
102
102
}
330
102
100
DictionaryVariables
280
     0
  1
Imperial24
  0
DICTIONARYVAR
  5
157F
102
{ACAD_REACTORS
330
102
102
}
330
102
100
DictionaryVariables
280
     0
  1
Imperial24
  0
DICTIONARYVAR
  5
103
102
{ACAD_REACTORS
330
102
102
}
330
102
100
DictionaryVariables
280
     0
  1
1
  0
DICTIONARYVAR
  5
14D9
102
{ACAD_REACTORS
330
102
102
}
330
102
100
DictionaryVariables
280
     0
  1
0
  0
DICTIONARYVAR
  5
14D8
102
{ACAD_REACTORS
330
102
102
}
330
102
100
DictionaryVariables
280
     0
  1
127
  0
DICTIONARYVAR
  5
18C6
102
{ACAD_REACTORS
330
102
102
}
330
102
100
DictionaryVariables
280
     0
  1
2
  0
DICTIONARY
  5
1915
330
151F
100
AcDbDictionary
280
     1
281
     1
  3
ACAD_XREC_ROUNDTRIP
360
1916
  0
DICTIONARY
  5
1830
330
60
100
AcDbDictionary
280
     1
281
     1
  3
ACAD_XREC_ROUNDTRIP
360
18CA
  3
ADSK_XREC_LAYOUTTHUMBNAIL
360
1832
  0
DICTIONARY
  5
1917
330
18C2
100
AcDbDictionary
280
     1
281
     1
  3
ACAD_XREC_ROUNDTRIP
360
1918
  0
DICTIONARY
  5
1444
330
1443
100
AcDbDictionary
280
     1
281
     1
  3
ACAD_XREC_ROUNDTRIP
360
18DC
  3
BUMPTILE
360
1446
  3
DIFFUSETILE
360
1445
  3
OPACITYTILE
360
1449
  3
REFLECTIONTILE
360
1448
  3
REFRACTIONTILE
360
144A
  3
SPECULARTILE
360
1447
  0
DICTIONARY
  5
143C
330
143B
100
AcDbDictionary
280
     1
281
     1
  3
ACAD_XREC_ROUNDTRIP
360
18DB
  3
BUMPTILE
360
143E
  3
DIFFUSETILE
360
143D
  3
OPACITYTILE
360
1441
  3
REFLECTIONTILE
360
1440
  3
REFRACTIONTILE
360
1442
  3
SPECULARTILE
360
143F
  0
DICTIONARY
  5
144C
330
144B
100
AcDbDictionary
280
     1
281
     1
  3
ACAD_XREC_ROUNDTRIP
360
18DD
  3
BUMPTILE
360
144E
  3
DIFFUSETILE
360
144D
  3
OPACITYTILE
360
1451
  3
REFLECTIONTILE
360
1450
  3
REFRACTIONTILE
360
1452
  3
SPECULARTILE
360
144F
  0
DICTIONARY
  5
1913
330
151D
100
AcDbDictionary
280
     1
281
     1
  3
ACAD_XREC_ROUNDTRIP
360
1914
  0
DICTIONARY
  5
14A1
330
1466
100
AcDbDictionary
280
     1
281
     1
  3
ACAD_ROUNDTRIP_2008_TABLESTYLE_CELLSTYLEMAP
360
18C7
  3
ACAD_XREC_ROUNDTRIP
360
18FE
  0
DICTIONARY
  5
18E8
330
1459
100
AcDbDictionary
280
     1
281
     1
  3
ACAD_XREC_ROUNDTRIP
360
18E9
  0
DICTIONARY
  5
18EC
330
145B
100
AcDbDictionary
280
     1
281
     1
  3
ACAD_XREC_ROUNDTRIP
360
18ED
  0
DICTIONARY
  5
18EA
330
145A
100
AcDbDictionary
280
     1
281
     1
  3
ACAD_XREC_ROUNDTRIP
360
18EB
  0
DICTIONARY
  5
18E6
330
1458
100
AcDbDictionary
280
     1
281
     1
  3
ACAD_XREC_ROUNDTRIP
360
18E7
  0
DICTIONARY
  5
18F4
330
145F
100
AcDbDictionary
280
     1
281
     1
  3
ACAD_XREC_ROUNDTRIP
360
18F5
  0
DICTIONARY
  5
18FC
330
1463
100
AcDbDictionary
280
     1
281
     1
  3
ACAD_XREC_ROUNDTRIP
360
18FD
  0
DICTIONARY
  5
18EE
330
145C
100
AcDbDictionary
280
     1
281
     1
  3
ACAD_XREC_ROUNDTRIP
360
18EF
  0
DICTIONARY
  5
18F2
330
145E
100
AcDbDictionary
280
     1
281
     1
  3
ACAD_XREC_ROUNDTRIP
360
18F3
  0
DICTIONARY
  5
1911
330
151B
100
AcDbDictionary
280
     1
281
     1
  3
ACAD_XREC_ROUNDTRIP
360
1912
  0
DICTIONARY
  5
18FA
330
1462
100
AcDbDictionary
280
     1
281
     1
  3
ACAD_XREC_ROUNDTRIP
360
18FB
  0
DICTIONARY
  5
18DE
330
1454
100
AcDbDictionary
280
     1
281
     1
  3
ACAD_XREC_ROUNDTRIP
360
18DF
  0
DICTIONARY
  5
18E0
330
1455
100
AcDbDictionary
280
     1
281
     1
  3
ACAD_XREC_ROUNDTRIP
360
18E1
  0
DICTIONARY
  5
18E2
330
1456
100
AcDbDictionary
280
     1
281
     1
  3
ACAD_XREC_ROUNDTRIP
360
18E3
  0
DICTIONARY
  5
18E4
330
1457
100
AcDbDictionary
280
     1
281
     1
  3
ACAD_XREC_ROUNDTRIP
360
18E5
  0
DICTIONARY
  5
1901
330
1513
100
AcDbDictionary
280
     1
281
     1
  3
ACAD_XREC_ROUNDTRIP
360
1902
  0
DICTIONARY
  5
190D
330
1519
100
AcDbDictionary
280
     1
281
     1
  3
ACAD_XREC_ROUNDTRIP
360
190E
  0
DICTIONARY
  5
18F8
330
1461
100
AcDbDictionary
280
     1
281
     1
  3
ACAD_XREC_ROUNDTRIP
360
18F9
  0
DICTIONARY
  5
190F
330
151A
100
AcDbDictionary
280
     1
281
     1
  3
ACAD_XREC_ROUNDTRIP
360
1910
  0
DICTIONARY
  5
18F0
330
145D
100
AcDbDictionary
280
     1
281
     1
  3
ACAD_XREC_ROUNDTRIP
360
18F1
  0
DICTIONARY
  5
190B
330
1518
100
AcDbDictionary
280
     1
281
     1
  3
ACAD_XREC_ROUNDTRIP
360
190C
  0
DICTIONARY
  5
1909
330
1517
100
AcDbDictionary
280
     1
281
     1
  3
ACAD_XREC_ROUNDTRIP
360
190A
  0
DICTIONARY
  5
1903
330
1514
100
AcDbDictionary
280
     1
281
     1
  3
ACAD_XREC_ROUNDTRIP
360
1904
  0
DICTIONARY
  5
1905
330
1515
100
AcDbDictionary
280
     1
281
     1
  3
ACAD_XREC_ROUNDTRIP
360
1906
  0
DICTIONARY
  5
18F6
330
1460
100
AcDbDictionary
280
     1
281
     1
  3
ACAD_XREC_ROUNDTRIP
360
18F7
  0
DICTIONARY
  5
18FF
330
1512
100
AcDbDictionary
280
     1
281
     1
  3
ACAD_XREC_ROUNDTRIP
360
1900
  0
DICTIONARY
  5
1907
330
1516
100
AcDbDictionary
280
     1
281
     1
  3
ACAD_XREC_ROUNDTRIP
360
1908
  0
XRECORD
  5
1916
102
{ACAD_REACTORS
330
1915
102
}
330
1915
100
AcDbXrecord
280
     1
102
DISPLAYNAME
  1
Imperial24
102
FLAGS
 90
        0
  0
XRECORD
  5
18CA
102
{ACAD_REACTORS
330
1830
102
}
330
1830
100
AcDbXrecord
280
     1
102
SHADEPLOT
 70
     0
102
SHADEPLOTRESLEVEL
 70
     2
102
SHADEPLOTCUSTOMDPI
 70
   300
  0
XRECORD
  5
1832
102
{ACAD_REACTORS
330
1830
102
}
330
1830
100
AcDbXrecord
280
     1
310
28000000000100006F0000000100080000000000006F00000100000001000000000100000000000030282100FFFFFF00302821000000000000000000000000000000000000000000000000000000000000000000330000006600000099000000CC000000FF00000000330000333300006633000099330000CC330000FF3300
310
0000660000336600006666000099660000CC660000FF66000000990000339900006699000099990000CC990000FF99000000CC000033CC000066CC000099CC0000CCCC0000FFCC000000FF000033FF000066FF000099FF0000CCFF0000FFFF000000003300330033006600330099003300CC003300FF003300003333003333
310
33006633330099333300CC333300FF33330000663300336633006666330099663300CC663300FF66330000993300339933006699330099993300CC993300FF99330000CC330033CC330066CC330099CC3300CCCC3300FFCC330000FF330033FF330066FF330099FF3300CCFF3300FFFF330000006600330066006600660099
310
006600CC006600FF00660000336600333366006633660099336600CC336600FF33660000666600336666006666660099666600CC666600FF66660000996600339966006699660099996600CC996600FF99660000CC660033CC660066CC660099CC6600CCCC6600FFCC660000FF660033FF660066FF660099FF6600CCFF66CC
310
FFFF668000009900330099006600990099009900CC009900FF00990000339900333399006633990099339900CC339900FF33990000669900336699006666990099669900CC669900FF66990000999900339999006699990099999900CC999900FF99990000CC990033CC990066CC990099CC9900CCCC9900FFCC990000FF99
310
0033FF990066FF990099FF9900CCFF9900FFFF99000000CC003300CC006600CC009900CC00CC00CC00FF00CC000033CC003333CC006633CC009933CC00CC33CC00FF33CC000066CC003366CC006666CC009966CC00CC66CC00FF66CC000099CC003399CC006699CC009999CC00CC99CC00FF99CC0000CCCC0033CCCC0066CC
310
CC0099CCCC00CCCCCC00FFCCCC0000FFCC0033FFCC0066FFCC0099FFCC00CCFFCC00FFFFCC000000FF003300FF006600FF009900FF00CC00FF00FF00FF000033FF003333FF006633FF009933FF00CC33FF00FF33FF000066FF003366FF006666FF009966FF00CC66FF00FF66FF000099FF003399FF006699FF009999FF00CC
310
99FF00FF99FF0000CCFF0033CCFF0066CCFF0099CCFF00CCCCFF00FFCCFF0000FFFF0033FFFF0066FFFF0099FFFF00CCFFFF00FFFFFF00000000000D0D0D001A1A1A00282828003535350043434300505050005D5D5D006B6B6B00787878008686860093939300A1A1A100AEAEAE00BBBBBB00C9C9C900D6D6D600E4E4E400
310
F1F1F100FFFFFF0000000000000000000000000000000000000000000000000000000000000000000000000000000000000000000000000000000000000000000000000000000000000000000000000000000000000000000000000000000000000000000000000000000000000000000000000000002D0000000000000000
310
000000000000000000000000000000000000000000002D0000000000000000000000000000000000000000000000000000000000000000000000000000000000000000000000000000000000000000000000000000000000000000000000000000000000000000000000000000000000000000000000000000000000000000
310
0000000000000000000000000000000000000000000000000000000000000000000000000000000000000000000000000000000000000000000000000000000000000000000000000000000000000000000000000000000000000000000000000000000000000000000000000000000000000000000000002D2D2D2D2D2D2D
310
2D2D2D2D2D2D2D2D2D2D2D2D2D2D2D2D2D2D2D2D2D2D2D2D2D000000000000000000000000000000000000000000000000000000000000000000000000000000000000000000000000000000000000000000000000000000000000000000000000000000000000000000000000000000000000000000000000000000000000
310
00000000000000000000000000000000000000000000000000000000000000000000000000000000000000000000000000000000000000000000000000000000000000000000000000000000000000000000000000000000000000000000000000000000000000000000000000000000000000000000000000002D00000000
310
0000000000000000002D2D2D00000000000000000000000000002D00000000000000000000000000000000000000000000000000000000000000000000000000000000000000000000000000000000000000000000000000000000000000000000000000000000000000000000000000000000000000000000000000000000
310
000000000000000000000000000000000000000000000000000000000000000000000000000000000000000000000000000000000000000000000000000000000000000000000000000000000000000000000000000000000000000000000000000000000000000000000000000000000000000000000000000000002D0000
310
000000000000000000000000000000000000000000000000000000002D0000000000000000000000000000000000000000000000000000000000000000000000000000000000000000000000000000000000000000000000000000000000000000000000000000000000000000000000000000000000000000000000000000
310
0000000000000000000000000000000000000000000000000000000000000000000000000000000000000000000000000000000000000000000000000000000000000000000000000000000000000000000000000000000000000000000000000000000000000000000000000000000000000000000000000000000000002D
310
00002D2D0000000000000000000000000000000000000000002D2D0000002D00002D2D2D2D2D2D2D2D0000000000000000000000000000000000000000000000000000000000000000000000000000000000000000000000000000000000000000000000000000000000000000000000000000000000000000000000000000
310
00000000000000000000000000000000000000000000000000000000000000000000000000000000000000000000000000000000000000000000000000000000000000000000000000000000000000000000000000000000000000000000000000000000000000000000000000000000000000000000000000000000000000
310
002D00002D2D2D2D2D2D2D2D2D2D2D2D2D2D2D2D2D2D2D2D2D2D2D2D2D0000002D002D002D2D2D2D2D2D00000000002D2D2D2D2D2D2D2D000000000000000000000000000000000000000000000000000000000000000000000000000000000000000000000000000000000000000000000000000000000000000000000000
310
00000000000000000000000000000000000000000000000000000000000000000000000000000000000000000000000000000000000000000000000000000000000000000000000000000000000000000000000000000000000000000000000000000000000000000000000000000000000000000000000000000000000000
310
0000002D00002D000000000000000000002D2D2D000000000000000000002D0000002D002D002D00002D2D2D000000000000002D2D2D2D000000000000000000000000000000000000000000000000000000000000000000000000000000000000000000000000000000000000000000000000000000000000000000000000
310
00000000000000000000000000000000000000000000000000000000000000000000000000000000000000000000000000000000000000000000000000000000000000000000000000000000000000000000000000000000000000000000000000000000000000000000000000000000000000000000000000000000000000
310
00000000002D00002D00000000000000000000000000000000000000000000002D0000002D2D0000000000000000000000000000002D2D2D2D00000000000000000000000000000000000000000000000000000000000000000000000000000000000000000000000000000000000000000000000000000000000000000000
310
00000000000000000000000000000000000000000000000000000000000000000000000000000000000000000000000000000000000000000000000000000000000000000000000000000000000000000000000000000000000000000000000000000000000000000000000000000000000000000000000000000000000000
310
000000000000002D00002D00000000000000000000002800000000000000000000002D0000002D000000000000000000000000000000002D00002D0000000000000000000000000000000000000000000000000000000000000000000000000000000000000000000000000000000000000000000000000028000000000000
310
00000000000000000000000000000000000000000000000000000000000000000000000000000000000000000000000000000000000000000000000000000000000000000000000000000000000000000000000000000000000000000000000000000000000000000000000000000000000000000000000000000000000000
310
0000000000000000002D00002D00000000000000000000002800000000000000000000002D00002D2D000000000000000000000000000000002D00002D000000000000000000002800000000000000000000000000000000000000000000000000000000000000000000000000000000000000000000000000002800000000
310
00000000000000000000000000000000000000000000000000000000000000000000000000000000000000000000000000000000000000000000000000000000000000000000000000000000000000000000000000000000000000000000000000000000000000000000000000000000000000000000000000000000000000
310
00000000000000000000002DF5F528F5F5F5F5F5F5F5F5F5F5F528F5F5F5F5F5F5F5F5F5F5F5F5F5F52D2D2D2D2D2D2D2D2D2D2D000000000000002DF5F5F50000000000000000000028000000000000000000000000000000000000000000000000000000000000000000000000F5F5F5F5F5F5F5F5F5F5F5F5F5F528F5F5
310
F5F5F5F5F5F5F5F5F528F5F50000000000000000000000000000000000000000000000000000000000000000000000000000000000000000000000000000000000000000000000000000000000000000000000000000000000000000000000000000000000000000000000F5F5F5F5F5F5F5F5F5F5F5F5F5F5F5F5F52DF5F5
310
F5F5F5F5F5F5F5F5F5F5F5F5F5F500F528F500F5F5F5F5F5F5F5F5F528F5F5F5F5F5F5F5F5F50000F5F52DF52D000000000000002D2D00000000000000BEBEBEF5F5F5F5F5F5F5F5F5F5F528F5F5F5F5F5F5F5F5BEF5F5000000000000000000000000000000000000000000000000F500F528000000000000000000000028
310
00000000000000000000F5F5F500F5F5F5F5F5F5F5F5F5F5F5F5F5F5F5F5F5F5F5F5F5F5F5F5F5F5F5F5F5F5F5F5F5F500000000000000000000000000000000000000000000000000000000000000000000000000000000000000000000000000000000000000000000000000F5F5F50000F5F5000000F50000000000002D
310
000000000000000000000000000000F528F528F528F500000000F500F5F528F5F5F5F500000000F5F528282828F52D2D2D2D2D2D0000002D00000000000028282828F52800BE00000000000000280000000000000000BE0000F50000000000000000000000000000000000000000000000F5F5F528F528000000F5F5F5F5F5
310
F5F5F5F5F5F5F50000000028F528F528F500000000000000000000000000000000000000000000F5000000F5F50000F5F5F5000000000000000000000000000000000000000000000000000000000000000000000000000000000000000000000000002D00000000F5F5F5F5F5F5F5F5F5F50000F5F5000000F50000000000
310
002D000000000000000000000000000000F500F528F500F5000000F5F5F5000028000000F5F500000000F5F52800F5F52D000000002D0000002D00000000000000F50000F50000BE00000000000000280000000000000000BE0000F50000000000000000000000000000000000000000000000F500F528F50000F5F5000000
310
000000280000000000F5F5000000F528F500F500000000000000000000000000000000000000000000F5000000F5F50000F5F5F5F5F5F5F5F5F5F50000000000000000000000000000000000000000000000000000000000000000000000000000000000000000000000F50000000000000000F5F5F5F5F5F5F5F5F5F5F5F5
310
F5F5F52DF5F5F5F5F5F5F5F5F5F5F5F5F5F5F5F500F528F5F50000F5F50000000000280000000000F5F50000F5F5F5F500F52D000000002D0000002D00000000000000BEBEBEF500BE000000000000000028000000000000000000BE00F50000000000000000000000000000000000000000000000F500F5280000F5000000
310
00000000002800000000000000F5F500F5F5F500F5F5F5F5F5F5F5F5F5F5F5F5F5F5F5F5F5F5F5F5F5F5F5F5F5F5F5F5F5F5F5F50000000000000000F50000000000000000000000000000000000000000000000000000000000000000000000000000000000000000000000F50000000000000000F500000000000000F500
310
00000000002D000000000000000000000000000000F500F5F5F500F5F5000000000000002800000000000000F5F500F5F5F500F52D000000002D0000002D00000000000000F50000F500BE000000000000000028000000000000000000BE00F50000000000000000000000000000000000000000000000F500002800F50000
310
0000000000000028000000000000000000F5F5F5F5F5F500000000000000000000000000000000000000000000F500000000000000F50000000000000000F50000000000000000000000000000000000000000000000000000000000000000000000000000000000000000000000F50000000000000000F500000000000000
310
F50000000000002D000000000000000000000000000000F5F5000000F500000000000000000028000000000000000000F5000000F500F5000000002D0000002D00000000000000F50000F5BE0000000000000000002800000000000000000000BEF500000000000000000000000000000000000000000000F5000000F5F500
310
000000000000000000280000000000000000000000000000F500000000000000000000000000000000000000000000F500000000000000F50000000000000000F50000000000000000000000000000000000000000000000000000000000000000000000000000000000000000000000F50000000000000000F50000000000
310
0000F50000000000002D000000000000000000000000000000F5F50000F5000000000000000000002800000000000000000000F50000F500F5000000002D0000002D00000000000000F50000F500000000000000000000280000000000000000000000BE00000000000000000000000000000000000000000000F50000F500
310
0000000000000000000000280000000000000000000000000000F500000000000000000000000000000000000000000000F500000000000000F50000000000000000F50000000000000000000000000000000000000000000000000000000000000000000000000000000000000000000000F50000000000000000F5000000
310
00000000F50000000000002D000000000000000000000000000000F5F500F50000000000000000000000280000000000000000000000F500F500F5000000002D0000002D00000000000000F500BEF500000000000000000000280000000000000000000000F5F5000000000000000000000000000000000000000000F5F5F5
310
00000000000000000000000000280000000000000000000000000000F500000000000000000000000000000000000000000000F500000000000000F50000000000000000F50000000000000000000000000000000000000000000000000000000000000000000000000000000000002D00000000F50000000000000000F500
310
000000000000F50000000000002D000000000000000000000000000000F5F500F5000000000000000000000028000000000000000000000000F5F500F5000000002D0000002D00000000000000F500BEF5F5F5F5F5F5F5F5F5F5F528F5F5F5F5F5F5F5F5F5F5F5F5F5000000000000000000000000000000000000000000F5
310
000000000000000000000000000000280000000000000000000000000000F500000000000000000000000000000000000000000000F500000000000000F50000000000000000F5000000000000000000000000000000000000000000000000000000000000000000000000000000002D2D2D00000000F50000000000000000
310
F500000000000000F50000000000002D000000000000000000000000000000F5F5F50000000000000000000000002800000000000000000000000000F500F5000000002D0000002D00000000000000F500BEF500000000000000000000280000000000000000000000F500F500000000000000000000000000000000000000
310
00F5000000000000000000000000000000280000000000000000000000000000F500000000000000000000000000000000000000000000F500000000000000F50000000000000000F5000000000000000000000000000000000000000000000000000000000000000000000000000000002D2D2D00000000F5000000000000
310
0000F500000000000000F50000000000002D000000000000000000000000000000F5F5000000000000000000000000002800000000000000000000000000F5F5F50000002D2D0000002D00000000000000F5BE00F500000000000000000000280000000000000000000000F500F50000000000000000000000000000000000
310
000000F5000000000000000000000000000000280000000000000000000000000000F500000000000000000000000000000000000000000000F500000000000000F50000000000000000F5000000000000000000000000000000000000000000000000000000000000000000000000000000002D2D2D00000000F500000000
310
00000000F500000000000000F50000000000002D000000000000000000000000000000F5F500000000000000000000000000280000000000000000000000000000F5F500002D2D2D0000002D00000000000000F5BE00F500000000000000000000280000000000000000000000F500F5000000000000000000000000000000
310
0000000000F5000000000000000000000000000000280000000000000000000000000000F500000000000000000000000000000000000000000000F500000000000000F50000000000000000F5000000000000000000000000000000000000000000000000000000000000000000000000000000002D002D00000000F50000
310
000000000000F500000000000000F50000000000002D000000000000000000000000000000F50000000000000000000000000000280000000000000000000000000000F5F500002D2D2D0000002D00000000000000F5BE00F500000000000000000000280000000000000000000000F500F500000000000000000000000000
310
00000000000000F5000000000000000000000000000000280000000000000000000000000000F500000000000000000000000000000000000000000000F500000000000000F50000000000000000F5000000000000000000000000000000000000000000000000000000000000000000000000002D2D2D2D2D2D2D2D2D28F5
310
2828282828282828F528282828282828F52828282828282D282828282828282828282828282828F52828282D2D2D2D00000000000000280000000000000000000000000000F5F5000000002D0000002D00000000002828F5BE28F528282828282828282828282828282828282828282828F528F52828000000000000000000
310
000000000000000000F5000000000000000000000000000000280000000000000000002828282828F528282828282828282828282828282828282828282828F528282828282828F52828282828282828F528280000000000000000000000000000000000000000000000000000000000000000000000002D0000002D000000
310
00F50000000000000000F500000000000000F50000000000002D000000000000000000000000000000F50000002D2D00000000000000F5F5F5F5F5000000000000000000000000F5F5000000002D0000002D00000000000000F5BE00F500000000000000000000280000000000000000000000F5F5F5000000000000000000
310
0000000000000000000000F500000000000000000000000000F5F5F5F5F5000000000000000000000000F500000000000000000000000000000000000000000000F500000000000000F50000000000000000F500000000000000000000000000000000000000000000000000000000000000000000000000002D0000002D00
310
000000F50000000000000000F500000000000000F500000000002D2D000000000000000000000000000000F5000000002D000000000000F50000280000F5F500000000000000000000F5F5000000002D002D002D00000000000000F5BE00F500000000000000000000280000000000000000000000F5F5F500000000000000
310
00000000000000000000000000F50000000000000000000000F5F50000280000F50000000000000000000000F500000000000000000000000000000000000000000000F500000000000000F50000000000000000F500000000000000000000000000000000000000000000000000000000000000000000000000002D000000
310
2D00000000F50000000000000000F500000000000000F500000000002D2D000000000000000000000000000000F500002D2D2D00000000F5F50000002800000000F5000000000000000000F5F5000000002D002D2D2D00000000000000F5BE00F500000000000000000000280000000000000000000000F5F5F50000000000
310
000000000000000000000000000000F500000000000000000000F50000000028000000F5F5000000000000000000F500000000000000000000000000000000000000000000F500000000000000F50000000000000000F500000000000000000000000000000000000000000000000000000000000000000000000000002D00
310
00002D00000000F500000000000000F5F500000000000000F500000000002D2D000000000000000000000000000000F500002D2D2D00000000F500000000280000000000F50000000000000000F5F5000000002D002D2D2D00000000000000F5BE00F500000000000000000000280000000000000000000000F5F5F5000000
310
0000000000000000000000000000000000F500000000000000000000F500000000280000000000F50000000000000000F500000000000000000000000000000000000000000000F500000000000000F5F500000000000000F50000000000000000000000000000000000000000000000000000000000000000000000000000
310
2D0000002D00000000F500000000000000F5F500000000000000F50000000000002D000000000000000000000000000000F500002D2D2D000000F50000000000BE0000000000F50000000000000000F5F5000000002D002D2D2D00000000000000F500BEF500000000000000000000280000000000000000000000F5BEF5F5
310
F5F5F5F5F5F5F5F52D2D2D2D00000000000000F5000000000000000000F50000000000F50000000000F50000000000000000F500000000000000000000000000000000000000000000F500000000000000F5F500000000000000F5000000000000000000000000000000000000000000000000000000000000000000000000
310
00002D0000002D00000000F5F5F5F5F5F5F5F5F5F500000000000000F50000000000002D000000000000000000000000000000F500002D002D0000F500000000BEBE28BEBE00000000F500000000000000F5F5000000002D0000002D00000000000000F500BEF500000000000000000000280000000000000000000000F5BE
310
F50000000000000000F50000002D00000000000000F50000000000000000F500000000F5F528F5F500000000F500000000000000F500000000000000000000000000000000000000000000F500000000000000F5F5F5F5F5F5F5F5F5F500000000000000000000000000000000000000000000000000000000000000000000
310
000000002D0000002D00000000F5F5F5F5F5F5F5F5F5F500000000000000F50000000000002D000000000000000000000000000000F50000002D2D0000F500000000BE002800BEBEBE0000F500000000000000F5F5000000002D0000002D00000000000000F500BEF500000000000000000000280000000000000000000000
310
BEF5F500F5F5F5F5F5F5F5F50000002D00000000000000F50000000000000000F50000F5F5F5002800F500000000F500000000000000F500000000000000000000000000000000000000000000F500000000000000F5F5F5F5F5F5F5F5F5F50000000000000000000000000000000000000000000000000000000000000000
310
0000000000002D0000002D00000000F500000000000000F5F500000000000000F50000000000002D000000000000000000000000000000F50000002D2D2D28F528282828BE282828BE28BE2828F528282D2D2D2D2DF52D2D2D2D2D2D0000002D00000000002828F52828F52828282828282828282828282828282828282828
310
2828BEF5F5F5F5282828282828F52828002D00000000000000F50000000000002828F52828F528F528282828F5282828F528280000000000F500000000000000000000000000000000000000000000F500000000000000F5F500000000000000F5000000000000000000000000000000000000000000000000000000000000
310
0000000000002D2D2D0000002D00000000F50000000000000000F500000000000000F50000000000002D000000000000000000000000000000F5F5000000000000F5000000BEBE002800BEBEBE0000F500000000000000F5F5000000002D0000002D00000000000000F50000F5BE0000000000000000002800000000000000
310
000000BEF5F5F5F5F5F5F5F5F5F5F5F50000002D00000000000000F50000000000000000F50000F5F5F5002800F500000000F500000000000000F500000000000000000000000000000000000000000000F500000000000000F50000000000000000F500000000000000000000000000000000000000000000000000000000
310
00000000000000002D2D2D0000002D00000000F50000000000000000F500000000000000F50000000000002D000000000000000000000000000000F5F5000000000000F500000000BE002800BE00000000F5000000000000F5F5F5000000002D0000002D00000000000000F50000F500BE0000000000000000280000000000
310
0000000000BEF5F5F5002D000000000000F50000002D00000000000000F50000000000000000F500000000F5002800F500000000F500000000000000F500000000000000000000000000000000000000000000F500000000000000F50000000000000000F50000000000000000000000000000000000000000000000000000
310
000000000000000000002D2D2D00002D2D00000000F50000000000000000F5F5F5F5F5F5F5F5F5F5F5F5F5F5F52DF5F5F5F5F5F5F5F5F5F5F5F5F5F5F5F500F5000000000000F500000000BEBEBE0000000000F5000000000000F5F5F5000000002D0000002D00000000000000F50000F500BEBE0000000000000028000000
310
0000000000BEBE00F5F5F5F52DF5F5F5F5F5F5F52D2D2D2D00000000000000F5000000000000000000F500000000F5F5F50000000000F500000000000000F5F5F5F5F5F5F5F5F5F5F5F5F5F5F5F5F5F5F5F5F5F5F5F5F5F5F5F5F5F5F5F50000000000000000F5000000000000000000000000000000000000000000000000
310
0000000000000000000000002D2D2D00002D2D2D2D2D2DF5F5F5F5F5F5F5F5F5F50000F5F5000000F50000000000002D000000000000000000000000000000F5F5F5000000000000F50000000000280000000000F5000000000000F5F500F5000000002D0000002D00000000000000F50000F50000BE000000000000002800
310
00000000000000BE0000F5F52D002D0000000000002D00002D2D00000000000000F5000000000000000000F50000000000280000000000F50000000000000000F500000000000000000000000000000000000000000000F5000000F5F50000F5F5F5F5F5F5F5F5F5F500000000000000000000000000000000000000000000
310
000000000000000000000000000000002D00000000000000002D00000000000000F5000000F5F5000000F50000000000002D000000000000000000000000000000F5F500F5000000000000F5000000002800000000F500000000000000F5F500F500002D2D2D0000002D00000000000000F50000F5F5F5BEF5F5F5F5F5F5F5
310
28F5F5F5F5F5F5F5F5BEF5F5F5F52D002D0000000000002D002D2D2D00000000000000F500000000000000000000F5000000002800000000F5000000000000000000F500000000000000000000000000000000000000000000F5000000F5F500000000F5000000000000000000000000000000000000000000000000000000
310
0000000000000000000000000000000000002D00000000000000002D00000000000000F5F5F5F5F5F5F5F5F5F5F5F5F5F5F5F52DF5F5F5F5F5F5F5F5F5F5F5F5F5F5F5F5F500F500000000000000F5F5000028000000F500000000000000F500F500F500002D2D2D0000002D00000000000000F50000F50000BEBEBEBEBEBE
310
BEBEBEBEBEBEBEBEBEBEBEBE0000F5F52D002D0000000000002D002D2D2D00000000000000F5F5F5000000000000000000F5000000280000F5F50000000000000000F5F5F5F5F5F5F5F5F5F5F5F5F5F5F5F5F5F5F5F5F5F5F5F5F5F5F5F5F5F5F5F5F5F5F5F500000000000000000000000000000000000000000000000000
310
00000000000000000000000000000000000000002D00000000000000002D00000000000000F50000002800000000F500000000000000000000000000000000000000000000F5F50000F50000000000000000F5F5F5F5F5F500000000000000F50000F500F5000000002D0000002D00000000000000F50000F5000000BE0000
310
0000000028000000000000BE00000000F5F52D002D0000000000002D002D2D2D00000000000000F50000F5F50000000000000000F5F5F5F5F5F50000000000000000F5F50000F500000000000000000000000000000000000000000000F5000000002800000000F50000000000000000000000000000000000000000000000
310
000000000000000000000000000000000000000000002D00000000000000002D000000000000F5F50000002800000000F500000000000000000000000000000000000000000000F500F5F5F5F5F50000000000000000280000000000000000F5F5F5F5F500F52D000000002D0000002D00000000000000F50000F5000000BE
310
00000000000028000000000000BE00000000F5002D002D0000000000002D002D2D2D00000000000000F500000000F50000000000000000000028000000000000000000F500000000F500000000000000000000000000000000000000000000F5000000002800000000F5000000000000000000000000000000000000000000
310
0000000000000000000000000000000000000000000000002D00000000000000002D00002D2DF5F5F5F50000002800000000F500000000000000000000000000000000000000000000F500002800F500F5F5F5000000000028000000000000F5F50000F5280000F52D000000002D0000002D00000000000000BEBEBEBE0000
310
00BE00000000000028000000000000BE00000000F5002D002D0000000000002D002D2D2D0000000000000000F500002800F5F500000000000000002800000000000000F5F50000280000F500000000000000000000000000000000000000000000F5000000002800000000F5F5F52D2D000000000000000000000000000000
310
00000000000000000000000000000000000000000000000000002D00000000000000002D00002D002D2DF5F5F5F5F5F5F5F5F5F5F500000000000000000000000000000000000000000000F500F528F5F500000000F5F5F5000028000000F5F5F5000000F5F528F5F5F52D000000002D0000002D00000000000000F50000F5
310
000000BE00000000000028000000000000BE00000000F5002D002D0000000000002D000000000000000000000000F500F528F50000F5F5000000000000280000000000F5F5000000F528F500F500000000000000000000000000000000000000000000F5F5F5F5F5F5F5F5F5F5F50000002D00000000000000000000000000
310
000000000000000000000000000000000000000000000000000000002D00000000000000002D0000002DF5F5F5F5F5F500280000F5F5F500000000000000000000000000000000000000000000F528F528F528F500000000F500F5F528F5F5F5F50000000000F528282828F52D2D2D2D2D2D0000002D000000000000282828
310
2828280000BE00000000000028000000000000BE00000000F5002D002D0000000000002D000000000000000000000000F5F5F528F528000000F500000000002800000000F50000000028F528F528F500000000000000000000000000000000000000000000F5F5F50000280000F5F5F5F5F52D000000000000000000000000
310
00000000000000000000000000000000000000000000000000000000002D2D2D2D2D2D2D2D2D2D2D2D2D2D2D2D2DF5F5F5F5F5F5F5F5F5F5F500000000000000000000000000000000000000000000F500F528F500F5F5F5F5F5F5F5F5F528F5F5F5F5F5F5F5F5F5000028F500F52D000000000000002D2D00000000000000
310
BEBEBEF5F5F5F5BEBEF5F5F5F5F528F5F5F5F5F5F5BEF5F5F5F500002D002D0000000000002D000000000000000000000000F500F528000000000000F5F5F5F5F5F5F5F5F5F5F50000000000F528F500F500000000000000000000000000000000000000000000F5F5F5F5F5F5F5F5F5F5F500000000000000000000000000
310
00000000000000000000000000000000000000000000000000000000000000000000000000000000002D002D000000002D0000000028000000002D0000000000000000000000000000000000000000000000F5F528000000000000000000000028000000000000000000000028F5F5002D00000000000000002D0000000000
310
0000F50000F50000002D000000000000280000000000002D0000000000002D002D0000000000002D00000000000000000000000000F5F528000000000000000000000028000000000000000000000028F5F5000000000000000000000000000000000000000000000000000000002800000000000000000000000000000000
310
000000000000000000000000000000000000000000000000000000000000000000000000000000000000002D2D00000000002D0000000000000000002D00000000000000000000000000000000000000000000000000F5F5F5F5F5F5F5F5F5F5F5F528F5F5F5F5F5F5F5F5F5F5F5F52D2D2D2D2D2D2D2D2D2D2D2D2D000000
310
00000000F5F5F5000000002D000000000000280000000000002D0000000000002D002D2D2D2D2D2D2D2D000000000000000000000000000000F5F5F5F5F5F5F5F5F5F5F5F528F5F5F5F5F5F5F5F5F5F5F5F5000000000000000000000000000000000000000000000000000000000000000000000000000000000000000000
310
00000000000000000000000000000000000000000000000000000000000000000000000000000000000000002D2D0000000000002D0000000000000000002D00000000000000000000000000000000000000000000000000000000000000000000000000280000000000000000000000000000002D00000000000000000000
310
0000000000002D0000000000002D0000000000002D0000000000002D0000000000002D000000002D2D00002D0000000000000000000000000000000000000000000000000000002800000000000000000000000000000000000000000000000000000000000000000000000000000000000000000000000000000000000000
310
00000000000000000000000000000000000000000000000000000000000000002D2D2D2D2D2D2D2D2D2D2D2D2D2D002D0000000000002D0000000000000000002D00000000000000000000000000000000000000000000000000000000000000000000000000280000000000000000000000000000002D0000000000000000
310
00000000000000002D0000000000002D0000000000002D0000000000002D0000000000002D00000000000000002D000000000000000000000000000000000000000000000000000000280000000000000000000000000000000000000000000000000000000000000000000000000000000000000000000000000000000000
310
000000000000000000000000000000000000000000000000000000000000000000002D2D2D2D2D2D2D2D2D2D2D2D0000002D2D2D2D2D2D2D2D2D2D2D2D2D2D2D2D2D2D000000000000000000000000000000000000000000000000000000000000000000000000002D0000000000000000000000000000002D000000000000
310
000000000000000000002D0000000000002D2D2D2D2D2D2D2D2D2D2D2D2D2D2D0000000000002D2D2D2D2D2D2D2D2D2D00000000000000000000000000000000000000000000000000000000000000000000000000000000000000000000000000000000000000000000000000000000000000000000000000000000000000
310
0000000000000000000000000000000000000000000000000000000000000000000000002D2D2D2D2D2D2D2D2D2D2D2D0000002D2D2D2D2D2D2D2D2D00002D2D2D00002D2D000000000000000000000000000000000000000000000000000000000000000000000000002D0000000000000000000000000000002D00000000
310
0000000000000000000000002D0000000000002D2D2D000000002D2D2D2D00002D2D0000000000002D2D00002D2D00002D2D0000000000000000000000000000000000000000000000000000000000000000000000000000000000000000000000000000000000000000000000000000000000000000000000000000000000
310
00000000000000000000000000000000000000000000000000000000000000000000000000002D2D2D2D2D2D2D2D2D2D2D2D2D2D002D002D2D2D2D00000000002D2D2D00000000000000000000000000000000000000000000000000000000000000000000000000000000002D0000000000000000000000000000002D0000
310
00000000000000000000000000002D000000000000000000000000002D002D2D00000000000000000000000000002D2D0000002D000000000000000000000000000000000000000000000000000000000000000000000000000000000000000000000000000000000000000000000000000000000000000000000000000000
310
000000000000000000000000000000000000000000000000000000000000000000000000000000002D2D002D2D2D2D2D2D2D002D2D00002D0000000000000000000000000000000000000000000000000000000000000000000000000000000000000000000000000000000000002D0000000000000000000000000000002D
310
000000000000000000000000000000002D000000000000000000000000002D000000000000000000000000000000000000000000002D00000000000000000000000000000000000000000000000000000000000000000000000000000000000000000000000000000000000000000000000000000000000000000000000000
310
0000000000000000000000000000000000000000000000000000000000000000000000000000000000000000000000000000000000000000002D2D2D2D2D2D2D2D2D2D2D2D2D2D2D2D2D2D2D2D2D2D2D2D2D2D2D2D2D2D2D2D2D2D2D2D2D2D2D2D2D2D2D2D2D2D2D2D2D2D2D2D2D2D2D2D2D2D2D2D2D2D2D2D2D2D2D2D2D2D
310
2D2D000000000000000000000000000000002D2D2D2D2D2D2D2D2D2D2D2D2D2D2D2D2D2D2D2D2D2D2D2D2D2D2D2D2D2D2D2D2D2D2D2D2D2D0000000000000000000000000000000000000000000000000000000000000000000000000000000000000000000000000000000000000000000000000000000000000000000000
310
00000000000000000000000000000000000000000000000000000000000000000000000000000000000000000000000000000000000000000000002D000000000000000000000000000000000000000000000000002D2D2D2D000000000000000000000000000000000000000000000000002D00000000002D2D2D2D2D0000
310
0000002D000000000000000000000000000000002D00000000002D2D2D00000000000000000000000000000000002D2D0000000000000000002D000000000000000000000000000000000000000000000000000000000000000000000000000000000000000000000000000000000000000000000000000000000000000000
310
000000000000000000000000000000000000000000000000000000000000000000000000000000000000000000000000000000000000000000000000002D00000000000000000000000000000000000000000000000000002D2D2D000000000000000000000000000000000000000000000000000000000000002D2D2D2D00
310
00000000002D000000000000000000000000000000002D0000000000002D2D000000000000000000000000000000002D2D000000000000000000002D00000000000000000000000000000000000000000000000000000000000000000000000000000000000000000000000000000000000000000000000000000000000000
310
0000000000000000000000000000000000000000000000000000000000000000000000000000000000000000000000000000000000000000000000000000002D2D0000000000000000000000000000000000000000000000000000000000000000000000000000000000000000000000000000000000000000000000000000
310
0000000000002D2D000000000000000000000000000000002D2D000000000000000000000000000000000000000000000000000000000000000000002D2D0000000000000000000000000000000000000000000000000000000000000000000000000000000000000000000000000000000000000000000000000000000000
310
00000000000000000000000000000000000000000000000000000000000000000000000000000000000000000000000000000000000000000000000000000000002D2D2D2D2D2D2D2D2D2D2D2D2D2D2D2D2D2D2D2D2D2D2D2D2D2D2D2D2D2D2D2D2D2D2D2D2D2D2D2D2D2D2D2D2D2D2D2D2D2D2D2D2D2D2D2D2D2D2D2D2D2D
310
2D2D2D2D2D2D2D2D2D2D000000000000000000000000000000002D2D2D2D2D2D2D2D2D2D2D2D2D2D2D2D2D2D2D2D2D2D2D2D2D2D2D2D2D2D2D2D2D2D2D2D2D2D000000000000000000000000000000000000000000000000000000000000000000000000000000000000000000000000000000000000000000000000000000
310
000000000000000000000000000000000000000000000000000000000000000000000000000000000000000000000000000000000000000000000000000000000000000000000000000000000000000000000000000000000000000000000000000000002D2D2D002D00000000000000000000000000000000000000000000
310
0000000000000000000000000000000000000000000000000000000000000000000000000000000000000000002D2D2D2D000000000000000000000000000000000000000000000000000000000000000000000000000000000000000000000000000000000000000000000000000000000000000000000000000000000000
310
00000000000000000000000000000000000000000000000000000000000000000000000000000000000000000000000000000000000000000000000000000000000000000000000000000000000000000000000000000000000000000000000000000000000000000000000000000000000000000000000000000000000000
310
00000000000000000000000000000000000000000000000000000000000000000000000000000000000000000000000000000000000000000000000000000000000000000000000000000000000000000000000000000000000000000000000000000000000000000000000000000000000000000000000000000000000000
310
00000000000000000000000000000000000000000000000000000000000000000000000000000000000000000000000000000000000000000000000000000000000000000000000000000000000000000000000000000000000000000000000000000000000000000000000000000000000000000000000000000000000000
310
00000000000000000000000000000000000000000000000000000000000000000000000000000000000000000000000000000000000000000000000000000000000000000000000000000000000000000000000000000000000000000000000000000000000000000000000000000000000000000000000000000000000000
310
00000000000000000000000000000000000000000000000000000000000000000000000000000000000000000000000000000000000000000000000000000000000000000000000000000000000000000000000000000000000000000000000000000000000000000000000000000000000000000000000000000000000000
310
00000000000000000000000000000000000000000000000000000000000000000000000000000000000000000000000000000000000000000000000000000000000000000000000000000000000000000000000000000000000000000000000000000000000000000000000000000000000000000000000000000000000000
310
00000000000000000000000000000000000000000000000000000000000000000000000000000000000000000000000000000000000000000000000000000000000000000000000000000000000000000000000000000000000000000000000000000000000000000000000000000000000000000000000000000000000000
310
00000000000000000000000000000000000000000000000000000000000000000000000000000000000000000000000000000000000000000000000000000000000000000000000000000000000000000000000000000000000000000000000000000000000000000000000000000000000000000000000000000000000000
310
00000000000000000000000000000000000000000000000000000000000000000000000000000000000000000000000000000000000000000000000000000000000000000000000000000000000000000000000000000000000000000000000000000000000000000000000000000000000000000000000000000000000000
310
00000000000000000000000000000000000000000000000000000000000000000000000000000000000000000000000000000000000000000000000000000000000000000000000000000000000000000000000000000000000000000000000000000000000000000000000000000000000000000000000000000000000000
310
00000000000000000000000000000000000000000000000000000000000000000000000000000000000000000000000000000000000000000000000000000000000000000000000000000000000000000000000000000000000000000000000000000000000000000000000000000000000000000000000000000000000000
310
00000000000000000000000000000000000000000000000000000000000000000000000000000000000000000000000000000000000000000000000000000000000000000000000000000000000000000000000000000000000000000000000000000000000000000000000000000000000000000000000000000000000000
310
00000000000000000000000000000000000000000000000000000000000000000000000000000000000000000000000000000000000000000000000000000000000000000000000000000000000000000000000000000000000000000000000000000000000000000000000000000000000000000000000000000000000000
310
00000000000000000000000000000000000000000000000000000000000000000000000000000000000000000000000000000000000000000000000000000000000000000000000000000000000000000000000000000000000000000000000000000000000000000000000000000000000000000000000000000000000000
310
00000000000000000000000000000000000000000000000000000000000000000000000000000000000000000000000000000000000000000000000000000000000000000000000000000000000000000000000000000000000000000000000000000000000000000000000000000000000000000000000000000000000000
310
00000000000000000000000000000000000000000000000000000000000000000000000000000000000000000000000000000000000000000000000000000000000000000000000000000000000000000000000000000000000000000000000000000000000000000000000000000000000000000000000000000000000000
310
00000000000000000000000000000000000000000000000000000000000000000000000000000000000000000000000000000000000000000000000000000000000000000000000000000000000000000000000000000000000000000000000000000000000000000000000000000000000000000000000000000000000000
310
00000000000000000000000000000000000000000000000000000000000000000000000000000000000000000000000000000000000000000000000000000000000000000000000000000000000000000000000000000000000000000000000000000000000000000000000000000000000000000000000000000000000000
310
00000000000000000000000000000000000000000000000000000000000000000000000000000000000000000000000000000000000000000000000000000000000000000000000000000000000000000000000000000000000000000000000000000000000000000000000000000000000000000000000000000000000000
310
00000000000000000000000000000028000000000000000000000000000000000000000000000000000000000000000000000000000000000000000000000000000000000000000000000000000000000000000000000000000000000000000000000000000000000000000000000000000000000000000000000000000000
310
00000000000000000000000000000000000000000000000000000000000000000000000000000000000000000000000000000000000000000000000000000000000000000000000000000000000000000000000000000000000000000000000000000000000000000000000000000000000000000000000000000000000000
310
00000000002800000000000000000000002800000000000000000000002800000000000000000000000000000000000000000000000000000000000000000000000000000000000000000000000000000000000000000000000000000000000000000000000000000000000000000000000000000000000000000000000000
310
00000000000000000000000000000000000000000000000000000000000000000000000000000000000000000000000000000000000000000000000000000000000000000000000000000000000000000000000000000000000000000000000000000000000000000000000000000000000000000000000000000000000000
310
00000000F5F5BE28BEF5F5F5F5F5F5F5F5F5F528F5F5F5F5F5F5F5F5F5F5BE28F5BEF5F500000000000000000000000000000000000000000000000000000000000000000000000000000000000000000000000000000000000000000000000000000000000000000000000000000000000000000000000000000000000000
310
00000000000000000000000000000000000000000000000000000000000000000000000000000000000000000000000000000000000000000000000000000000000000000000000000000000000000000000000000000000000000000000000000000000000000F5F5F5F5F5F5F5F5F5F5F5F5F5F5F5F5F5F5F5F5F5F5F5F5
310
F5F5F5F5F5F5F500BE28BE000000000000000000002800000000000000000000BE2800BE00F50000000000000000000000000000000000000000000000000000000000000000000000000000000000000000000000000000000000000000000000000000000000000000000000000000000000000000000000000000000000
310
0000000000000000000000000000000000000000000000000000000000000000000000000000000000000000000000000000000000000000000000000000000000000000000000000000000000000000000000000000000000000000000000000000000000000000F500000000000000F50000000000000000000000000000
310
0000000000000000F500BE28BE000000000000000000002800000000000000000000BE2800BE00F5000000000000000000000000000000000000000000000000000000000000000000000000000000000000000000000000000000000000000000000000000000000000000000000000000000000000000000000000000000
310
00000000000000000000000000000000000000000000000000000000000000000000000000000000000000000000000000000000000000000000000000000000000000000000000000000000000000000000000000000000000000000000000000F5F5F5F5F5F5F5F5F5F500000000000000F5000000000000000000000000
310
00000000000000000000F5F5BE28BEF5F5F5F5F5F5F5F5F5F528F5F5F5F5F5F5F5F5F5F5BE28F5BEF5F500000000000000000000000000000000000000000000000000000000000000000000000000000000000000000000000000000000000000000000000000000000000000000000000000000000000000000000000000
310
000000000000000000000000000000000000000000000000000000000000000000000000000000000000000000000000000000000000000000000000000000000000000000000000000000000000000000000000000000000000000000000000000000F5F5F5F5F5F5F5F5F5F500000000000000F500000000000000000000
310
000000000000000000000000F500F528000000000000F5F5F5F5F5F5F5F5F5F5F5F5000000000028000000F50000000000000000000000000000000000000000000000000000000000000000000000000000000000000000000000000000000000000000000000000000000000000000000000000000000000000000000000
310
0000000000000000000000000000000000000000000000000000000000000000000000000000000000000000000000000000000000000000000000000000000000000000000000000000000000000000000000000000000000000000000000000000000000F5F5F5F5F5F5F5F5F5F500002800000000F50000000000000000
310
0000000000000000000000000000F500F528000000000000F5000000002800000000F500000000000028000000F5000000000000000000000000000000000000000000000000000000000000000000000000000000000000000000000000000000000000000000000000000000000000000000000000000000000000000000
310
00000000000000000000000000000000000000000000000000000000000000000000000000000000000000000000000000000000000000000000000000000000000000000000000000000000000000000000000000000000000000000000000000000000000000F500000000000000F5F5000028F5F5F5F5F5F5F5F5F5F5F5
310
F5F5F5F5F5F5F5F5F5F5F5F5F5F5F5F5F500F500000000000000F5000000002800000000F500000000000000000000F500000000000000000000000000000000000000000000000000000000000000000000000000000000000000000000000000000000000000000000000000000000000000000000000000000000000000
310
000000000000000000000000000000000000000000000000000000000000000000000000000000000000000000000000000000000000000000000000000000000000000000000000000000000000000000000000000000000000000000000000000000000000000000F50000000000000000F5F5F5F5F5000000F500000000
310
000000000000000000000000000000000000F500F500000000000000F5000000002800000000F500000000000000000000F50000000000000000000000000000000000000000000000000000000000000000000000000000000000000000000000000000000000000000000000000000000000000000000000000000000000
310
0000000000000000000000000000000000000000000000000000000000000000000000000000000000000000000000000000000000000000000000000000000000000000000000000000000000000000000000000000000000000000000000000000000000000000000000F500000000000000F5F5F5F5F5F5F5F5F5F50000
310
00000000000000000000000000000000000000F50000F500000000000000F5000000002800000000F500000000000000000000F5000000000000000000000000000000000000000000000000000000000000000000000000000000000000000000000000000000000000000000000000000000000000000000000000000000
310
00000000000000000000000000000000000000000000000000000000000000000000000000000000000000000000000000000000000000000000000000000000000000000000000000000000000000000000000000000000000000000000000000000000000000000000000000F500000000000000F5F5F500280000F5F5F5
310
000000000000000000000000000000000000000000F50000F500000000000000F5000000002800000000F500000000000000000000F500000000000000000000000000000000000000000000000000000000000000000000000000000000000000000000000000000000000000000000000000000000000000000000000000
310
000000000000000000000000000000000000000000000000000000000000000000000000000000000000000000000000000000000000000000000000000000000000000000000000000000000000000000000000000000000000000000000000000000000000000000000000000000F500000000000000F5F50000280000F5
310
F5F5000000000000000000000000000000000000000000F50000F500000000000000F5000000002800000000F500000000000000000000F50000000000000000000000000000000000000000000000000000000000000000000000000000000000000000000000000000000000000000000000000000000000000000000000
310
0000000000000000000000000000000000000000000000000000000000000000000000000000000000000000000000000000000000000000000000000000000000000000000000000000000000000000000000000000000000000000000000000000000000000000000000000000000000F500000000000000F50000002800
310
000000F5000000000000000000000000000000000000000000F50000F500000000000000F5000000002800000000F500000000000000000000F5000000000000000000000000000000002D2D2D2D2D2D2D2D2D2D2D2D2D2D2D2D2D2D2D2D2D2D2D2D2D2D2D2D00000000000000000000000000000000000000000000000000
310
00000000000000000000000000000000000000000000000000000000000000000000000000000000000000000000000000000000000000000000000000000000000000000000000000000000000000000000000000000000000000000000000000000000000000000000000000000000000000F500000000000000F5000000
310
2800000000F5000000000000000000000000000000000000000000F50000F500000000000000F5000000002800000000F500000000000000000000F5000000000000000000000000000000002D2D2D2D2D00002D2D2D00002D2D2D2D002D2D2D2D2D002D2D2D2D2D0000000000000000000000000000000000000000000000
310
000000000000000000000000000000000000000000000000000000000000000000000000000000000000000000000000000000000000000000000000000000000000000000000000000000000000000000000000000000000000000000000000000000000000000000000000000000000000000000F5000000000000F5F500
310
00002800000000F5000000000000000000000000000000000000000000F50000F500000000000000F5000000002800000000F5000000000000000000F500000000000000000000000000000000002D2D2D002D00002D2D2D2D00002D2D2D002D2D2D2D2D00002D2D2D2D000000000000000000000000000000000000000000
310
0000000000000000000000000000000000000000000000000000000000000000000000000000000000000000000000000000000000000000000000000000000000000000000000000000000000000000000000000000000000000000000000000000000000000000000000000000000000000000000000F5002DF5F5F5F5F5
310
F50000002800000000F5000000000000000000000000000000000000000000F50000F500000000000000F5000000002800000000F5000000000000000000F500000000000000000000000000000000002D2D2D2D2D2D2D2D2D2D002D2D2D2D2D2D2D2D2D2D2D2D2D2D2D2D2D00000000000000000000000000000000000000
310
00000000000000000000000000000000000000000000000000000000000000000000000000000000000000000000000000000000000000000000000000000000000000000000000000000000000000000000000000000000000000000000000000000000000000000000000000000000000000000000002828F5282D2D2828
310
28F5F52828282828282828F5282828282828282828282828282828282828282828F52828F528282828282828F5282828282828282828F5282828282828282828F528280000000000000000000000000000002D2D2D2D2D00002D2D2D2D00002D2D00002D2D2D2D00002D2D2D2D2D0000000000000000000000000000000000
310
000000000000000000000000000000000000000000000000000000000000000000000000000000000000000000000000000000000000000000000000000000000000000000000000000000000000000000000000000000000000000000000000000000000000000000000000000000000000000000000000000000F500002D
310
F5F5F5F5F50000002800000000F5000000000000000000000000000000000000000000000000F500000000000000F5000000002800000000F5000000000000000000F500000000000000000000000000000000002D2D2D2D2D2D2D2D2D2D002D2D2D2D2D2D002D2D2D2D2D2D2D2D2D2D000000000000000000000000000000
310
0000000000000000000000000000000000000000000000000000000000000000000000000000000000000000000000000000000000000000000000000000000000000000000000000000000000000000000000000000000000000000000000000000000000000000000000000000000000000000000000000000000000F500
310
0000000000F5F50000002800000000F5000000000000000000000000000000000000000000000000F500000000000000F5000000002800000000F5000000000000000000F500000000000000000000000000000000002D2D2D2D2D00002D2D2D00002D2D2D2D002D2D2D2D2D002D2D2D2D2D00000000000000000000000000
310
00000000000000000000000000000000000000000000000000000000000000000000000000000000000000000000000000000000000000000000000000000000000000000000000000000000000000000000000000000000000000000000000000000000000000000000000000000000000000000000000000000000000000
310
F500000000000000F50000002800000000F5000000000000000000000000000000000000000000000000F500000000000000F5000000002800000000F5000000000000000000F500000000000000000000000000000000002D2D2D002D00002D2D2D2D00002D2D2D2D2D2D2D2D2D2D00002D2D2D2D00000000000000000000
310
00000000000000000000000000000000000000000000000000000000000000000000000000000000000000000000000000000000000000000000000000000000000000000000000000000000000000000000000000000000000000000000000000000000000000000000000000000000000000000000000000000000000000
310
0000F500000000000000F50000002800000000F5000000000000000000000000000000000000000000000000F500000000000000F5000000002800000000F5000000000000000000F500000000000000000000000000000000002D2D2D2D2D2D2D2D2D2D002D2D2D2D2D2D2D2D2D002D2D2D2D2D2D2D2D0000000000000000
310
00000000000000000000000000000000000000000000000000000000000000000000000000000000000000000000000000000000000000000000000000000000000000000000000000000000000000000000000000000000000000000000000000000000000000000000000000000000000000000000000000000000000000
310
00000000F500000000000000F5F50000280000F5F5F5000000000000000000000000000000000000000000000000F500000000000000F5000000002800000000F5000000000000000000F500000000000000000000000000000000000000000000000000000000000000000000000000000000000000000000000000000000
310
00000000000000000000000000000000000000000000000000000000000000000000000000000000000000000000000000000000000000000000000000000000000000000000000000000000000000000000000000000000000000000000000000000000000000000000000000000000000000000000000000000000000000
310
000000000000F500000000000000F5F5F500280000F5F5F5000000000000000000000000000000000000000000000000F500000000000000F5000000002800000000F5000000000000000000F50000000000000000000000000000000000000000000000000000000000000000000000000000000000000000000000000000
310
00000000000000000000000000000000000000000000000000000000000000000000000000000000000000000000000000000000000000000000000000000000000000000000000000000000000000000000000000000000000000000000000000000000000000000000000000000000000000000000000000000000000000
310
0000000000000000F500000000000000F5F5F5F5F5F5F5F5F5F5000000000000000000000000000000000000000000000000F500000000000000F5000000002800000000F5000000000000000000F5000000000000000000000000000000000000000000000000000000000000000000000000000000000000000000000000
310
00000000000000000000000000000000000000000000000000000000000000000000000000000000000000000000000000000000000000000000000000000000000000000000000000000000000000000000000000000000000000000000000000000000000000000000000000000000000000000000000000000000000000
310
00000000000000000000F50000000000000000F5F5F5F5F5000000F5000000000000000000000000000000000000000000000000F500000000000000F5000000002800000000F5000000000000000000F500000000000000000000000000000000000000000000000000000000000000000000000000000000000000000000
310
00000000000000000000000000000000000000000000000000000000000000000000000000000000000000000000000000000000000000000000000000000000000000000000000000000000000000000000000000000000000000000000000000000000000000000000000000000000000000000000000000000000000000
310
000000000000000000000000F500000000000000F5F5000028F5F5F5F5F5F5F5F5F5F5F5F5F5F5F5F5F5F5F5F5F5F5F5F5F5F5F5F5F5F500000000000000F5000000002800000000F5000000000000000000F50000000000000000000000000000000000000000000000000000000000000000000000000000000000000000
310
00000000000000000000000000000000000000000000000000000000000000000000000000000000000000000000000000000000000000000000000000000000000000000000000000000000000000000000000000000000000000000000000000000000000000000000000000000000000000000000000000000000000000
310
0000000000000000000000000000F5F5F5F5F5F5F5F5F5F500002800000000F500000000000000000000000000000000000000000000F5000000000000000000F5000000002800000000F5000000000000000000F5000000000000000000000000000000000000000000000000000000000000000000000000000000000000
310
00000000000000000000000000000000000000000000000000000000000000000000000000000000000000000000000000000000000000000000000000000000000000000000000000000000000000000000000000000000000000000000000000000000000000000000000000000000000000000000000000000000000000
310
00000000000000000000000000000000F5F5F5F5F5F5F5F5F5F500000000000000F500000000000000000000000000000000000000000000F5F5F5F5F5F5F5F5F5F5F5F5F5F5F528F5F5F5F5F5F5F5F5F5F5F5F5F5F5F500000000000000000000000000000000000000000000000000000000000000000000000000000000
310
00000000000000000000000000000000000000000000000000000000000000000000000000000000000000000000000000000000000000000000000000000000000000000000000000000000000000000000000000000000000000000000000000000000000000000000000000000000000000000000000000000000000000
310
000000000000000000000000000000000000F5F5F5F5F5F5F5F5F5F500000000000000F500000000000000000000000000000000000000000000F500000000000000F500000000000028000000000000F500000000000000000000000000000000000000000000000000000000000000000000000000000000000000000000
310
00000000000000000000000000000000000000000000000000000000000000000000000000000000000000000000000000000000000000000000000000000000000000000000000000000000000000000000000000000000000000000000000000000000000000000000000000000000000000000000000000000000000000
310
0000000000000000000000000000000000000000000000000000000000F500000000000000F5000000000000000000000000000000000000000000F5F500000000000000F5F5F5F5F5F5F5F5F5F5F5F5F5F5F50000000000000000000000000000000000000000000000000000000000000000000000000000000000000000
310
00000000000000000000000000000000000000000000000000000000000000000000000000000000000000000000000000000000000000000000000000000000000000000000000000000000000000000000000000000000000000000000000000000000000000000000000000000000000000000000000000000000000000
310
0000000000000000000000000000000000000000000000000000000000000000F5F5F5F5F5F5F5F5F5F5F5F5F5F5F5F5F5F5F5F5F5F5F5F5F5F5F5F5F5F5000000000000000000000000F50000280000F500000000000000000000000000000000000000000000000000000000000000000000000000000000000000000000
310
00000000000000000000000000000000000000000000000000000000000000000000000000000000000000000000000000000000000000000000000000000000000000000000000000000000000000000000000000000000000000000000000000000000000000000000000000000000000000000000000000000000000000
310
00000000000000000000000000000000000000000000000000000000000000000000000000000000000000000000000000000000000000000000000000000000000000000000000000000000F50000280000F5F500000000000000000000000000000000000000000000000000000000000000000000000000000000000000
310
00000000000000000000000000000000000000000000000000000000000000000000000000000000000000000000000000000000000000000000000000000000000000000000000000000000000000000000000000000000000000000000000000000000000000000000000000000000000000000000000000000000000000
310
000000000000000000000000000000000000000000000000000000000000000000000000000000000000000000000000000000000000000000000000000000000000000000000000000000000000F50000280000F5F50000000000000000000000000000000000000000000000000000000000000000000000000000000000
310
00000000000000000000000000000000000000000000000000000000000000000000000000000000000000000000000000000000000000000000000000000000000000000000000000000000000000000000000000000000000000000000000000000000000000000000000000000000000000000000000000000000000000
310
0000000000000000000000000000000000000000000000000000000000000000000000000000000000000000000000000000000000000000000000000000000000000000000000000000000000000000F50000280000F5F5000000000000000000000000000000000000000000000000000000000000000000000000000000
310
00000000000000000000000000000000000000000000000000000000000000000000000000000000000000000000000000000000000000000000000000000000000000000000000000000000000000000000000000000000000000000000000000000000000000000000000000000000000000000000000000000000000000
310
00000000000000000000000000000000000000000000000000000000000000000000000000000000000000000000000000000000000000000000000000000000000000000000000000000000000000000000F50000280000F5F500000000000000000000000000000000000000000000000000000000000000000000000000
310
00000000000000000000000000000000000000000000000000000000000000000000000000000000000000000000000000000000000000000000000000000000000000000000000000000000000000000000000000000000000000000000000000000000000000000000000000000000000000000000000000000000000000
310
000000000000000000000000000000000000000000000000000000000000000000000000000000000000000000000000000000000000000000000000000000000000000000000000000000000000000000000000F50000280000F5F50000000000000000000000000000000000000000000000000000000000000000000000
310
00000000000000000000000000000000000000000000000000000000000000000000000000000000000000000000000000000000000000000000000000000000000000000000000000000000000000000000000000000000000000000000000000000000000000000000000000000000000000000000000000000000000000
310
0000000000000000000000000000000000000000000000000000000000000000000000000000000000000000000000000000000000000000000000000000000000000000000000000000000000000000000000000000F50000280000F5F5000000000000000000000000000000000000000000000000000000000000000000
310
00000000000000000000000000000000000000000000000000000000000000000000000000000000000000000000000000000000000000000000000000000000000000000000000000000000000000000000000000000000000000000000000000000000000000000000000000000000000000000000000000000000000000
310
00000000000000000000000000000000000000000000000000000000000000000000000000000000000000000000000000000000000000000000000000000000000000000000000000000000000000000000000000000000F50000280000F5F500000000000000000000000000000000000000000000000000000000000000
310
00000000000000000000000000000000000000000000000000000000000000000000000000000000000000000000000000000000000000000000000000000000000000000000000000000000000000000000000000000000000000000000000000000000000000000000000000000000000000000000000000000000000000
310
000000000000000000000000000000000000000000000000000000000000000000000000000000000000000000000000000000000000000000000000000000000000000000000000000000000000000000000000000000000000F5F5F5F5F5F5F5F50000000000000000000000000000000000000000000000000000000000
310
00000000000000000000000000000000000000000000000000000000000000000000000000000000000000000000000000000000000000000000000000000000000000000000000000000000000000000000000000000000000000000000000000000000000000000000000000000000000000000000000000000000000000
310
00000000000000000000000000000000000000000000000000000000000000000000000000000000000000000000000000000000000000000000000000000000000000000000000000000000000000000000000000000000000000000000002800000000000000000000000000000000000000000000000000000000000000
310
00000000000000000000000000000000000000000000000000000000000000000000000000000000000000000000000000000000000000000000000000000000000000000000000000000000000000000000000000000000000000000000000000000000000000000000000000000000000000000000000000000000000000
310
00000000000000000000000000000000000000000000000000000000000000000000000000000000000000000000000000000000000000000000000000000000000000000000000000000000000000000000000000000000000000000000000000280000000000000000000000000000000000000000000000000000000000
310
00000000000000000000000000000000000000000000000000000000000000000000000000000000000000000000000000000000000000000000000000000000000000000000000000000000000000000000000000000000000000000000000000000000000000000000000000000000000000000000000000000000000000
310
00000000000000000000000000000000000000000000000000000000000000000000000000000000000000000000000000000000000000000000000000000000000000000000000000000000000000000000000000000000000000000000000000000028000000000000000000000000000000000000000000000000000000
310
00000000000000000000000000000000000000000000000000000000000000000000000000000000000000000000000000000000000000000000000000000000000000000000000000000000000000000000000000000000000000000000000000000000000000000000000000000000000000000000000000000000000000
310
00000000000000000000000000000000
  0
XRECORD
  5
1918
102
{ACAD_REACTORS
330
1917
102
}
330
1917
100
AcDbXrecord
280
     1
102
SHADEPLOT
 70
     0
102
SHADEPLOTRESLEVEL
 70
     2
102
SHADEPLOTCUSTOMDPI
 70
   300
  0
XRECORD
  5
18DC
102
{ACAD_REACTORS
330
1444
102
}
330
1444
100
AcDbXrecord
280
     1
102
MATERIAL
148
0.0
149
0.0
149
0.0
 93
        0
 94
      127
282
     0
 72
     0
 77
     0
171
     0
175
     0
179
     0
273
     0
  0
XRECORD
  5
1446
102
{ACAD_REACTORS
330
1444
102
}
330
1444
100
AcDbXrecord
280
     1
270
     1
271
     1
  0
XRECORD
  5
1445
102
{ACAD_REACTORS
330
1444
102
}
330
1444
100
AcDbXrecord
280
     1
270
     1
271
     1
  0
XRECORD
  5
1449
102
{ACAD_REACTORS
330
1444
102
}
330
1444
100
AcDbXrecord
280
     1
270
     1
271
     1
  0
XRECORD
  5
1448
102
{ACAD_REACTORS
330
1444
102
}
330
1444
100
AcDbXrecord
280
     1
270
     1
271
     1
  0
XRECORD
  5
144A
102
{ACAD_REACTORS
330
1444
102
}
330
1444
100
AcDbXrecord
280
     1
270
     1
271
     1
  0
XRECORD
  5
1447
102
{ACAD_REACTORS
330
1444
102
}
330
1444
100
AcDbXrecord
280
     1
270
     1
271
     1
  0
XRECORD
  5
18DB
102
{ACAD_REACTORS
330
143C
102
}
330
143C
100
AcDbXrecord
280
     1
102
MATERIAL
148
0.0
149
0.0
149
0.0
 93
        0
 94
      127
282
     0
 72
     0
 77
     0
171
     0
175
     0
179
     0
273
     0
  0
XRECORD
  5
143E
102
{ACAD_REACTORS
330
143C
102
}
330
143C
100
AcDbXrecord
280
     1
270
     1
271
     1
  0
XRECORD
  5
143D
102
{ACAD_REACTORS
330
143C
102
}
330
143C
100
AcDbXrecord
280
     1
270
     1
271
     1
  0
XRECORD
  5
1441
102
{ACAD_REACTORS
330
143C
102
}
330
143C
100
AcDbXrecord
280
     1
270
     1
271
     1
  0
XRECORD
  5
1440
102
{ACAD_REACTORS
330
143C
102
}
330
143C
100
AcDbXrecord
280
     1
270
     1
271
     1
  0
XRECORD
  5
1442
102
{ACAD_REACTORS
330
143C
102
}
330
143C
100
AcDbXrecord
280
     1
270
     1
271
     1
  0
XRECORD
  5
143F
102
{ACAD_REACTORS
330
143C
102
}
330
143C
100
AcDbXrecord
280
     1
270
     1
271
     1
  0
XRECORD
  5
18DD
102
{ACAD_REACTORS
330
144C
102
}
330
144C
100
AcDbXrecord
280
     1
102
MATERIAL
148
0.0
149
0.0
149
0.0
 93
        0
 94
      127
282
     0
 72
     0
 77
     0
171
     0
175
     0
179
     0
273
     0
  0
XRECORD
  5
144E
102
{ACAD_REACTORS
330
144C
102
}
330
144C
100
AcDbXrecord
280
     1
270
     1
271
     1
  0
XRECORD
  5
144D
102
{ACAD_REACTORS
330
144C
102
}
330
144C
100
AcDbXrecord
280
     1
270
     1
271
     1
  0
XRECORD
  5
1451
102
{ACAD_REACTORS
330
144C
102
}
330
144C
100
AcDbXrecord
280
     1
270
     1
271
     1
  0
XRECORD
  5
1450
102
{ACAD_REACTORS
330
144C
102
}
330
144C
100
AcDbXrecord
280
     1
270
     1
271
     1
  0
XRECORD
  5
1452
102
{ACAD_REACTORS
330
144C
102
}
330
144C
100
AcDbXrecord
280
     1
270
     1
271
     1
  0
XRECORD
  5
144F
102
{ACAD_REACTORS
330
144C
102
}
330
144C
100
AcDbXrecord
280
     1
270
     1
271
     1
  0
XRECORD
  5
1914
102
{ACAD_REACTORS
330
1913
102
}
330
1913
100
AcDbXrecord
280
     1
102
DISPLAYNAME
  1
Imperial24
102
FLAGS
 90
        0
  0
CELLSTYLEMAP
  5
18C7
102
{ACAD_REACTORS
330
14A1
102
}
330
14A1
100
AcDbCellStyleMap
 90
        3
300
CELLSTYLE
  1
TABLEFORMAT_BEGIN
 90
        5
170
     1
 91
        0
 92
    32768
 62
   257
 93
        1
300
CONTENTFORMAT
  1
CONTENTFORMAT_BEGIN
 90
        0
 91
        0
 92
      512
 93
        0
300

 40
0.0
140
1.0
 94
        5
 62
     0
340
16
144
0.25
309
CONTENTFORMAT_END
171
     1
301
MARGIN
  1
CELLMARGIN_BEGIN
 40
0.06
 40
0.06
 40
0.06
 40
0.06
 40
0.18
 40
0.18
309
CELLMARGIN_END
 94
        6
 95
        1
302
GRIDFORMAT
  1
GRIDFORMAT_BEGIN
 90
        0
 91
        1
 62
     0
 92
       -2
340
0
 93
        0
 40
0.045
309
GRIDFORMAT_END
 95
        2
302
GRIDFORMAT
  1
GRIDFORMAT_BEGIN
 90
        0
 91
        1
 62
     0
 92
       -2
340
0
 93
        0
 40
0.045
309
GRIDFORMAT_END
 95
        4
302
GRIDFORMAT
  1
GRIDFORMAT_BEGIN
 90
        0
 91
        1
 62
     0
 92
       -2
340
0
 93
        0
 40
0.045
309
GRIDFORMAT_END
 95
        8
302
GRIDFORMAT
  1
GRIDFORMAT_BEGIN
 90
        0
 91
        1
 62
     0
 92
       -2
340
0
 93
        0
 40
0.045
309
GRIDFORMAT_END
 95
       16
302
GRIDFORMAT
  1
GRIDFORMAT_BEGIN
 90
        0
 91
        1
 62
     0
 92
       -2
340
0
 93
        0
 40
0.045
309
GRIDFORMAT_END
 95
       32
302
GRIDFORMAT
  1
GRIDFORMAT_BEGIN
 90
        0
 91
        1
 62
     0
 92
       -2
340
0
 93
        0
 40
0.045
309
GRIDFORMAT_END
309
TABLEFORMAT_END
  1
CELLSTYLE_BEGIN
 90
        1
 91
        1
300
_TITLE
309
CELLSTYLE_END
300
CELLSTYLE
  1
TABLEFORMAT_BEGIN
 90
        5
170
     1
 91
        0
 92
        0
 62
   257
 93
        1
300
CONTENTFORMAT
  1
CONTENTFORMAT_BEGIN
 90
        0
 91
        0
 92
      512
 93
        0
300

 40
0.0
140
1.0
 94
        5
 62
     0
340
16
144
0.18
309
CONTENTFORMAT_END
171
     1
301
MARGIN
  1
CELLMARGIN_BEGIN
 40
0.06
 40
0.06
 40
0.06
 40
0.06
 40
0.18
 40
0.18
309
CELLMARGIN_END
 94
        6
 95
        1
302
GRIDFORMAT
  1
GRIDFORMAT_BEGIN
 90
        0
 91
        1
 62
     0
 92
       -2
340
0
 93
        0
 40
0.045
309
GRIDFORMAT_END
 95
        2
302
GRIDFORMAT
  1
GRIDFORMAT_BEGIN
 90
        0
 91
        1
 62
     0
 92
       -2
340
0
 93
        0
 40
0.045
309
GRIDFORMAT_END
 95
        4
302
GRIDFORMAT
  1
GRIDFORMAT_BEGIN
 90
        0
 91
        1
 62
     0
 92
       -2
340
0
 93
        0
 40
0.045
309
GRIDFORMAT_END
 95
        8
302
GRIDFORMAT
  1
GRIDFORMAT_BEGIN
 90
        0
 91
        1
 62
     0
 92
       -2
340
0
 93
        0
 40
0.045
309
GRIDFORMAT_END
 95
       16
302
GRIDFORMAT
  1
GRIDFORMAT_BEGIN
 90
        0
 91
        1
 62
     0
 92
       -2
340
0
 93
        0
 40
0.045
309
GRIDFORMAT_END
 95
       32
302
GRIDFORMAT
  1
GRIDFORMAT_BEGIN
 90
        0
 91
        1
 62
     0
 92
       -2
340
0
 93
        0
 40
0.045
309
GRIDFORMAT_END
309
TABLEFORMAT_END
  1
CELLSTYLE_BEGIN
 90
        2
 91
        1
300
_HEADER
309
CELLSTYLE_END
300
CELLSTYLE
  1
TABLEFORMAT_BEGIN
 90
        5
170
     1
 91
        0
 92
        0
 62
   257
 93
        1
300
CONTENTFORMAT
  1
CONTENTFORMAT_BEGIN
 90
        0
 91
        0
 92
      512
 93
        0
300

 40
0.0
140
1.0
 94
        2
 62
     0
340
16
144
0.18
309
CONTENTFORMAT_END
171
     1
301
MARGIN
  1
CELLMARGIN_BEGIN
 40
0.06
 40
0.06
 40
0.06
 40
0.06
 40
0.18
 40
0.18
309
CELLMARGIN_END
 94
        6
 95
        1
302
GRIDFORMAT
  1
GRIDFORMAT_BEGIN
 90
        0
 91
        1
 62
     0
 92
       -2
340
0
 93
        0
 40
0.045
309
GRIDFORMAT_END
 95
        2
302
GRIDFORMAT
  1
GRIDFORMAT_BEGIN
 90
        0
 91
        1
 62
     0
 92
       -2
340
0
 93
        0
 40
0.045
309
GRIDFORMAT_END
 95
        4
302
GRIDFORMAT
  1
GRIDFORMAT_BEGIN
 90
        0
 91
        1
 62
     0
 92
       -2
340
0
 93
        0
 40
0.045
309
GRIDFORMAT_END
 95
        8
302
GRIDFORMAT
  1
GRIDFORMAT_BEGIN
 90
        0
 91
        1
 62
     0
 92
       -2
340
0
 93
        0
 40
0.045
309
GRIDFORMAT_END
 95
       16
302
GRIDFORMAT
  1
GRIDFORMAT_BEGIN
 90
        0
 91
        1
 62
     0
 92
       -2
340
0
 93
        0
 40
0.045
309
GRIDFORMAT_END
 95
       32
302
GRIDFORMAT
  1
GRIDFORMAT_BEGIN
 90
        0
 91
        1
 62
     0
 92
       -2
340
0
 93
        0
 40
0.045
309
GRIDFORMAT_END
309
TABLEFORMAT_END
  1
CELLSTYLE_BEGIN
 90
        3
 91
        2
300
_DATA
309
CELLSTYLE_END
  0
XRECORD
  5
18FE
102
{ACAD_REACTORS
330
14A1
102
}
330
14A1
100
AcDbXrecord
280
     1
102
ACAD_ROUNDTRIP_PRE2007_TABLESTYLE
 90
      512
 91
        0
  1

 92
      512
 93
        0
  2

 94
      512
 95
        0
  3

  0
XRECORD
  5
18E9
102
{ACAD_REACTORS
330
18E8
102
}
330
18E8
100
AcDbXrecord
280
     1
102
RTVSPost2010Prop28
280
     1
102
RTVSPost2010PropOp28
 70
     1
102
RTVSPost2010Prop29
280
     1
102
RTVSPost2010PropOp29
 70
     1
102
RTVSPost2010Prop30
280
     0
102
RTVSPost2010PropOp30
 70
     1
102
RTVSPost2010Prop31
280
     0
102
RTVSPost2010PropOp31
 70
     1
102
RTVSPost2010Prop32
280
     0
102
RTVSPost2010PropOp32
 70
     1
102
RTVSPost2010Prop33
280
     0
102
RTVSPost2010PropOp33
 70
     1
102
RTVSPost2010Prop34
280
     0
102
RTVSPost2010PropOp34
 70
     1
102
RTVSPost2010Prop35
280
     0
102
RTVSPost2010PropOp35
 70
     1
102
RTVSPost2010Prop36
280
     0
102
RTVSPost2010PropOp36
 70
     1
102
RTVSPost2010Prop37
 90
       50
102
RTVSPost2010PropOp37
 70
     1
102
RTVSPost2010Prop38
140
0.0
102
RTVSPost2010PropOp38
 70
     1
102
RTVSPost2010Prop39
140
1.0
102
RTVSPost2010PropOp39
 70
     1
102
RTVSPost2010Prop40
 90
        0
102
RTVSPost2010PropOp40
 70
     1
102
RTVSPost2010Prop41ColorIndex
 90
       18
102
RTVSPost2010Prop41ColorRGB
 90
        0
102
RTVSPost2010PropOp41
 70
     1
102
RTVSPost2010Prop42
 90
       50
102
RTVSPost2010PropOp42
 70
     1
102
RTVSPost2010Prop43
 90
        3
102
RTVSPost2010PropOp43
 70
     1
102
RTVSPost2010Prop44ColorIndex
 90
        5
102
RTVSPost2010Prop44ColorRGB
 90
      255
102
RTVSPost2010PropOp44
 70
     1
102
RTVSPost2010Prop45
280
     0
102
RTVSPost2010PropOp45
 70
     1
102
RTVSPost2010Prop46
 90
       50
102
RTVSPost2010PropOp46
 70
     1
102
RTVSPost2010Prop47
 90
       50
102
RTVSPost2010PropOp47
 70
     1
102
RTVSPost2010Prop48
 90
       50
102
RTVSPost2010PropOp48
 70
     1
102
RTVSPost2010Prop49
280
     0
102
RTVSPost2010PropOp49
 70
     1
102
RTVSPost2010Prop50
 90
       50
102
RTVSPost2010PropOp50
 70
     1
102
RTVSPost2010Prop51ColorIndex
 90
      256
102
RTVSPost2010Prop51ColorRGB
 90
-16777216
102
RTVSPost2010PropOp51
 70
     0
102
RTVSPost2010Prop52
140
1.0
102
RTVSPost2010PropOp52
 70
     0
102
RTVSPost2010Prop53
 90
        2
102
RTVSPost2010PropOp53
 70
     1
102
RTVSPost2010Prop54
  1
strokes_ogs.tif
102
RTVSPost2010PropOp54
 70
     1
102
RTVSPost2010Prop55
280
     0
102
RTVSPost2010PropOp55
 70
     1
102
RTVSPost2010Prop56
140
1.0
102
RTVSPost2010PropOp56
 70
     1
102
RTVSPost2010Prop57
140
1.0
102
RTVSPost2010PropOp57
 70
     1
102
RTVSPropertyOp0
 70
     1
102
RTVSPropertyOp1
 70
     1
102
RTVSPropertyOp2
 70
     1
102
RTVSPropertyOp3
 70
     1
102
RTVSPropertyOp4
 70
     1
102
RTVSPropertyOp5
 70
     1
102
RTVSPropertyOp6
 70
     1
102
RTVSPropertyOp7
 70
     1
102
RTVSPropertyOp8
 70
     1
102
RTVSPropertyOp9
 70
     1
102
RTVSPropertyOp10
 70
     1
102
RTVSPropertyOp11
 70
     1
102
RTVSPropertyOp12
 70
     1
102
RTVSPropertyOp13
 70
     1
102
RTVSPropertyOp14
 70
     1
102
RTVSPropertyOp15
 70
     1
102
RTVSPropertyOp16
 70
     1
102
RTVSPropertyOp17
 70
     1
102
RTVSPropertyOp18
 70
     1
102
RTVSPropertyOp19
 70
     1
102
RTVSPropertyOp20
 70
     1
102
RTVSPropertyOp21
 70
     1
102
RTVSPropertyOp22
 70
     1
102
RTVSPropertyOp23
 70
     1
102
RTVSPropertyOp24
 70
     1
102
RTVSPropertyOp25
 70
     1
102
RTVSPropertyOp26
 70
     1
102
RTVSPropertyOp27
 70
     1
102
RTVSPropertyOp28
 70
     1
102
RTVSPropertyOp29
 70
     1
102
RTVSPropertyOp30
 70
     1
102
RTVSPropertyOp31
 70
     1
102
RTVSPropertyOp32
 70
     1
102
RTVSPropertyOp33
 70
     1
102
RTVSPropertyOp34
 70
     1
102
RTVSPropertyOp35
 70
     1
102
RTVSPropertyOp36
 70
     1
102
RTVSPropertyOp37
 70
     1
102
RTVSPropertyOp38
 70
     1
102
RTVSPropertyOp39
 70
     1
102
RTVSPropertyOp40
 70
     1
102
RTVSPropertyOp41
 70
     1
102
RTVSPropertyOp42
 70
     1
102
RTVSPropertyOp43
 70
     1
102
RTVSPropertyOp44
 70
     1
102
RTVSPropertyOp45
 70
     1
102
RTVSPropertyOp46
 70
     1
102
RTVSPropertyOp47
 70
     1
102
RTVSPropertyOp48
 70
     1
102
RTVSPropertyOp49
 70
     1
102
RTVSPropertyOp50
 70
     1
102
RTVSPropertyOp51
 70
     0
102
RTVSPropertyOp52
 70
     0
102
RTVSPropertyOp53
 70
     1
102
RTVSPropertyOp54
 70
     1
102
RTVSPropertyOp55
 70
     1
102
RTVSPropertyOp56
 70
     1
102
RTVSPropertyOp57
 70
     1
102
RTVSPropertyOp58
 70
     1
102
RTVSPropertyOp59
 70
     1
102
RTVSPropertyOp60
 70
     1
102
RTVSPropertyOp61
 70
     1
102
RTVSPropertyOp62
 70
     1
  0
XRECORD
  5
18ED
102
{ACAD_REACTORS
330
18EC
102
}
330
18EC
100
AcDbXrecord
280
     1
102
RTVSPost2010Prop28
280
     0
102
RTVSPost2010PropOp28
 70
     1
102
RTVSPost2010Prop29
280
     1
102
RTVSPost2010PropOp29
 70
     1
102
RTVSPost2010Prop30
280
     1
102
RTVSPost2010PropOp30
 70
     1
102
RTVSPost2010Prop31
280
     0
102
RTVSPost2010PropOp31
 70
     1
102
RTVSPost2010Prop32
280
     0
102
RTVSPost2010PropOp32
 70
     1
102
RTVSPost2010Prop33
280
     0
102
RTVSPost2010PropOp33
 70
     1
102
RTVSPost2010Prop34
280
     0
102
RTVSPost2010PropOp34
 70
     1
102
RTVSPost2010Prop35
280
     0
102
RTVSPost2010PropOp35
 70
     1
102
RTVSPost2010Prop36
280
     0
102
RTVSPost2010PropOp36
 70
     1
102
RTVSPost2010Prop37
 90
       50
102
RTVSPost2010PropOp37
 70
     1
102
RTVSPost2010Prop38
140
0.0
102
RTVSPost2010PropOp38
 70
     1
102
RTVSPost2010Prop39
140
1.0
102
RTVSPost2010PropOp39
 70
     1
102
RTVSPost2010Prop40
 90
        0
102
RTVSPost2010PropOp40
 70
     1
102
RTVSPost2010Prop41ColorIndex
 90
       18
102
RTVSPost2010Prop41ColorRGB
 90
        0
102
RTVSPost2010PropOp41
 70
     1
102
RTVSPost2010Prop42
 90
       50
102
RTVSPost2010PropOp42
 70
     1
102
RTVSPost2010Prop43
 90
        3
102
RTVSPost2010PropOp43
 70
     1
102
RTVSPost2010Prop44ColorIndex
 90
        5
102
RTVSPost2010Prop44ColorRGB
 90
      255
102
RTVSPost2010PropOp44
 70
     1
102
RTVSPost2010Prop45
280
     0
102
RTVSPost2010PropOp45
 70
     1
102
RTVSPost2010Prop46
 90
       50
102
RTVSPost2010PropOp46
 70
     1
102
RTVSPost2010Prop47
 90
       50
102
RTVSPost2010PropOp47
 70
     1
102
RTVSPost2010Prop48
 90
       50
102
RTVSPost2010PropOp48
 70
     1
102
RTVSPost2010Prop49
280
     0
102
RTVSPost2010PropOp49
 70
     1
102
RTVSPost2010Prop50
 90
       50
102
RTVSPost2010PropOp50
 70
     1
102
RTVSPost2010Prop51ColorIndex
 90
      256
102
RTVSPost2010Prop51ColorRGB
 90
-16777216
102
RTVSPost2010PropOp51
 70
     0
102
RTVSPost2010Prop52
140
1.0
102
RTVSPost2010PropOp52
 70
     0
102
RTVSPost2010Prop53
 90
        2
102
RTVSPost2010PropOp53
 70
     1
102
RTVSPost2010Prop54
  1
strokes_ogs.tif
102
RTVSPost2010PropOp54
 70
     1
102
RTVSPost2010Prop55
280
     0
102
RTVSPost2010PropOp55
 70
     1
102
RTVSPost2010Prop56
140
1.0
102
RTVSPost2010PropOp56
 70
     1
102
RTVSPost2010Prop57
140
1.0
102
RTVSPost2010PropOp57
 70
     1
102
RTVSPropertyOp0
 70
     1
102
RTVSPropertyOp1
 70
     1
102
RTVSPropertyOp2
 70
     1
102
RTVSPropertyOp3
 70
     1
102
RTVSPropertyOp4
 70
     1
102
RTVSPropertyOp5
 70
     1
102
RTVSPropertyOp6
 70
     1
102
RTVSPropertyOp7
 70
     1
102
RTVSPropertyOp8
 70
     1
102
RTVSPropertyOp9
 70
     1
102
RTVSPropertyOp10
 70
     1
102
RTVSPropertyOp11
 70
     1
102
RTVSPropertyOp12
 70
     1
102
RTVSPropertyOp13
 70
     1
102
RTVSPropertyOp14
 70
     1
102
RTVSPropertyOp15
 70
     1
102
RTVSPropertyOp16
 70
     1
102
RTVSPropertyOp17
 70
     1
102
RTVSPropertyOp18
 70
     1
102
RTVSPropertyOp19
 70
     1
102
RTVSPropertyOp20
 70
     1
102
RTVSPropertyOp21
 70
     1
102
RTVSPropertyOp22
 70
     1
102
RTVSPropertyOp23
 70
     1
102
RTVSPropertyOp24
 70
     1
102
RTVSPropertyOp25
 70
     1
102
RTVSPropertyOp26
 70
     1
102
RTVSPropertyOp27
 70
     1
102
RTVSPropertyOp28
 70
     1
102
RTVSPropertyOp29
 70
     1
102
RTVSPropertyOp30
 70
     1
102
RTVSPropertyOp31
 70
     1
102
RTVSPropertyOp32
 70
     1
102
RTVSPropertyOp33
 70
     1
102
RTVSPropertyOp34
 70
     1
102
RTVSPropertyOp35
 70
     1
102
RTVSPropertyOp36
 70
     1
102
RTVSPropertyOp37
 70
     1
102
RTVSPropertyOp38
 70
     1
102
RTVSPropertyOp39
 70
     1
102
RTVSPropertyOp40
 70
     1
102
RTVSPropertyOp41
 70
     1
102
RTVSPropertyOp42
 70
     1
102
RTVSPropertyOp43
 70
     1
102
RTVSPropertyOp44
 70
     1
102
RTVSPropertyOp45
 70
     1
102
RTVSPropertyOp46
 70
     1
102
RTVSPropertyOp47
 70
     1
102
RTVSPropertyOp48
 70
     1
102
RTVSPropertyOp49
 70
     1
102
RTVSPropertyOp50
 70
     1
102
RTVSPropertyOp51
 70
     0
102
RTVSPropertyOp52
 70
     0
102
RTVSPropertyOp53
 70
     1
102
RTVSPropertyOp54
 70
     1
102
RTVSPropertyOp55
 70
     1
102
RTVSPropertyOp56
 70
     1
102
RTVSPropertyOp57
 70
     1
102
RTVSPropertyOp58
 70
     1
102
RTVSPropertyOp59
 70
     1
102
RTVSPropertyOp60
 70
     1
102
RTVSPropertyOp61
 70
     1
102
RTVSPropertyOp62
 70
     1
  0
XRECORD
  5
18EB
102
{ACAD_REACTORS
330
18EA
102
}
330
18EA
100
AcDbXrecord
280
     1
102
RTVSPost2010Prop28
280
     0
102
RTVSPost2010PropOp28
 70
     1
102
RTVSPost2010Prop29
280
     1
102
RTVSPost2010PropOp29
 70
     1
102
RTVSPost2010Prop30
280
     1
102
RTVSPost2010PropOp30
 70
     1
102
RTVSPost2010Prop31
280
     0
102
RTVSPost2010PropOp31
 70
     1
102
RTVSPost2010Prop32
280
     0
102
RTVSPost2010PropOp32
 70
     1
102
RTVSPost2010Prop33
280
     0
102
RTVSPost2010PropOp33
 70
     1
102
RTVSPost2010Prop34
280
     0
102
RTVSPost2010PropOp34
 70
     1
102
RTVSPost2010Prop35
280
     0
102
RTVSPost2010PropOp35
 70
     1
102
RTVSPost2010Prop36
280
     0
102
RTVSPost2010PropOp36
 70
     1
102
RTVSPost2010Prop37
 90
       50
102
RTVSPost2010PropOp37
 70
     1
102
RTVSPost2010Prop38
140
0.0
102
RTVSPost2010PropOp38
 70
     1
102
RTVSPost2010Prop39
140
1.0
102
RTVSPost2010PropOp39
 70
     1
102
RTVSPost2010Prop40
 90
        0
102
RTVSPost2010PropOp40
 70
     1
102
RTVSPost2010Prop41ColorIndex
 90
       18
102
RTVSPost2010Prop41ColorRGB
 90
        0
102
RTVSPost2010PropOp41
 70
     1
102
RTVSPost2010Prop42
 90
       50
102
RTVSPost2010PropOp42
 70
     1
102
RTVSPost2010Prop43
 90
        3
102
RTVSPost2010PropOp43
 70
     1
102
RTVSPost2010Prop44ColorIndex
 90
        5
102
RTVSPost2010Prop44ColorRGB
 90
      255
102
RTVSPost2010PropOp44
 70
     1
102
RTVSPost2010Prop45
280
     0
102
RTVSPost2010PropOp45
 70
     1
102
RTVSPost2010Prop46
 90
       50
102
RTVSPost2010PropOp46
 70
     1
102
RTVSPost2010Prop47
 90
       50
102
RTVSPost2010PropOp47
 70
     1
102
RTVSPost2010Prop48
 90
       50
102
RTVSPost2010PropOp48
 70
     1
102
RTVSPost2010Prop49
280
     0
102
RTVSPost2010PropOp49
 70
     1
102
RTVSPost2010Prop50
 90
       50
102
RTVSPost2010PropOp50
 70
     1
102
RTVSPost2010Prop51ColorIndex
 90
      256
102
RTVSPost2010Prop51ColorRGB
 90
-16777216
102
RTVSPost2010PropOp51
 70
     0
102
RTVSPost2010Prop52
140
1.0
102
RTVSPost2010PropOp52
 70
     0
102
RTVSPost2010Prop53
 90
        2
102
RTVSPost2010PropOp53
 70
     1
102
RTVSPost2010Prop54
  1
strokes_ogs.tif
102
RTVSPost2010PropOp54
 70
     1
102
RTVSPost2010Prop55
280
     0
102
RTVSPost2010PropOp55
 70
     1
102
RTVSPost2010Prop56
140
1.0
102
RTVSPost2010PropOp56
 70
     1
102
RTVSPost2010Prop57
140
1.0
102
RTVSPost2010PropOp57
 70
     1
102
RTVSPropertyOp0
 70
     1
102
RTVSPropertyOp1
 70
     1
102
RTVSPropertyOp2
 70
     1
102
RTVSPropertyOp3
 70
     1
102
RTVSPropertyOp4
 70
     1
102
RTVSPropertyOp5
 70
     1
102
RTVSPropertyOp6
 70
     1
102
RTVSPropertyOp7
 70
     1
102
RTVSPropertyOp8
 70
     1
102
RTVSPropertyOp9
 70
     1
102
RTVSPropertyOp10
 70
     1
102
RTVSPropertyOp11
 70
     1
102
RTVSPropertyOp12
 70
     1
102
RTVSPropertyOp13
 70
     1
102
RTVSPropertyOp14
 70
     1
102
RTVSPropertyOp15
 70
     1
102
RTVSPropertyOp16
 70
     1
102
RTVSPropertyOp17
 70
     1
102
RTVSPropertyOp18
 70
     1
102
RTVSPropertyOp19
 70
     1
102
RTVSPropertyOp20
 70
     1
102
RTVSPropertyOp21
 70
     1
102
RTVSPropertyOp22
 70
     1
102
RTVSPropertyOp23
 70
     1
102
RTVSPropertyOp24
 70
     1
102
RTVSPropertyOp25
 70
     1
102
RTVSPropertyOp26
 70
     1
102
RTVSPropertyOp27
 70
     1
102
RTVSPropertyOp28
 70
     1
102
RTVSPropertyOp29
 70
     1
102
RTVSPropertyOp30
 70
     1
102
RTVSPropertyOp31
 70
     1
102
RTVSPropertyOp32
 70
     1
102
RTVSPropertyOp33
 70
     1
102
RTVSPropertyOp34
 70
     1
102
RTVSPropertyOp35
 70
     1
102
RTVSPropertyOp36
 70
     1
102
RTVSPropertyOp37
 70
     1
102
RTVSPropertyOp38
 70
     1
102
RTVSPropertyOp39
 70
     1
102
RTVSPropertyOp40
 70
     1
102
RTVSPropertyOp41
 70
     1
102
RTVSPropertyOp42
 70
     1
102
RTVSPropertyOp43
 70
     1
102
RTVSPropertyOp44
 70
     1
102
RTVSPropertyOp45
 70
     1
102
RTVSPropertyOp46
 70
     1
102
RTVSPropertyOp47
 70
     1
102
RTVSPropertyOp48
 70
     1
102
RTVSPropertyOp49
 70
     1
102
RTVSPropertyOp50
 70
     1
102
RTVSPropertyOp51
 70
     0
102
RTVSPropertyOp52
 70
     0
102
RTVSPropertyOp53
 70
     1
102
RTVSPropertyOp54
 70
     1
102
RTVSPropertyOp55
 70
     1
102
RTVSPropertyOp56
 70
     1
102
RTVSPropertyOp57
 70
     1
102
RTVSPropertyOp58
 70
     1
102
RTVSPropertyOp59
 70
     1
102
RTVSPropertyOp60
 70
     1
102
RTVSPropertyOp61
 70
     1
102
RTVSPropertyOp62
 70
     1
  0
XRECORD
  5
18E7
102
{ACAD_REACTORS
330
18E6
102
}
330
18E6
100
AcDbXrecord
280
     1
102
RTVSPost2010Prop28
280
     0
102
RTVSPost2010PropOp28
 70
     1
102
RTVSPost2010Prop29
280
     1
102
RTVSPost2010PropOp29
 70
     1
102
RTVSPost2010Prop30
280
     1
102
RTVSPost2010PropOp30
 70
     1
102
RTVSPost2010Prop31
280
     0
102
RTVSPost2010PropOp31
 70
     1
102
RTVSPost2010Prop32
280
     0
102
RTVSPost2010PropOp32
 70
     1
102
RTVSPost2010Prop33
280
     0
102
RTVSPost2010PropOp33
 70
     1
102
RTVSPost2010Prop34
280
     0
102
RTVSPost2010PropOp34
 70
     1
102
RTVSPost2010Prop35
280
     0
102
RTVSPost2010PropOp35
 70
     1
102
RTVSPost2010Prop36
280
     0
102
RTVSPost2010PropOp36
 70
     1
102
RTVSPost2010Prop37
 90
       50
102
RTVSPost2010PropOp37
 70
     1
102
RTVSPost2010Prop38
140
0.0
102
RTVSPost2010PropOp38
 70
     1
102
RTVSPost2010Prop39
140
1.0
102
RTVSPost2010PropOp39
 70
     1
102
RTVSPost2010Prop40
 90
        0
102
RTVSPost2010PropOp40
 70
     1
102
RTVSPost2010Prop41ColorIndex
 90
       18
102
RTVSPost2010Prop41ColorRGB
 90
        0
102
RTVSPost2010PropOp41
 70
     1
102
RTVSPost2010Prop42
 90
       50
102
RTVSPost2010PropOp42
 70
     1
102
RTVSPost2010Prop43
 90
        3
102
RTVSPost2010PropOp43
 70
     1
102
RTVSPost2010Prop44ColorIndex
 90
        5
102
RTVSPost2010Prop44ColorRGB
 90
      255
102
RTVSPost2010PropOp44
 70
     1
102
RTVSPost2010Prop45
280
     0
102
RTVSPost2010PropOp45
 70
     1
102
RTVSPost2010Prop46
 90
       50
102
RTVSPost2010PropOp46
 70
     1
102
RTVSPost2010Prop47
 90
       50
102
RTVSPost2010PropOp47
 70
     1
102
RTVSPost2010Prop48
 90
       50
102
RTVSPost2010PropOp48
 70
     1
102
RTVSPost2010Prop49
280
     0
102
RTVSPost2010PropOp49
 70
     1
102
RTVSPost2010Prop50
 90
       50
102
RTVSPost2010PropOp50
 70
     1
102
RTVSPost2010Prop51ColorIndex
 90
      256
102
RTVSPost2010Prop51ColorRGB
 90
-16777216
102
RTVSPost2010PropOp51
 70
     0
102
RTVSPost2010Prop52
140
1.0
102
RTVSPost2010PropOp52
 70
     0
102
RTVSPost2010Prop53
 90
        2
102
RTVSPost2010PropOp53
 70
     1
102
RTVSPost2010Prop54
  1
strokes_ogs.tif
102
RTVSPost2010PropOp54
 70
     1
102
RTVSPost2010Prop55
280
     0
102
RTVSPost2010PropOp55
 70
     1
102
RTVSPost2010Prop56
140
1.0
102
RTVSPost2010PropOp56
 70
     1
102
RTVSPost2010Prop57
140
1.0
102
RTVSPost2010PropOp57
 70
     1
102
RTVSPropertyOp0
 70
     1
102
RTVSPropertyOp1
 70
     1
102
RTVSPropertyOp2
 70
     1
102
RTVSPropertyOp3
 70
     1
102
RTVSPropertyOp4
 70
     1
102
RTVSPropertyOp5
 70
     1
102
RTVSPropertyOp6
 70
     1
102
RTVSPropertyOp7
 70
     1
102
RTVSPropertyOp8
 70
     1
102
RTVSPropertyOp9
 70
     1
102
RTVSPropertyOp10
 70
     1
102
RTVSPropertyOp11
 70
     1
102
RTVSPropertyOp12
 70
     1
102
RTVSPropertyOp13
 70
     1
102
RTVSPropertyOp14
 70
     1
102
RTVSPropertyOp15
 70
     1
102
RTVSPropertyOp16
 70
     1
102
RTVSPropertyOp17
 70
     1
102
RTVSPropertyOp18
 70
     1
102
RTVSPropertyOp19
 70
     1
102
RTVSPropertyOp20
 70
     1
102
RTVSPropertyOp21
 70
     1
102
RTVSPropertyOp22
 70
     1
102
RTVSPropertyOp23
 70
     1
102
RTVSPropertyOp24
 70
     1
102
RTVSPropertyOp25
 70
     1
102
RTVSPropertyOp26
 70
     1
102
RTVSPropertyOp27
 70
     1
102
RTVSPropertyOp28
 70
     1
102
RTVSPropertyOp29
 70
     1
102
RTVSPropertyOp30
 70
     1
102
RTVSPropertyOp31
 70
     1
102
RTVSPropertyOp32
 70
     1
102
RTVSPropertyOp33
 70
     1
102
RTVSPropertyOp34
 70
     1
102
RTVSPropertyOp35
 70
     1
102
RTVSPropertyOp36
 70
     1
102
RTVSPropertyOp37
 70
     1
102
RTVSPropertyOp38
 70
     1
102
RTVSPropertyOp39
 70
     1
102
RTVSPropertyOp40
 70
     1
102
RTVSPropertyOp41
 70
     1
102
RTVSPropertyOp42
 70
     1
102
RTVSPropertyOp43
 70
     1
102
RTVSPropertyOp44
 70
     1
102
RTVSPropertyOp45
 70
     1
102
RTVSPropertyOp46
 70
     1
102
RTVSPropertyOp47
 70
     1
102
RTVSPropertyOp48
 70
     1
102
RTVSPropertyOp49
 70
     1
102
RTVSPropertyOp50
 70
     1
102
RTVSPropertyOp51
 70
     0
102
RTVSPropertyOp52
 70
     0
102
RTVSPropertyOp53
 70
     1
102
RTVSPropertyOp54
 70
     1
102
RTVSPropertyOp55
 70
     1
102
RTVSPropertyOp56
 70
     1
102
RTVSPropertyOp57
 70
     1
102
RTVSPropertyOp58
 70
     1
102
RTVSPropertyOp59
 70
     1
102
RTVSPropertyOp60
 70
     1
102
RTVSPropertyOp61
 70
     1
102
RTVSPropertyOp62
 70
     1
  0
XRECORD
  5
18F5
102
{ACAD_REACTORS
330
18F4
102
}
330
18F4
100
AcDbXrecord
280
     1
102
RTVSPost2010Prop28
280
     0
102
RTVSPost2010PropOp28
 70
     1
102
RTVSPost2010Prop29
280
     1
102
RTVSPost2010PropOp29
 70
     1
102
RTVSPost2010Prop30
280
     1
102
RTVSPost2010PropOp30
 70
     1
102
RTVSPost2010Prop31
280
     0
102
RTVSPost2010PropOp31
 70
     1
102
RTVSPost2010Prop32
280
     0
102
RTVSPost2010PropOp32
 70
     1
102
RTVSPost2010Prop33
280
     0
102
RTVSPost2010PropOp33
 70
     1
102
RTVSPost2010Prop34
280
     0
102
RTVSPost2010PropOp34
 70
     1
102
RTVSPost2010Prop35
280
     0
102
RTVSPost2010PropOp35
 70
     1
102
RTVSPost2010Prop36
280
     0
102
RTVSPost2010PropOp36
 70
     1
102
RTVSPost2010Prop37
 90
       50
102
RTVSPost2010PropOp37
 70
     1
102
RTVSPost2010Prop38
140
0.0
102
RTVSPost2010PropOp38
 70
     1
102
RTVSPost2010Prop39
140
1.0
102
RTVSPost2010PropOp39
 70
     1
102
RTVSPost2010Prop40
 90
        0
102
RTVSPost2010PropOp40
 70
     1
102
RTVSPost2010Prop41ColorIndex
 90
       18
102
RTVSPost2010Prop41ColorRGB
 90
        0
102
RTVSPost2010PropOp41
 70
     1
102
RTVSPost2010Prop42
 90
       50
102
RTVSPost2010PropOp42
 70
     1
102
RTVSPost2010Prop43
 90
        3
102
RTVSPost2010PropOp43
 70
     1
102
RTVSPost2010Prop44ColorIndex
 90
        5
102
RTVSPost2010Prop44ColorRGB
 90
      255
102
RTVSPost2010PropOp44
 70
     1
102
RTVSPost2010Prop45
280
     0
102
RTVSPost2010PropOp45
 70
     1
102
RTVSPost2010Prop46
 90
       50
102
RTVSPost2010PropOp46
 70
     1
102
RTVSPost2010Prop47
 90
       50
102
RTVSPost2010PropOp47
 70
     1
102
RTVSPost2010Prop48
 90
       50
102
RTVSPost2010PropOp48
 70
     1
102
RTVSPost2010Prop49
280
     0
102
RTVSPost2010PropOp49
 70
     1
102
RTVSPost2010Prop50
 90
       50
102
RTVSPost2010PropOp50
 70
     1
102
RTVSPost2010Prop51ColorIndex
 90
      256
102
RTVSPost2010Prop51ColorRGB
 90
-16777216
102
RTVSPost2010PropOp51
 70
     0
102
RTVSPost2010Prop52
140
1.0
102
RTVSPost2010PropOp52
 70
     0
102
RTVSPost2010Prop53
 90
        2
102
RTVSPost2010PropOp53
 70
     1
102
RTVSPost2010Prop54
  1
strokes_ogs.tif
102
RTVSPost2010PropOp54
 70
     1
102
RTVSPost2010Prop55
280
     0
102
RTVSPost2010PropOp55
 70
     1
102
RTVSPost2010Prop56
140
1.0
102
RTVSPost2010PropOp56
 70
     1
102
RTVSPost2010Prop57
140
1.0
102
RTVSPost2010PropOp57
 70
     1
102
RTVSPropertyOp0
 70
     1
102
RTVSPropertyOp1
 70
     1
102
RTVSPropertyOp2
 70
     1
102
RTVSPropertyOp3
 70
     1
102
RTVSPropertyOp4
 70
     1
102
RTVSPropertyOp5
 70
     1
102
RTVSPropertyOp6
 70
     1
102
RTVSPropertyOp7
 70
     1
102
RTVSPropertyOp8
 70
     1
102
RTVSPropertyOp9
 70
     1
102
RTVSPropertyOp10
 70
     1
102
RTVSPropertyOp11
 70
     1
102
RTVSPropertyOp12
 70
     1
102
RTVSPropertyOp13
 70
     1
102
RTVSPropertyOp14
 70
     1
102
RTVSPropertyOp15
 70
     1
102
RTVSPropertyOp16
 70
     1
102
RTVSPropertyOp17
 70
     1
102
RTVSPropertyOp18
 70
     1
102
RTVSPropertyOp19
 70
     1
102
RTVSPropertyOp20
 70
     1
102
RTVSPropertyOp21
 70
     1
102
RTVSPropertyOp22
 70
     1
102
RTVSPropertyOp23
 70
     1
102
RTVSPropertyOp24
 70
     1
102
RTVSPropertyOp25
 70
     1
102
RTVSPropertyOp26
 70
     1
102
RTVSPropertyOp27
 70
     1
102
RTVSPropertyOp28
 70
     1
102
RTVSPropertyOp29
 70
     1
102
RTVSPropertyOp30
 70
     1
102
RTVSPropertyOp31
 70
     1
102
RTVSPropertyOp32
 70
     1
102
RTVSPropertyOp33
 70
     1
102
RTVSPropertyOp34
 70
     1
102
RTVSPropertyOp35
 70
     1
102
RTVSPropertyOp36
 70
     1
102
RTVSPropertyOp37
 70
     1
102
RTVSPropertyOp38
 70
     1
102
RTVSPropertyOp39
 70
     1
102
RTVSPropertyOp40
 70
     1
102
RTVSPropertyOp41
 70
     1
102
RTVSPropertyOp42
 70
     1
102
RTVSPropertyOp43
 70
     1
102
RTVSPropertyOp44
 70
     1
102
RTVSPropertyOp45
 70
     1
102
RTVSPropertyOp46
 70
     1
102
RTVSPropertyOp47
 70
     1
102
RTVSPropertyOp48
 70
     1
102
RTVSPropertyOp49
 70
     1
102
RTVSPropertyOp50
 70
     1
102
RTVSPropertyOp51
 70
     0
102
RTVSPropertyOp52
 70
     0
102
RTVSPropertyOp53
 70
     1
102
RTVSPropertyOp54
 70
     1
102
RTVSPropertyOp55
 70
     1
102
RTVSPropertyOp56
 70
     1
102
RTVSPropertyOp57
 70
     1
102
RTVSPropertyOp58
 70
     1
102
RTVSPropertyOp59
 70
     1
102
RTVSPropertyOp60
 70
     1
102
RTVSPropertyOp61
 70
     1
102
RTVSPropertyOp62
 70
     1
  0
XRECORD
  5
18FD
102
{ACAD_REACTORS
330
18FC
102
}
330
18FC
100
AcDbXrecord
280
     1
102
RTVSPost2010Prop28
280
     0
102
RTVSPost2010PropOp28
 70
     1
102
RTVSPost2010Prop29
280
     1
102
RTVSPost2010PropOp29
 70
     1
102
RTVSPost2010Prop30
280
     1
102
RTVSPost2010PropOp30
 70
     1
102
RTVSPost2010Prop31
280
     0
102
RTVSPost2010PropOp31
 70
     1
102
RTVSPost2010Prop32
280
     0
102
RTVSPost2010PropOp32
 70
     1
102
RTVSPost2010Prop33
280
     0
102
RTVSPost2010PropOp33
 70
     1
102
RTVSPost2010Prop34
280
     0
102
RTVSPost2010PropOp34
 70
     1
102
RTVSPost2010Prop35
280
     0
102
RTVSPost2010PropOp35
 70
     1
102
RTVSPost2010Prop36
280
     0
102
RTVSPost2010PropOp36
 70
     1
102
RTVSPost2010Prop37
 90
       50
102
RTVSPost2010PropOp37
 70
     1
102
RTVSPost2010Prop38
140
0.0
102
RTVSPost2010PropOp38
 70
     1
102
RTVSPost2010Prop39
140
1.0
102
RTVSPost2010PropOp39
 70
     1
102
RTVSPost2010Prop40
 90
        0
102
RTVSPost2010PropOp40
 70
     1
102
RTVSPost2010Prop41ColorIndex
 90
       18
102
RTVSPost2010Prop41ColorRGB
 90
        0
102
RTVSPost2010PropOp41
 70
     1
102
RTVSPost2010Prop42
 90
       50
102
RTVSPost2010PropOp42
 70
     1
102
RTVSPost2010Prop43
 90
        3
102
RTVSPost2010PropOp43
 70
     1
102
RTVSPost2010Prop44ColorIndex
 90
        5
102
RTVSPost2010Prop44ColorRGB
 90
      255
102
RTVSPost2010PropOp44
 70
     1
102
RTVSPost2010Prop45
280
     0
102
RTVSPost2010PropOp45
 70
     1
102
RTVSPost2010Prop46
 90
       50
102
RTVSPost2010PropOp46
 70
     1
102
RTVSPost2010Prop47
 90
       50
102
RTVSPost2010PropOp47
 70
     1
102
RTVSPost2010Prop48
 90
       50
102
RTVSPost2010PropOp48
 70
     1
102
RTVSPost2010Prop49
280
     0
102
RTVSPost2010PropOp49
 70
     1
102
RTVSPost2010Prop50
 90
       50
102
RTVSPost2010PropOp50
 70
     1
102
RTVSPost2010Prop51ColorIndex
 90
      256
102
RTVSPost2010Prop51ColorRGB
 90
-16777216
102
RTVSPost2010PropOp51
 70
     0
102
RTVSPost2010Prop52
140
1.0
102
RTVSPost2010PropOp52
 70
     0
102
RTVSPost2010Prop53
 90
        2
102
RTVSPost2010PropOp53
 70
     1
102
RTVSPost2010Prop54
  1
strokes_ogs.tif
102
RTVSPost2010PropOp54
 70
     1
102
RTVSPost2010Prop55
280
     0
102
RTVSPost2010PropOp55
 70
     1
102
RTVSPost2010Prop56
140
1.0
102
RTVSPost2010PropOp56
 70
     1
102
RTVSPost2010Prop57
140
1.0
102
RTVSPost2010PropOp57
 70
     1
102
RTVSPropertyOp0
 70
     1
102
RTVSPropertyOp1
 70
     1
102
RTVSPropertyOp2
 70
     1
102
RTVSPropertyOp3
 70
     1
102
RTVSPropertyOp4
 70
     1
102
RTVSPropertyOp5
 70
     1
102
RTVSPropertyOp6
 70
     1
102
RTVSPropertyOp7
 70
     1
102
RTVSPropertyOp8
 70
     1
102
RTVSPropertyOp9
 70
     1
102
RTVSPropertyOp10
 70
     1
102
RTVSPropertyOp11
 70
     1
102
RTVSPropertyOp12
 70
     1
102
RTVSPropertyOp13
 70
     1
102
RTVSPropertyOp14
 70
     1
102
RTVSPropertyOp15
 70
     1
102
RTVSPropertyOp16
 70
     1
102
RTVSPropertyOp17
 70
     1
102
RTVSPropertyOp18
 70
     1
102
RTVSPropertyOp19
 70
     1
102
RTVSPropertyOp20
 70
     1
102
RTVSPropertyOp21
 70
     1
102
RTVSPropertyOp22
 70
     1
102
RTVSPropertyOp23
 70
     1
102
RTVSPropertyOp24
 70
     1
102
RTVSPropertyOp25
 70
     1
102
RTVSPropertyOp26
 70
     1
102
RTVSPropertyOp27
 70
     1
102
RTVSPropertyOp28
 70
     1
102
RTVSPropertyOp29
 70
     1
102
RTVSPropertyOp30
 70
     1
102
RTVSPropertyOp31
 70
     1
102
RTVSPropertyOp32
 70
     1
102
RTVSPropertyOp33
 70
     1
102
RTVSPropertyOp34
 70
     1
102
RTVSPropertyOp35
 70
     1
102
RTVSPropertyOp36
 70
     1
102
RTVSPropertyOp37
 70
     1
102
RTVSPropertyOp38
 70
     1
102
RTVSPropertyOp39
 70
     1
102
RTVSPropertyOp40
 70
     1
102
RTVSPropertyOp41
 70
     1
102
RTVSPropertyOp42
 70
     1
102
RTVSPropertyOp43
 70
     1
102
RTVSPropertyOp44
 70
     1
102
RTVSPropertyOp45
 70
     1
102
RTVSPropertyOp46
 70
     1
102
RTVSPropertyOp47
 70
     1
102
RTVSPropertyOp48
 70
     1
102
RTVSPropertyOp49
 70
     1
102
RTVSPropertyOp50
 70
     1
102
RTVSPropertyOp51
 70
     0
102
RTVSPropertyOp52
 70
     0
102
RTVSPropertyOp53
 70
     1
102
RTVSPropertyOp54
 70
     1
102
RTVSPropertyOp55
 70
     1
102
RTVSPropertyOp56
 70
     1
102
RTVSPropertyOp57
 70
     1
102
RTVSPropertyOp58
 70
     1
102
RTVSPropertyOp59
 70
     1
102
RTVSPropertyOp60
 70
     1
102
RTVSPropertyOp61
 70
     1
102
RTVSPropertyOp62
 70
     1
  0
XRECORD
  5
18EF
102
{ACAD_REACTORS
330
18EE
102
}
330
18EE
100
AcDbXrecord
280
     1
102
RTVSPost2010Prop28
280
     0
102
RTVSPost2010PropOp28
 70
     1
102
RTVSPost2010Prop29
280
     1
102
RTVSPost2010PropOp29
 70
     1
102
RTVSPost2010Prop30
280
     1
102
RTVSPost2010PropOp30
 70
     1
102
RTVSPost2010Prop31
280
     0
102
RTVSPost2010PropOp31
 70
     1
102
RTVSPost2010Prop32
280
     0
102
RTVSPost2010PropOp32
 70
     1
102
RTVSPost2010Prop33
280
     0
102
RTVSPost2010PropOp33
 70
     1
102
RTVSPost2010Prop34
280
     0
102
RTVSPost2010PropOp34
 70
     1
102
RTVSPost2010Prop35
280
     0
102
RTVSPost2010PropOp35
 70
     1
102
RTVSPost2010Prop36
280
     0
102
RTVSPost2010PropOp36
 70
     1
102
RTVSPost2010Prop37
 90
       50
102
RTVSPost2010PropOp37
 70
     1
102
RTVSPost2010Prop38
140
0.0
102
RTVSPost2010PropOp38
 70
     1
102
RTVSPost2010Prop39
140
1.0
102
RTVSPost2010PropOp39
 70
     1
102
RTVSPost2010Prop40
 90
        0
102
RTVSPost2010PropOp40
 70
     1
102
RTVSPost2010Prop41ColorIndex
 90
       18
102
RTVSPost2010Prop41ColorRGB
 90
        0
102
RTVSPost2010PropOp41
 70
     1
102
RTVSPost2010Prop42
 90
       50
102
RTVSPost2010PropOp42
 70
     1
102
RTVSPost2010Prop43
 90
        3
102
RTVSPost2010PropOp43
 70
     1
102
RTVSPost2010Prop44ColorIndex
 90
        5
102
RTVSPost2010Prop44ColorRGB
 90
      255
102
RTVSPost2010PropOp44
 70
     1
102
RTVSPost2010Prop45
280
     0
102
RTVSPost2010PropOp45
 70
     1
102
RTVSPost2010Prop46
 90
       50
102
RTVSPost2010PropOp46
 70
     1
102
RTVSPost2010Prop47
 90
       50
102
RTVSPost2010PropOp47
 70
     1
102
RTVSPost2010Prop48
 90
       50
102
RTVSPost2010PropOp48
 70
     1
102
RTVSPost2010Prop49
280
     0
102
RTVSPost2010PropOp49
 70
     1
102
RTVSPost2010Prop50
 90
       50
102
RTVSPost2010PropOp50
 70
     1
102
RTVSPost2010Prop51ColorIndex
 90
      256
102
RTVSPost2010Prop51ColorRGB
 90
-16777216
102
RTVSPost2010PropOp51
 70
     0
102
RTVSPost2010Prop52
140
1.0
102
RTVSPost2010PropOp52
 70
     0
102
RTVSPost2010Prop53
 90
        2
102
RTVSPost2010PropOp53
 70
     1
102
RTVSPost2010Prop54
  1
strokes_ogs.tif
102
RTVSPost2010PropOp54
 70
     1
102
RTVSPost2010Prop55
280
     0
102
RTVSPost2010PropOp55
 70
     1
102
RTVSPost2010Prop56
140
1.0
102
RTVSPost2010PropOp56
 70
     1
102
RTVSPost2010Prop57
140
1.0
102
RTVSPost2010PropOp57
 70
     1
102
RTVSPropertyOp0
 70
     1
102
RTVSPropertyOp1
 70
     1
102
RTVSPropertyOp2
 70
     1
102
RTVSPropertyOp3
 70
     1
102
RTVSPropertyOp4
 70
     1
102
RTVSPropertyOp5
 70
     1
102
RTVSPropertyOp6
 70
     1
102
RTVSPropertyOp7
 70
     1
102
RTVSPropertyOp8
 70
     1
102
RTVSPropertyOp9
 70
     1
102
RTVSPropertyOp10
 70
     1
102
RTVSPropertyOp11
 70
     1
102
RTVSPropertyOp12
 70
     1
102
RTVSPropertyOp13
 70
     1
102
RTVSPropertyOp14
 70
     1
102
RTVSPropertyOp15
 70
     1
102
RTVSPropertyOp16
 70
     1
102
RTVSPropertyOp17
 70
     1
102
RTVSPropertyOp18
 70
     1
102
RTVSPropertyOp19
 70
     1
102
RTVSPropertyOp20
 70
     1
102
RTVSPropertyOp21
 70
     1
102
RTVSPropertyOp22
 70
     1
102
RTVSPropertyOp23
 70
     1
102
RTVSPropertyOp24
 70
     1
102
RTVSPropertyOp25
 70
     1
102
RTVSPropertyOp26
 70
     1
102
RTVSPropertyOp27
 70
     1
102
RTVSPropertyOp28
 70
     1
102
RTVSPropertyOp29
 70
     1
102
RTVSPropertyOp30
 70
     1
102
RTVSPropertyOp31
 70
     1
102
RTVSPropertyOp32
 70
     1
102
RTVSPropertyOp33
 70
     1
102
RTVSPropertyOp34
 70
     1
102
RTVSPropertyOp35
 70
     1
102
RTVSPropertyOp36
 70
     1
102
RTVSPropertyOp37
 70
     1
102
RTVSPropertyOp38
 70
     1
102
RTVSPropertyOp39
 70
     1
102
RTVSPropertyOp40
 70
     1
102
RTVSPropertyOp41
 70
     1
102
RTVSPropertyOp42
 70
     1
102
RTVSPropertyOp43
 70
     1
102
RTVSPropertyOp44
 70
     1
102
RTVSPropertyOp45
 70
     1
102
RTVSPropertyOp46
 70
     1
102
RTVSPropertyOp47
 70
     1
102
RTVSPropertyOp48
 70
     1
102
RTVSPropertyOp49
 70
     1
102
RTVSPropertyOp50
 70
     1
102
RTVSPropertyOp51
 70
     0
102
RTVSPropertyOp52
 70
     0
102
RTVSPropertyOp53
 70
     1
102
RTVSPropertyOp54
 70
     1
102
RTVSPropertyOp55
 70
     1
102
RTVSPropertyOp56
 70
     1
102
RTVSPropertyOp57
 70
     1
102
RTVSPropertyOp58
 70
     1
102
RTVSPropertyOp59
 70
     1
102
RTVSPropertyOp60
 70
     1
102
RTVSPropertyOp61
 70
     1
102
RTVSPropertyOp62
 70
     1
  0
XRECORD
  5
18F3
102
{ACAD_REACTORS
330
18F2
102
}
330
18F2
100
AcDbXrecord
280
     1
102
RTVSPost2010Prop28
280
     0
102
RTVSPost2010PropOp28
 70
     1
102
RTVSPost2010Prop29
280
     1
102
RTVSPost2010PropOp29
 70
     1
102
RTVSPost2010Prop30
280
     1
102
RTVSPost2010PropOp30
 70
     1
102
RTVSPost2010Prop31
280
     0
102
RTVSPost2010PropOp31
 70
     1
102
RTVSPost2010Prop32
280
     0
102
RTVSPost2010PropOp32
 70
     1
102
RTVSPost2010Prop33
280
     0
102
RTVSPost2010PropOp33
 70
     1
102
RTVSPost2010Prop34
280
     0
102
RTVSPost2010PropOp34
 70
     1
102
RTVSPost2010Prop35
280
     0
102
RTVSPost2010PropOp35
 70
     1
102
RTVSPost2010Prop36
280
     0
102
RTVSPost2010PropOp36
 70
     1
102
RTVSPost2010Prop37
 90
       50
102
RTVSPost2010PropOp37
 70
     1
102
RTVSPost2010Prop38
140
0.0
102
RTVSPost2010PropOp38
 70
     1
102
RTVSPost2010Prop39
140
1.0
102
RTVSPost2010PropOp39
 70
     1
102
RTVSPost2010Prop40
 90
        0
102
RTVSPost2010PropOp40
 70
     1
102
RTVSPost2010Prop41ColorIndex
 90
       18
102
RTVSPost2010Prop41ColorRGB
 90
        0
102
RTVSPost2010PropOp41
 70
     1
102
RTVSPost2010Prop42
 90
       50
102
RTVSPost2010PropOp42
 70
     1
102
RTVSPost2010Prop43
 90
        3
102
RTVSPost2010PropOp43
 70
     1
102
RTVSPost2010Prop44ColorIndex
 90
        5
102
RTVSPost2010Prop44ColorRGB
 90
      255
102
RTVSPost2010PropOp44
 70
     1
102
RTVSPost2010Prop45
280
     0
102
RTVSPost2010PropOp45
 70
     1
102
RTVSPost2010Prop46
 90
       50
102
RTVSPost2010PropOp46
 70
     1
102
RTVSPost2010Prop47
 90
       50
102
RTVSPost2010PropOp47
 70
     1
102
RTVSPost2010Prop48
 90
       50
102
RTVSPost2010PropOp48
 70
     1
102
RTVSPost2010Prop49
280
     0
102
RTVSPost2010PropOp49
 70
     1
102
RTVSPost2010Prop50
 90
       50
102
RTVSPost2010PropOp50
 70
     1
102
RTVSPost2010Prop51ColorIndex
 90
      256
102
RTVSPost2010Prop51ColorRGB
 90
-16777216
102
RTVSPost2010PropOp51
 70
     0
102
RTVSPost2010Prop52
140
1.0
102
RTVSPost2010PropOp52
 70
     0
102
RTVSPost2010Prop53
 90
        2
102
RTVSPost2010PropOp53
 70
     1
102
RTVSPost2010Prop54
  1
strokes_ogs.tif
102
RTVSPost2010PropOp54
 70
     1
102
RTVSPost2010Prop55
280
     0
102
RTVSPost2010PropOp55
 70
     1
102
RTVSPost2010Prop56
140
1.0
102
RTVSPost2010PropOp56
 70
     1
102
RTVSPost2010Prop57
140
1.0
102
RTVSPost2010PropOp57
 70
     1
102
RTVSPropertyOp0
 70
     1
102
RTVSPropertyOp1
 70
     1
102
RTVSPropertyOp2
 70
     1
102
RTVSPropertyOp3
 70
     1
102
RTVSPropertyOp4
 70
     1
102
RTVSPropertyOp5
 70
     1
102
RTVSPropertyOp6
 70
     1
102
RTVSPropertyOp7
 70
     1
102
RTVSPropertyOp8
 70
     1
102
RTVSPropertyOp9
 70
     1
102
RTVSPropertyOp10
 70
     1
102
RTVSPropertyOp11
 70
     1
102
RTVSPropertyOp12
 70
     1
102
RTVSPropertyOp13
 70
     1
102
RTVSPropertyOp14
 70
     1
102
RTVSPropertyOp15
 70
     1
102
RTVSPropertyOp16
 70
     1
102
RTVSPropertyOp17
 70
     1
102
RTVSPropertyOp18
 70
     1
102
RTVSPropertyOp19
 70
     1
102
RTVSPropertyOp20
 70
     1
102
RTVSPropertyOp21
 70
     1
102
RTVSPropertyOp22
 70
     1
102
RTVSPropertyOp23
 70
     1
102
RTVSPropertyOp24
 70
     1
102
RTVSPropertyOp25
 70
     1
102
RTVSPropertyOp26
 70
     1
102
RTVSPropertyOp27
 70
     1
102
RTVSPropertyOp28
 70
     1
102
RTVSPropertyOp29
 70
     1
102
RTVSPropertyOp30
 70
     1
102
RTVSPropertyOp31
 70
     1
102
RTVSPropertyOp32
 70
     1
102
RTVSPropertyOp33
 70
     1
102
RTVSPropertyOp34
 70
     1
102
RTVSPropertyOp35
 70
     1
102
RTVSPropertyOp36
 70
     1
102
RTVSPropertyOp37
 70
     1
102
RTVSPropertyOp38
 70
     1
102
RTVSPropertyOp39
 70
     1
102
RTVSPropertyOp40
 70
     1
102
RTVSPropertyOp41
 70
     1
102
RTVSPropertyOp42
 70
     1
102
RTVSPropertyOp43
 70
     1
102
RTVSPropertyOp44
 70
     1
102
RTVSPropertyOp45
 70
     1
102
RTVSPropertyOp46
 70
     1
102
RTVSPropertyOp47
 70
     1
102
RTVSPropertyOp48
 70
     1
102
RTVSPropertyOp49
 70
     1
102
RTVSPropertyOp50
 70
     1
102
RTVSPropertyOp51
 70
     0
102
RTVSPropertyOp52
 70
     0
102
RTVSPropertyOp53
 70
     1
102
RTVSPropertyOp54
 70
     1
102
RTVSPropertyOp55
 70
     1
102
RTVSPropertyOp56
 70
     1
102
RTVSPropertyOp57
 70
     1
102
RTVSPropertyOp58
 70
     1
102
RTVSPropertyOp59
 70
     1
102
RTVSPropertyOp60
 70
     1
102
RTVSPropertyOp61
 70
     1
102
RTVSPropertyOp62
 70
     1
  0
XRECORD
  5
1912
102
{ACAD_REACTORS
330
1911
102
}
330
1911
100
AcDbXrecord
280
     1
102
RTVSPost2010Prop28
280
     0
102
RTVSPost2010PropOp28
 70
     0
102
RTVSPost2010Prop29
280
     1
102
RTVSPost2010PropOp29
 70
     0
102
RTVSPost2010Prop30
280
     1
102
RTVSPost2010PropOp30
 70
     0
102
RTVSPost2010Prop31
280
     0
102
RTVSPost2010PropOp31
 70
     0
102
RTVSPost2010Prop32
280
     0
102
RTVSPost2010PropOp32
 70
     0
102
RTVSPost2010Prop33
280
     0
102
RTVSPost2010PropOp33
 70
     0
102
RTVSPost2010Prop34
280
     0
102
RTVSPost2010PropOp34
 70
     0
102
RTVSPost2010Prop35
280
     0
102
RTVSPost2010PropOp35
 70
     0
102
RTVSPost2010Prop36
280
     0
102
RTVSPost2010PropOp36
 70
     0
102
RTVSPost2010Prop37
 90
       50
102
RTVSPost2010PropOp37
 70
     0
102
RTVSPost2010Prop38
140
0.0
102
RTVSPost2010PropOp38
 70
     0
102
RTVSPost2010Prop39
140
1.0
102
RTVSPost2010PropOp39
 70
     0
102
RTVSPost2010Prop40
 90
        0
102
RTVSPost2010PropOp40
 70
     0
102
RTVSPost2010Prop41ColorIndex
 90
       18
102
RTVSPost2010Prop41ColorRGB
 90
        0
102
RTVSPost2010PropOp41
 70
     0
102
RTVSPost2010Prop42
 90
       50
102
RTVSPost2010PropOp42
 70
     0
102
RTVSPost2010Prop43
 90
        3
102
RTVSPost2010PropOp43
 70
     0
102
RTVSPost2010Prop44ColorIndex
 90
        5
102
RTVSPost2010Prop44ColorRGB
 90
      255
102
RTVSPost2010PropOp44
 70
     0
102
RTVSPost2010Prop45
280
     0
102
RTVSPost2010PropOp45
 70
     0
102
RTVSPost2010Prop46
 90
       50
102
RTVSPost2010PropOp46
 70
     0
102
RTVSPost2010Prop47
 90
       50
102
RTVSPost2010PropOp47
 70
     0
102
RTVSPost2010Prop48
 90
       50
102
RTVSPost2010PropOp48
 70
     0
102
RTVSPost2010Prop49
280
     0
102
RTVSPost2010PropOp49
 70
     0
102
RTVSPost2010Prop50
 90
       50
102
RTVSPost2010PropOp50
 70
     0
102
RTVSPost2010Prop51ColorIndex
 90
      256
102
RTVSPost2010Prop51ColorRGB
 90
-16777216
102
RTVSPost2010PropOp51
 70
     0
102
RTVSPost2010Prop52
140
1.0
102
RTVSPost2010PropOp52
 70
     0
102
RTVSPost2010Prop53
 90
        2
102
RTVSPost2010PropOp53
 70
     0
102
RTVSPost2010Prop54
  1
strokes_ogs.tif
102
RTVSPost2010PropOp54
 70
     0
102
RTVSPost2010Prop55
280
     0
102
RTVSPost2010PropOp55
 70
     0
102
RTVSPost2010Prop56
140
1.0
102
RTVSPost2010PropOp56
 70
     0
102
RTVSPost2010Prop57
140
1.0
102
RTVSPost2010PropOp57
 70
     0
102
RTVSPropertyOp0
 70
     0
102
RTVSPropertyOp1
 70
     0
102
RTVSPropertyOp2
 70
     0
102
RTVSPropertyOp3
 70
     0
102
RTVSPropertyOp4
 70
     0
102
RTVSPropertyOp5
 70
     0
102
RTVSPropertyOp6
 70
     0
102
RTVSPropertyOp7
 70
     0
102
RTVSPropertyOp8
 70
     0
102
RTVSPropertyOp9
 70
     0
102
RTVSPropertyOp10
 70
     0
102
RTVSPropertyOp11
 70
     0
102
RTVSPropertyOp12
 70
     0
102
RTVSPropertyOp13
 70
     0
102
RTVSPropertyOp14
 70
     2
102
RTVSPropertyOp15
 70
     0
102
RTVSPropertyOp16
 70
     0
102
RTVSPropertyOp17
 70
     0
102
RTVSPropertyOp18
 70
     0
102
RTVSPropertyOp19
 70
     0
102
RTVSPropertyOp20
 70
     0
102
RTVSPropertyOp21
 70
     0
102
RTVSPropertyOp22
 70
     0
102
RTVSPropertyOp23
 70
     0
102
RTVSPropertyOp24
 70
     0
102
RTVSPropertyOp25
 70
     0
102
RTVSPropertyOp26
 70
     0
102
RTVSPropertyOp27
 70
     0
102
RTVSPropertyOp28
 70
     0
102
RTVSPropertyOp29
 70
     0
102
RTVSPropertyOp30
 70
     0
102
RTVSPropertyOp31
 70
     0
102
RTVSPropertyOp32
 70
     0
102
RTVSPropertyOp33
 70
     0
102
RTVSPropertyOp34
 70
     0
102
RTVSPropertyOp35
 70
     0
102
RTVSPropertyOp36
 70
     0
102
RTVSPropertyOp37
 70
     0
102
RTVSPropertyOp38
 70
     0
102
RTVSPropertyOp39
 70
     0
102
RTVSPropertyOp40
 70
     0
102
RTVSPropertyOp41
 70
     0
102
RTVSPropertyOp42
 70
     0
102
RTVSPropertyOp43
 70
     0
102
RTVSPropertyOp44
 70
     0
102
RTVSPropertyOp45
 70
     0
102
RTVSPropertyOp46
 70
     0
102
RTVSPropertyOp47
 70
     0
102
RTVSPropertyOp48
 70
     0
102
RTVSPropertyOp49
 70
     0
102
RTVSPropertyOp50
 70
     0
102
RTVSPropertyOp51
 70
     0
102
RTVSPropertyOp52
 70
     0
102
RTVSPropertyOp53
 70
     0
102
RTVSPropertyOp54
 70
     0
102
RTVSPropertyOp55
 70
     0
102
RTVSPropertyOp56
 70
     0
102
RTVSPropertyOp57
 70
     0
102
RTVSPropertyOp58
 70
     0
102
RTVSPropertyOp59
 70
     0
102
RTVSPropertyOp60
 70
     0
102
RTVSPropertyOp61
 70
     0
102
RTVSPropertyOp62
 70
     0
  0
XRECORD
  5
18FB
102
{ACAD_REACTORS
330
18FA
102
}
330
18FA
100
AcDbXrecord
280
     1
102
RTVSPost2010Prop28
280
     0
102
RTVSPost2010PropOp28
 70
     1
102
RTVSPost2010Prop29
280
     1
102
RTVSPost2010PropOp29
 70
     1
102
RTVSPost2010Prop30
280
     1
102
RTVSPost2010PropOp30
 70
     1
102
RTVSPost2010Prop31
280
     0
102
RTVSPost2010PropOp31
 70
     1
102
RTVSPost2010Prop32
280
     0
102
RTVSPost2010PropOp32
 70
     1
102
RTVSPost2010Prop33
280
     0
102
RTVSPost2010PropOp33
 70
     1
102
RTVSPost2010Prop34
280
     0
102
RTVSPost2010PropOp34
 70
     1
102
RTVSPost2010Prop35
280
     0
102
RTVSPost2010PropOp35
 70
     1
102
RTVSPost2010Prop36
280
     0
102
RTVSPost2010PropOp36
 70
     1
102
RTVSPost2010Prop37
 90
       50
102
RTVSPost2010PropOp37
 70
     1
102
RTVSPost2010Prop38
140
0.0
102
RTVSPost2010PropOp38
 70
     1
102
RTVSPost2010Prop39
140
1.0
102
RTVSPost2010PropOp39
 70
     1
102
RTVSPost2010Prop40
 90
        0
102
RTVSPost2010PropOp40
 70
     1
102
RTVSPost2010Prop41ColorIndex
 90
       18
102
RTVSPost2010Prop41ColorRGB
 90
        0
102
RTVSPost2010PropOp41
 70
     1
102
RTVSPost2010Prop42
 90
       50
102
RTVSPost2010PropOp42
 70
     1
102
RTVSPost2010Prop43
 90
        3
102
RTVSPost2010PropOp43
 70
     1
102
RTVSPost2010Prop44ColorIndex
 90
        5
102
RTVSPost2010Prop44ColorRGB
 90
      255
102
RTVSPost2010PropOp44
 70
     1
102
RTVSPost2010Prop45
280
     0
102
RTVSPost2010PropOp45
 70
     1
102
RTVSPost2010Prop46
 90
       50
102
RTVSPost2010PropOp46
 70
     1
102
RTVSPost2010Prop47
 90
       50
102
RTVSPost2010PropOp47
 70
     1
102
RTVSPost2010Prop48
 90
       50
102
RTVSPost2010PropOp48
 70
     1
102
RTVSPost2010Prop49
280
     0
102
RTVSPost2010PropOp49
 70
     1
102
RTVSPost2010Prop50
 90
       50
102
RTVSPost2010PropOp50
 70
     1
102
RTVSPost2010Prop51ColorIndex
 90
      256
102
RTVSPost2010Prop51ColorRGB
 90
-16777216
102
RTVSPost2010PropOp51
 70
     0
102
RTVSPost2010Prop52
140
1.0
102
RTVSPost2010PropOp52
 70
     0
102
RTVSPost2010Prop53
 90
        2
102
RTVSPost2010PropOp53
 70
     1
102
RTVSPost2010Prop54
  1
strokes_ogs.tif
102
RTVSPost2010PropOp54
 70
     1
102
RTVSPost2010Prop55
280
     0
102
RTVSPost2010PropOp55
 70
     1
102
RTVSPost2010Prop56
140
1.0
102
RTVSPost2010PropOp56
 70
     1
102
RTVSPost2010Prop57
140
1.0
102
RTVSPost2010PropOp57
 70
     1
102
RTVSPropertyOp0
 70
     1
102
RTVSPropertyOp1
 70
     1
102
RTVSPropertyOp2
 70
     1
102
RTVSPropertyOp3
 70
     1
102
RTVSPropertyOp4
 70
     1
102
RTVSPropertyOp5
 70
     1
102
RTVSPropertyOp6
 70
     1
102
RTVSPropertyOp7
 70
     1
102
RTVSPropertyOp8
 70
     1
102
RTVSPropertyOp9
 70
     1
102
RTVSPropertyOp10
 70
     1
102
RTVSPropertyOp11
 70
     1
102
RTVSPropertyOp12
 70
     1
102
RTVSPropertyOp13
 70
     1
102
RTVSPropertyOp14
 70
     1
102
RTVSPropertyOp15
 70
     1
102
RTVSPropertyOp16
 70
     1
102
RTVSPropertyOp17
 70
     1
102
RTVSPropertyOp18
 70
     1
102
RTVSPropertyOp19
 70
     1
102
RTVSPropertyOp20
 70
     1
102
RTVSPropertyOp21
 70
     1
102
RTVSPropertyOp22
 70
     1
102
RTVSPropertyOp23
 70
     1
102
RTVSPropertyOp24
 70
     1
102
RTVSPropertyOp25
 70
     1
102
RTVSPropertyOp26
 70
     1
102
RTVSPropertyOp27
 70
     1
102
RTVSPropertyOp28
 70
     1
102
RTVSPropertyOp29
 70
     1
102
RTVSPropertyOp30
 70
     1
102
RTVSPropertyOp31
 70
     1
102
RTVSPropertyOp32
 70
     1
102
RTVSPropertyOp33
 70
     1
102
RTVSPropertyOp34
 70
     1
102
RTVSPropertyOp35
 70
     1
102
RTVSPropertyOp36
 70
     1
102
RTVSPropertyOp37
 70
     1
102
RTVSPropertyOp38
 70
     1
102
RTVSPropertyOp39
 70
     1
102
RTVSPropertyOp40
 70
     1
102
RTVSPropertyOp41
 70
     1
102
RTVSPropertyOp42
 70
     1
102
RTVSPropertyOp43
 70
     1
102
RTVSPropertyOp44
 70
     1
102
RTVSPropertyOp45
 70
     1
102
RTVSPropertyOp46
 70
     1
102
RTVSPropertyOp47
 70
     1
102
RTVSPropertyOp48
 70
     1
102
RTVSPropertyOp49
 70
     1
102
RTVSPropertyOp50
 70
     1
102
RTVSPropertyOp51
 70
     0
102
RTVSPropertyOp52
 70
     0
102
RTVSPropertyOp53
 70
     1
102
RTVSPropertyOp54
 70
     1
102
RTVSPropertyOp55
 70
     1
102
RTVSPropertyOp56
 70
     1
102
RTVSPropertyOp57
 70
     1
102
RTVSPropertyOp58
 70
     1
102
RTVSPropertyOp59
 70
     1
102
RTVSPropertyOp60
 70
     1
102
RTVSPropertyOp61
 70
     1
102
RTVSPropertyOp62
 70
     1
  0
XRECORD
  5
18DF
102
{ACAD_REACTORS
330
18DE
102
}
330
18DE
100
AcDbXrecord
280
     1
102
RTVSPost2010Prop28
280
     0
102
RTVSPost2010PropOp28
 70
     1
102
RTVSPost2010Prop29
280
     1
102
RTVSPost2010PropOp29
 70
     1
102
RTVSPost2010Prop30
280
     1
102
RTVSPost2010PropOp30
 70
     1
102
RTVSPost2010Prop31
280
     0
102
RTVSPost2010PropOp31
 70
     1
102
RTVSPost2010Prop32
280
     0
102
RTVSPost2010PropOp32
 70
     1
102
RTVSPost2010Prop33
280
     0
102
RTVSPost2010PropOp33
 70
     1
102
RTVSPost2010Prop34
280
     0
102
RTVSPost2010PropOp34
 70
     1
102
RTVSPost2010Prop35
280
     0
102
RTVSPost2010PropOp35
 70
     1
102
RTVSPost2010Prop36
280
     0
102
RTVSPost2010PropOp36
 70
     1
102
RTVSPost2010Prop37
 90
       50
102
RTVSPost2010PropOp37
 70
     1
102
RTVSPost2010Prop38
140
0.0
102
RTVSPost2010PropOp38
 70
     1
102
RTVSPost2010Prop39
140
1.0
102
RTVSPost2010PropOp39
 70
     1
102
RTVSPost2010Prop40
 90
        0
102
RTVSPost2010PropOp40
 70
     1
102
RTVSPost2010Prop41ColorIndex
 90
       18
102
RTVSPost2010Prop41ColorRGB
 90
        0
102
RTVSPost2010PropOp41
 70
     1
102
RTVSPost2010Prop42
 90
       50
102
RTVSPost2010PropOp42
 70
     1
102
RTVSPost2010Prop43
 90
        3
102
RTVSPost2010PropOp43
 70
     1
102
RTVSPost2010Prop44ColorIndex
 90
        5
102
RTVSPost2010Prop44ColorRGB
 90
      255
102
RTVSPost2010PropOp44
 70
     1
102
RTVSPost2010Prop45
280
     0
102
RTVSPost2010PropOp45
 70
     1
102
RTVSPost2010Prop46
 90
       50
102
RTVSPost2010PropOp46
 70
     1
102
RTVSPost2010Prop47
 90
       50
102
RTVSPost2010PropOp47
 70
     1
102
RTVSPost2010Prop48
 90
       50
102
RTVSPost2010PropOp48
 70
     1
102
RTVSPost2010Prop49
280
     0
102
RTVSPost2010PropOp49
 70
     1
102
RTVSPost2010Prop50
 90
       50
102
RTVSPost2010PropOp50
 70
     1
102
RTVSPost2010Prop51ColorIndex
 90
      256
102
RTVSPost2010Prop51ColorRGB
 90
-16777216
102
RTVSPost2010PropOp51
 70
     0
102
RTVSPost2010Prop52
140
1.0
102
RTVSPost2010PropOp52
 70
     0
102
RTVSPost2010Prop53
 90
        2
102
RTVSPost2010PropOp53
 70
     1
102
RTVSPost2010Prop54
  1
strokes_ogs.tif
102
RTVSPost2010PropOp54
 70
     1
102
RTVSPost2010Prop55
280
     0
102
RTVSPost2010PropOp55
 70
     1
102
RTVSPost2010Prop56
140
1.0
102
RTVSPost2010PropOp56
 70
     1
102
RTVSPost2010Prop57
140
1.0
102
RTVSPost2010PropOp57
 70
     1
102
RTVSPropertyOp0
 70
     1
102
RTVSPropertyOp1
 70
     1
102
RTVSPropertyOp2
 70
     1
102
RTVSPropertyOp3
 70
     1
102
RTVSPropertyOp4
 70
     1
102
RTVSPropertyOp5
 70
     1
102
RTVSPropertyOp6
 70
     1
102
RTVSPropertyOp7
 70
     1
102
RTVSPropertyOp8
 70
     1
102
RTVSPropertyOp9
 70
     1
102
RTVSPropertyOp10
 70
     1
102
RTVSPropertyOp11
 70
     1
102
RTVSPropertyOp12
 70
     1
102
RTVSPropertyOp13
 70
     1
102
RTVSPropertyOp14
 70
     1
102
RTVSPropertyOp15
 70
     1
102
RTVSPropertyOp16
 70
     1
102
RTVSPropertyOp17
 70
     1
102
RTVSPropertyOp18
 70
     1
102
RTVSPropertyOp19
 70
     1
102
RTVSPropertyOp20
 70
     1
102
RTVSPropertyOp21
 70
     1
102
RTVSPropertyOp22
 70
     1
102
RTVSPropertyOp23
 70
     1
102
RTVSPropertyOp24
 70
     1
102
RTVSPropertyOp25
 70
     1
102
RTVSPropertyOp26
 70
     1
102
RTVSPropertyOp27
 70
     1
102
RTVSPropertyOp28
 70
     1
102
RTVSPropertyOp29
 70
     1
102
RTVSPropertyOp30
 70
     1
102
RTVSPropertyOp31
 70
     1
102
RTVSPropertyOp32
 70
     1
102
RTVSPropertyOp33
 70
     1
102
RTVSPropertyOp34
 70
     1
102
RTVSPropertyOp35
 70
     1
102
RTVSPropertyOp36
 70
     1
102
RTVSPropertyOp37
 70
     1
102
RTVSPropertyOp38
 70
     1
102
RTVSPropertyOp39
 70
     1
102
RTVSPropertyOp40
 70
     1
102
RTVSPropertyOp41
 70
     1
102
RTVSPropertyOp42
 70
     1
102
RTVSPropertyOp43
 70
     1
102
RTVSPropertyOp44
 70
     1
102
RTVSPropertyOp45
 70
     1
102
RTVSPropertyOp46
 70
     1
102
RTVSPropertyOp47
 70
     1
102
RTVSPropertyOp48
 70
     1
102
RTVSPropertyOp49
 70
     1
102
RTVSPropertyOp50
 70
     1
102
RTVSPropertyOp51
 70
     0
102
RTVSPropertyOp52
 70
     0
102
RTVSPropertyOp53
 70
     1
102
RTVSPropertyOp54
 70
     1
102
RTVSPropertyOp55
 70
     1
102
RTVSPropertyOp56
 70
     1
102
RTVSPropertyOp57
 70
     1
102
RTVSPropertyOp58
 70
     1
102
RTVSPropertyOp59
 70
     1
102
RTVSPropertyOp60
 70
     1
102
RTVSPropertyOp61
 70
     1
102
RTVSPropertyOp62
 70
     1
  0
XRECORD
  5
18E1
102
{ACAD_REACTORS
330
18E0
102
}
330
18E0
100
AcDbXrecord
280
     1
102
RTVSPost2010Prop28
280
     0
102
RTVSPost2010PropOp28
 70
     1
102
RTVSPost2010Prop29
280
     1
102
RTVSPost2010PropOp29
 70
     1
102
RTVSPost2010Prop30
280
     1
102
RTVSPost2010PropOp30
 70
     1
102
RTVSPost2010Prop31
280
     0
102
RTVSPost2010PropOp31
 70
     1
102
RTVSPost2010Prop32
280
     0
102
RTVSPost2010PropOp32
 70
     1
102
RTVSPost2010Prop33
280
     0
102
RTVSPost2010PropOp33
 70
     1
102
RTVSPost2010Prop34
280
     0
102
RTVSPost2010PropOp34
 70
     1
102
RTVSPost2010Prop35
280
     0
102
RTVSPost2010PropOp35
 70
     1
102
RTVSPost2010Prop36
280
     0
102
RTVSPost2010PropOp36
 70
     1
102
RTVSPost2010Prop37
 90
       50
102
RTVSPost2010PropOp37
 70
     1
102
RTVSPost2010Prop38
140
0.0
102
RTVSPost2010PropOp38
 70
     1
102
RTVSPost2010Prop39
140
1.0
102
RTVSPost2010PropOp39
 70
     1
102
RTVSPost2010Prop40
 90
        0
102
RTVSPost2010PropOp40
 70
     1
102
RTVSPost2010Prop41ColorIndex
 90
       18
102
RTVSPost2010Prop41ColorRGB
 90
        0
102
RTVSPost2010PropOp41
 70
     1
102
RTVSPost2010Prop42
 90
       50
102
RTVSPost2010PropOp42
 70
     1
102
RTVSPost2010Prop43
 90
        3
102
RTVSPost2010PropOp43
 70
     1
102
RTVSPost2010Prop44ColorIndex
 90
        5
102
RTVSPost2010Prop44ColorRGB
 90
      255
102
RTVSPost2010PropOp44
 70
     1
102
RTVSPost2010Prop45
280
     0
102
RTVSPost2010PropOp45
 70
     1
102
RTVSPost2010Prop46
 90
       50
102
RTVSPost2010PropOp46
 70
     1
102
RTVSPost2010Prop47
 90
       50
102
RTVSPost2010PropOp47
 70
     1
102
RTVSPost2010Prop48
 90
       50
102
RTVSPost2010PropOp48
 70
     1
102
RTVSPost2010Prop49
280
     0
102
RTVSPost2010PropOp49
 70
     1
102
RTVSPost2010Prop50
 90
       50
102
RTVSPost2010PropOp50
 70
     1
102
RTVSPost2010Prop51ColorIndex
 90
      256
102
RTVSPost2010Prop51ColorRGB
 90
-16777216
102
RTVSPost2010PropOp51
 70
     0
102
RTVSPost2010Prop52
140
1.0
102
RTVSPost2010PropOp52
 70
     0
102
RTVSPost2010Prop53
 90
        2
102
RTVSPost2010PropOp53
 70
     1
102
RTVSPost2010Prop54
  1
strokes_ogs.tif
102
RTVSPost2010PropOp54
 70
     1
102
RTVSPost2010Prop55
280
     0
102
RTVSPost2010PropOp55
 70
     1
102
RTVSPost2010Prop56
140
1.0
102
RTVSPost2010PropOp56
 70
     1
102
RTVSPost2010Prop57
140
1.0
102
RTVSPost2010PropOp57
 70
     1
102
RTVSPropertyOp0
 70
     1
102
RTVSPropertyOp1
 70
     1
102
RTVSPropertyOp2
 70
     1
102
RTVSPropertyOp3
 70
     1
102
RTVSPropertyOp4
 70
     1
102
RTVSPropertyOp5
 70
     1
102
RTVSPropertyOp6
 70
     1
102
RTVSPropertyOp7
 70
     1
102
RTVSPropertyOp8
 70
     1
102
RTVSPropertyOp9
 70
     1
102
RTVSPropertyOp10
 70
     1
102
RTVSPropertyOp11
 70
     1
102
RTVSPropertyOp12
 70
     1
102
RTVSPropertyOp13
 70
     1
102
RTVSPropertyOp14
 70
     1
102
RTVSPropertyOp15
 70
     1
102
RTVSPropertyOp16
 70
     1
102
RTVSPropertyOp17
 70
     1
102
RTVSPropertyOp18
 70
     1
102
RTVSPropertyOp19
 70
     1
102
RTVSPropertyOp20
 70
     1
102
RTVSPropertyOp21
 70
     1
102
RTVSPropertyOp22
 70
     1
102
RTVSPropertyOp23
 70
     1
102
RTVSPropertyOp24
 70
     1
102
RTVSPropertyOp25
 70
     1
102
RTVSPropertyOp26
 70
     1
102
RTVSPropertyOp27
 70
     1
102
RTVSPropertyOp28
 70
     1
102
RTVSPropertyOp29
 70
     1
102
RTVSPropertyOp30
 70
     1
102
RTVSPropertyOp31
 70
     1
102
RTVSPropertyOp32
 70
     1
102
RTVSPropertyOp33
 70
     1
102
RTVSPropertyOp34
 70
     1
102
RTVSPropertyOp35
 70
     1
102
RTVSPropertyOp36
 70
     1
102
RTVSPropertyOp37
 70
     1
102
RTVSPropertyOp38
 70
     1
102
RTVSPropertyOp39
 70
     1
102
RTVSPropertyOp40
 70
     1
102
RTVSPropertyOp41
 70
     1
102
RTVSPropertyOp42
 70
     1
102
RTVSPropertyOp43
 70
     1
102
RTVSPropertyOp44
 70
     1
102
RTVSPropertyOp45
 70
     1
102
RTVSPropertyOp46
 70
     1
102
RTVSPropertyOp47
 70
     1
102
RTVSPropertyOp48
 70
     1
102
RTVSPropertyOp49
 70
     1
102
RTVSPropertyOp50
 70
     1
102
RTVSPropertyOp51
 70
     0
102
RTVSPropertyOp52
 70
     0
102
RTVSPropertyOp53
 70
     1
102
RTVSPropertyOp54
 70
     1
102
RTVSPropertyOp55
 70
     1
102
RTVSPropertyOp56
 70
     1
102
RTVSPropertyOp57
 70
     1
102
RTVSPropertyOp58
 70
     1
102
RTVSPropertyOp59
 70
     1
102
RTVSPropertyOp60
 70
     1
102
RTVSPropertyOp61
 70
     1
102
RTVSPropertyOp62
 70
     1
  0
XRECORD
  5
18E3
102
{ACAD_REACTORS
330
18E2
102
}
330
18E2
100
AcDbXrecord
280
     1
102
RTVSPost2010Prop28
280
     0
102
RTVSPost2010PropOp28
 70
     1
102
RTVSPost2010Prop29
280
     1
102
RTVSPost2010PropOp29
 70
     1
102
RTVSPost2010Prop30
280
     1
102
RTVSPost2010PropOp30
 70
     1
102
RTVSPost2010Prop31
280
     0
102
RTVSPost2010PropOp31
 70
     1
102
RTVSPost2010Prop32
280
     0
102
RTVSPost2010PropOp32
 70
     1
102
RTVSPost2010Prop33
280
     0
102
RTVSPost2010PropOp33
 70
     1
102
RTVSPost2010Prop34
280
     0
102
RTVSPost2010PropOp34
 70
     1
102
RTVSPost2010Prop35
280
     0
102
RTVSPost2010PropOp35
 70
     1
102
RTVSPost2010Prop36
280
     0
102
RTVSPost2010PropOp36
 70
     1
102
RTVSPost2010Prop37
 90
       50
102
RTVSPost2010PropOp37
 70
     1
102
RTVSPost2010Prop38
140
0.0
102
RTVSPost2010PropOp38
 70
     1
102
RTVSPost2010Prop39
140
1.0
102
RTVSPost2010PropOp39
 70
     1
102
RTVSPost2010Prop40
 90
        0
102
RTVSPost2010PropOp40
 70
     1
102
RTVSPost2010Prop41ColorIndex
 90
       18
102
RTVSPost2010Prop41ColorRGB
 90
        0
102
RTVSPost2010PropOp41
 70
     1
102
RTVSPost2010Prop42
 90
       50
102
RTVSPost2010PropOp42
 70
     1
102
RTVSPost2010Prop43
 90
        3
102
RTVSPost2010PropOp43
 70
     1
102
RTVSPost2010Prop44ColorIndex
 90
        5
102
RTVSPost2010Prop44ColorRGB
 90
      255
102
RTVSPost2010PropOp44
 70
     1
102
RTVSPost2010Prop45
280
     0
102
RTVSPost2010PropOp45
 70
     1
102
RTVSPost2010Prop46
 90
       50
102
RTVSPost2010PropOp46
 70
     1
102
RTVSPost2010Prop47
 90
       50
102
RTVSPost2010PropOp47
 70
     1
102
RTVSPost2010Prop48
 90
       50
102
RTVSPost2010PropOp48
 70
     1
102
RTVSPost2010Prop49
280
     0
102
RTVSPost2010PropOp49
 70
     1
102
RTVSPost2010Prop50
 90
       50
102
RTVSPost2010PropOp50
 70
     1
102
RTVSPost2010Prop51ColorIndex
 90
      256
102
RTVSPost2010Prop51ColorRGB
 90
-16777216
102
RTVSPost2010PropOp51
 70
     0
102
RTVSPost2010Prop52
140
1.0
102
RTVSPost2010PropOp52
 70
     0
102
RTVSPost2010Prop53
 90
        2
102
RTVSPost2010PropOp53
 70
     1
102
RTVSPost2010Prop54
  1
strokes_ogs.tif
102
RTVSPost2010PropOp54
 70
     1
102
RTVSPost2010Prop55
280
     0
102
RTVSPost2010PropOp55
 70
     1
102
RTVSPost2010Prop56
140
1.0
102
RTVSPost2010PropOp56
 70
     1
102
RTVSPost2010Prop57
140
1.0
102
RTVSPost2010PropOp57
 70
     1
102
RTVSPropertyOp0
 70
     1
102
RTVSPropertyOp1
 70
     1
102
RTVSPropertyOp2
 70
     1
102
RTVSPropertyOp3
 70
     1
102
RTVSPropertyOp4
 70
     1
102
RTVSPropertyOp5
 70
     1
102
RTVSPropertyOp6
 70
     1
102
RTVSPropertyOp7
 70
     1
102
RTVSPropertyOp8
 70
     1
102
RTVSPropertyOp9
 70
     1
102
RTVSPropertyOp10
 70
     1
102
RTVSPropertyOp11
 70
     1
102
RTVSPropertyOp12
 70
     1
102
RTVSPropertyOp13
 70
     1
102
RTVSPropertyOp14
 70
     1
102
RTVSPropertyOp15
 70
     1
102
RTVSPropertyOp16
 70
     1
102
RTVSPropertyOp17
 70
     1
102
RTVSPropertyOp18
 70
     1
102
RTVSPropertyOp19
 70
     1
102
RTVSPropertyOp20
 70
     1
102
RTVSPropertyOp21
 70
     1
102
RTVSPropertyOp22
 70
     1
102
RTVSPropertyOp23
 70
     1
102
RTVSPropertyOp24
 70
     1
102
RTVSPropertyOp25
 70
     1
102
RTVSPropertyOp26
 70
     1
102
RTVSPropertyOp27
 70
     1
102
RTVSPropertyOp28
 70
     1
102
RTVSPropertyOp29
 70
     1
102
RTVSPropertyOp30
 70
     1
102
RTVSPropertyOp31
 70
     1
102
RTVSPropertyOp32
 70
     1
102
RTVSPropertyOp33
 70
     1
102
RTVSPropertyOp34
 70
     1
102
RTVSPropertyOp35
 70
     1
102
RTVSPropertyOp36
 70
     1
102
RTVSPropertyOp37
 70
     1
102
RTVSPropertyOp38
 70
     1
102
RTVSPropertyOp39
 70
     1
102
RTVSPropertyOp40
 70
     1
102
RTVSPropertyOp41
 70
     1
102
RTVSPropertyOp42
 70
     1
102
RTVSPropertyOp43
 70
     1
102
RTVSPropertyOp44
 70
     1
102
RTVSPropertyOp45
 70
     1
102
RTVSPropertyOp46
 70
     1
102
RTVSPropertyOp47
 70
     1
102
RTVSPropertyOp48
 70
     1
102
RTVSPropertyOp49
 70
     1
102
RTVSPropertyOp50
 70
     1
102
RTVSPropertyOp51
 70
     0
102
RTVSPropertyOp52
 70
     0
102
RTVSPropertyOp53
 70
     1
102
RTVSPropertyOp54
 70
     1
102
RTVSPropertyOp55
 70
     1
102
RTVSPropertyOp56
 70
     1
102
RTVSPropertyOp57
 70
     1
102
RTVSPropertyOp58
 70
     1
102
RTVSPropertyOp59
 70
     1
102
RTVSPropertyOp60
 70
     1
102
RTVSPropertyOp61
 70
     1
102
RTVSPropertyOp62
 70
     1
  0
XRECORD
  5
18E5
102
{ACAD_REACTORS
330
18E4
102
}
330
18E4
100
AcDbXrecord
280
     1
102
RTVSPost2010Prop28
280
     0
102
RTVSPost2010PropOp28
 70
     1
102
RTVSPost2010Prop29
280
     1
102
RTVSPost2010PropOp29
 70
     1
102
RTVSPost2010Prop30
280
     1
102
RTVSPost2010PropOp30
 70
     1
102
RTVSPost2010Prop31
280
     0
102
RTVSPost2010PropOp31
 70
     1
102
RTVSPost2010Prop32
280
     0
102
RTVSPost2010PropOp32
 70
     1
102
RTVSPost2010Prop33
280
     0
102
RTVSPost2010PropOp33
 70
     1
102
RTVSPost2010Prop34
280
     0
102
RTVSPost2010PropOp34
 70
     1
102
RTVSPost2010Prop35
280
     0
102
RTVSPost2010PropOp35
 70
     1
102
RTVSPost2010Prop36
280
     0
102
RTVSPost2010PropOp36
 70
     1
102
RTVSPost2010Prop37
 90
       50
102
RTVSPost2010PropOp37
 70
     1
102
RTVSPost2010Prop38
140
0.0
102
RTVSPost2010PropOp38
 70
     1
102
RTVSPost2010Prop39
140
1.0
102
RTVSPost2010PropOp39
 70
     1
102
RTVSPost2010Prop40
 90
        0
102
RTVSPost2010PropOp40
 70
     1
102
RTVSPost2010Prop41ColorIndex
 90
       18
102
RTVSPost2010Prop41ColorRGB
 90
        0
102
RTVSPost2010PropOp41
 70
     1
102
RTVSPost2010Prop42
 90
       50
102
RTVSPost2010PropOp42
 70
     1
102
RTVSPost2010Prop43
 90
        3
102
RTVSPost2010PropOp43
 70
     1
102
RTVSPost2010Prop44ColorIndex
 90
        5
102
RTVSPost2010Prop44ColorRGB
 90
      255
102
RTVSPost2010PropOp44
 70
     1
102
RTVSPost2010Prop45
280
     0
102
RTVSPost2010PropOp45
 70
     1
102
RTVSPost2010Prop46
 90
       50
102
RTVSPost2010PropOp46
 70
     1
102
RTVSPost2010Prop47
 90
       50
102
RTVSPost2010PropOp47
 70
     1
102
RTVSPost2010Prop48
 90
       50
102
RTVSPost2010PropOp48
 70
     1
102
RTVSPost2010Prop49
280
     0
102
RTVSPost2010PropOp49
 70
     1
102
RTVSPost2010Prop50
 90
       50
102
RTVSPost2010PropOp50
 70
     1
102
RTVSPost2010Prop51ColorIndex
 90
      256
102
RTVSPost2010Prop51ColorRGB
 90
-16777216
102
RTVSPost2010PropOp51
 70
     0
102
RTVSPost2010Prop52
140
1.0
102
RTVSPost2010PropOp52
 70
     0
102
RTVSPost2010Prop53
 90
        2
102
RTVSPost2010PropOp53
 70
     1
102
RTVSPost2010Prop54
  1
strokes_ogs.tif
102
RTVSPost2010PropOp54
 70
     1
102
RTVSPost2010Prop55
280
     0
102
RTVSPost2010PropOp55
 70
     1
102
RTVSPost2010Prop56
140
1.0
102
RTVSPost2010PropOp56
 70
     1
102
RTVSPost2010Prop57
140
1.0
102
RTVSPost2010PropOp57
 70
     1
102
RTVSPropertyOp0
 70
     1
102
RTVSPropertyOp1
 70
     1
102
RTVSPropertyOp2
 70
     1
102
RTVSPropertyOp3
 70
     1
102
RTVSPropertyOp4
 70
     1
102
RTVSPropertyOp5
 70
     1
102
RTVSPropertyOp6
 70
     1
102
RTVSPropertyOp7
 70
     1
102
RTVSPropertyOp8
 70
     1
102
RTVSPropertyOp9
 70
     1
102
RTVSPropertyOp10
 70
     1
102
RTVSPropertyOp11
 70
     1
102
RTVSPropertyOp12
 70
     1
102
RTVSPropertyOp13
 70
     1
102
RTVSPropertyOp14
 70
     1
102
RTVSPropertyOp15
 70
     1
102
RTVSPropertyOp16
 70
     1
102
RTVSPropertyOp17
 70
     1
102
RTVSPropertyOp18
 70
     1
102
RTVSPropertyOp19
 70
     1
102
RTVSPropertyOp20
 70
     1
102
RTVSPropertyOp21
 70
     1
102
RTVSPropertyOp22
 70
     1
102
RTVSPropertyOp23
 70
     1
102
RTVSPropertyOp24
 70
     1
102
RTVSPropertyOp25
 70
     1
102
RTVSPropertyOp26
 70
     1
102
RTVSPropertyOp27
 70
     1
102
RTVSPropertyOp28
 70
     1
102
RTVSPropertyOp29
 70
     1
102
RTVSPropertyOp30
 70
     1
102
RTVSPropertyOp31
 70
     1
102
RTVSPropertyOp32
 70
     1
102
RTVSPropertyOp33
 70
     1
102
RTVSPropertyOp34
 70
     1
102
RTVSPropertyOp35
 70
     1
102
RTVSPropertyOp36
 70
     1
102
RTVSPropertyOp37
 70
     1
102
RTVSPropertyOp38
 70
     1
102
RTVSPropertyOp39
 70
     1
102
RTVSPropertyOp40
 70
     1
102
RTVSPropertyOp41
 70
     1
102
RTVSPropertyOp42
 70
     1
102
RTVSPropertyOp43
 70
     1
102
RTVSPropertyOp44
 70
     1
102
RTVSPropertyOp45
 70
     1
102
RTVSPropertyOp46
 70
     1
102
RTVSPropertyOp47
 70
     1
102
RTVSPropertyOp48
 70
     1
102
RTVSPropertyOp49
 70
     1
102
RTVSPropertyOp50
 70
     1
102
RTVSPropertyOp51
 70
     0
102
RTVSPropertyOp52
 70
     0
102
RTVSPropertyOp53
 70
     1
102
RTVSPropertyOp54
 70
     1
102
RTVSPropertyOp55
 70
     1
102
RTVSPropertyOp56
 70
     1
102
RTVSPropertyOp57
 70
     1
102
RTVSPropertyOp58
 70
     1
102
RTVSPropertyOp59
 70
     1
102
RTVSPropertyOp60
 70
     1
102
RTVSPropertyOp61
 70
     1
102
RTVSPropertyOp62
 70
     1
  0
XRECORD
  5
1902
102
{ACAD_REACTORS
330
1901
102
}
330
1901
100
AcDbXrecord
280
     1
102
RTVSPost2010Prop28
280
     0
102
RTVSPost2010PropOp28
 70
     1
102
RTVSPost2010Prop29
280
     1
102
RTVSPost2010PropOp29
 70
     1
102
RTVSPost2010Prop30
280
     1
102
RTVSPost2010PropOp30
 70
     1
102
RTVSPost2010Prop31
280
     0
102
RTVSPost2010PropOp31
 70
     1
102
RTVSPost2010Prop32
280
     0
102
RTVSPost2010PropOp32
 70
     1
102
RTVSPost2010Prop33
280
     0
102
RTVSPost2010PropOp33
 70
     1
102
RTVSPost2010Prop34
280
     0
102
RTVSPost2010PropOp34
 70
     1
102
RTVSPost2010Prop35
280
     0
102
RTVSPost2010PropOp35
 70
     1
102
RTVSPost2010Prop36
280
     0
102
RTVSPost2010PropOp36
 70
     1
102
RTVSPost2010Prop37
 90
       50
102
RTVSPost2010PropOp37
 70
     1
102
RTVSPost2010Prop38
140
0.0
102
RTVSPost2010PropOp38
 70
     1
102
RTVSPost2010Prop39
140
1.0
102
RTVSPost2010PropOp39
 70
     1
102
RTVSPost2010Prop40
 90
        0
102
RTVSPost2010PropOp40
 70
     1
102
RTVSPost2010Prop41ColorIndex
 90
       18
102
RTVSPost2010Prop41ColorRGB
 90
        0
102
RTVSPost2010PropOp41
 70
     1
102
RTVSPost2010Prop42
 90
       50
102
RTVSPost2010PropOp42
 70
     1
102
RTVSPost2010Prop43
 90
        3
102
RTVSPost2010PropOp43
 70
     1
102
RTVSPost2010Prop44ColorIndex
 90
        5
102
RTVSPost2010Prop44ColorRGB
 90
      255
102
RTVSPost2010PropOp44
 70
     1
102
RTVSPost2010Prop45
280
     0
102
RTVSPost2010PropOp45
 70
     1
102
RTVSPost2010Prop46
 90
       50
102
RTVSPost2010PropOp46
 70
     1
102
RTVSPost2010Prop47
 90
       50
102
RTVSPost2010PropOp47
 70
     1
102
RTVSPost2010Prop48
 90
       50
102
RTVSPost2010PropOp48
 70
     1
102
RTVSPost2010Prop49
280
     0
102
RTVSPost2010PropOp49
 70
     1
102
RTVSPost2010Prop50
 90
       50
102
RTVSPost2010PropOp50
 70
     1
102
RTVSPost2010Prop51ColorIndex
 90
      256
102
RTVSPost2010Prop51ColorRGB
 90
-16777216
102
RTVSPost2010PropOp51
 70
     0
102
RTVSPost2010Prop52
140
1.0
102
RTVSPost2010PropOp52
 70
     0
102
RTVSPost2010Prop53
 90
        2
102
RTVSPost2010PropOp53
 70
     1
102
RTVSPost2010Prop54
  1
strokes_ogs.tif
102
RTVSPost2010PropOp54
 70
     1
102
RTVSPost2010Prop55
280
     0
102
RTVSPost2010PropOp55
 70
     1
102
RTVSPost2010Prop56
140
1.0
102
RTVSPost2010PropOp56
 70
     1
102
RTVSPost2010Prop57
140
1.0
102
RTVSPost2010PropOp57
 70
     1
102
RTVSPropertyOp0
 70
     1
102
RTVSPropertyOp1
 70
     1
102
RTVSPropertyOp2
 70
     1
102
RTVSPropertyOp3
 70
     1
102
RTVSPropertyOp4
 70
     1
102
RTVSPropertyOp5
 70
     1
102
RTVSPropertyOp6
 70
     1
102
RTVSPropertyOp7
 70
     1
102
RTVSPropertyOp8
 70
     1
102
RTVSPropertyOp9
 70
     1
102
RTVSPropertyOp10
 70
     1
102
RTVSPropertyOp11
 70
     1
102
RTVSPropertyOp12
 70
     1
102
RTVSPropertyOp13
 70
     1
102
RTVSPropertyOp14
 70
     1
102
RTVSPropertyOp15
 70
     1
102
RTVSPropertyOp16
 70
     1
102
RTVSPropertyOp17
 70
     1
102
RTVSPropertyOp18
 70
     1
102
RTVSPropertyOp19
 70
     1
102
RTVSPropertyOp20
 70
     1
102
RTVSPropertyOp21
 70
     1
102
RTVSPropertyOp22
 70
     1
102
RTVSPropertyOp23
 70
     1
102
RTVSPropertyOp24
 70
     1
102
RTVSPropertyOp25
 70
     1
102
RTVSPropertyOp26
 70
     1
102
RTVSPropertyOp27
 70
     1
102
RTVSPropertyOp28
 70
     1
102
RTVSPropertyOp29
 70
     1
102
RTVSPropertyOp30
 70
     1
102
RTVSPropertyOp31
 70
     1
102
RTVSPropertyOp32
 70
     1
102
RTVSPropertyOp33
 70
     1
102
RTVSPropertyOp34
 70
     1
102
RTVSPropertyOp35
 70
     1
102
RTVSPropertyOp36
 70
     1
102
RTVSPropertyOp37
 70
     1
102
RTVSPropertyOp38
 70
     1
102
RTVSPropertyOp39
 70
     1
102
RTVSPropertyOp40
 70
     1
102
RTVSPropertyOp41
 70
     1
102
RTVSPropertyOp42
 70
     1
102
RTVSPropertyOp43
 70
     1
102
RTVSPropertyOp44
 70
     1
102
RTVSPropertyOp45
 70
     1
102
RTVSPropertyOp46
 70
     1
102
RTVSPropertyOp47
 70
     1
102
RTVSPropertyOp48
 70
     1
102
RTVSPropertyOp49
 70
     1
102
RTVSPropertyOp50
 70
     1
102
RTVSPropertyOp51
 70
     0
102
RTVSPropertyOp52
 70
     0
102
RTVSPropertyOp53
 70
     1
102
RTVSPropertyOp54
 70
     1
102
RTVSPropertyOp55
 70
     1
102
RTVSPropertyOp56
 70
     1
102
RTVSPropertyOp57
 70
     1
102
RTVSPropertyOp58
 70
     1
102
RTVSPropertyOp59
 70
     1
102
RTVSPropertyOp60
 70
     1
102
RTVSPropertyOp61
 70
     1
102
RTVSPropertyOp62
 70
     1
  0
XRECORD
  5
190E
102
{ACAD_REACTORS
330
190D
102
}
330
190D
100
AcDbXrecord
280
     1
102
RTVSPost2010Prop28
280
     0
102
RTVSPost2010PropOp28
 70
     0
102
RTVSPost2010Prop29
280
     1
102
RTVSPost2010PropOp29
 70
     0
102
RTVSPost2010Prop30
280
     1
102
RTVSPost2010PropOp30
 70
     0
102
RTVSPost2010Prop31
280
     0
102
RTVSPost2010PropOp31
 70
     0
102
RTVSPost2010Prop32
280
     0
102
RTVSPost2010PropOp32
 70
     0
102
RTVSPost2010Prop33
280
     0
102
RTVSPost2010PropOp33
 70
     0
102
RTVSPost2010Prop34
280
     0
102
RTVSPost2010PropOp34
 70
     0
102
RTVSPost2010Prop35
280
     0
102
RTVSPost2010PropOp35
 70
     0
102
RTVSPost2010Prop36
280
     0
102
RTVSPost2010PropOp36
 70
     0
102
RTVSPost2010Prop37
 90
       50
102
RTVSPost2010PropOp37
 70
     0
102
RTVSPost2010Prop38
140
0.0
102
RTVSPost2010PropOp38
 70
     0
102
RTVSPost2010Prop39
140
1.0
102
RTVSPost2010PropOp39
 70
     0
102
RTVSPost2010Prop40
 90
        0
102
RTVSPost2010PropOp40
 70
     0
102
RTVSPost2010Prop41ColorIndex
 90
       18
102
RTVSPost2010Prop41ColorRGB
 90
        0
102
RTVSPost2010PropOp41
 70
     0
102
RTVSPost2010Prop42
 90
       50
102
RTVSPost2010PropOp42
 70
     0
102
RTVSPost2010Prop43
 90
        3
102
RTVSPost2010PropOp43
 70
     0
102
RTVSPost2010Prop44ColorIndex
 90
        5
102
RTVSPost2010Prop44ColorRGB
 90
      255
102
RTVSPost2010PropOp44
 70
     0
102
RTVSPost2010Prop45
280
     0
102
RTVSPost2010PropOp45
 70
     0
102
RTVSPost2010Prop46
 90
       50
102
RTVSPost2010PropOp46
 70
     0
102
RTVSPost2010Prop47
 90
       50
102
RTVSPost2010PropOp47
 70
     0
102
RTVSPost2010Prop48
 90
       50
102
RTVSPost2010PropOp48
 70
     0
102
RTVSPost2010Prop49
280
     0
102
RTVSPost2010PropOp49
 70
     0
102
RTVSPost2010Prop50
 90
       50
102
RTVSPost2010PropOp50
 70
     0
102
RTVSPost2010Prop51ColorIndex
 90
      256
102
RTVSPost2010Prop51ColorRGB
 90
-16777216
102
RTVSPost2010PropOp51
 70
     0
102
RTVSPost2010Prop52
140
1.0
102
RTVSPost2010PropOp52
 70
     0
102
RTVSPost2010Prop53
 90
        2
102
RTVSPost2010PropOp53
 70
     0
102
RTVSPost2010Prop54
  1
strokes_ogs.tif
102
RTVSPost2010PropOp54
 70
     0
102
RTVSPost2010Prop55
280
     0
102
RTVSPost2010PropOp55
 70
     0
102
RTVSPost2010Prop56
140
1.0
102
RTVSPost2010PropOp56
 70
     0
102
RTVSPost2010Prop57
140
1.0
102
RTVSPost2010PropOp57
 70
     0
102
RTVSPropertyOp0
 70
     0
102
RTVSPropertyOp1
 70
     0
102
RTVSPropertyOp2
 70
     0
102
RTVSPropertyOp3
 70
     0
102
RTVSPropertyOp4
 70
     0
102
RTVSPropertyOp5
 70
     0
102
RTVSPropertyOp6
 70
     0
102
RTVSPropertyOp7
 70
     0
102
RTVSPropertyOp8
 70
     0
102
RTVSPropertyOp9
 70
     0
102
RTVSPropertyOp10
 70
     0
102
RTVSPropertyOp11
 70
     0
102
RTVSPropertyOp12
 70
     0
102
RTVSPropertyOp13
 70
     0
102
RTVSPropertyOp14
 70
     2
102
RTVSPropertyOp15
 70
     0
102
RTVSPropertyOp16
 70
     0
102
RTVSPropertyOp17
 70
     0
102
RTVSPropertyOp18
 70
     0
102
RTVSPropertyOp19
 70
     0
102
RTVSPropertyOp20
 70
     0
102
RTVSPropertyOp21
 70
     0
102
RTVSPropertyOp22
 70
     0
102
RTVSPropertyOp23
 70
     0
102
RTVSPropertyOp24
 70
     0
102
RTVSPropertyOp25
 70
     0
102
RTVSPropertyOp26
 70
     0
102
RTVSPropertyOp27
 70
     0
102
RTVSPropertyOp28
 70
     0
102
RTVSPropertyOp29
 70
     0
102
RTVSPropertyOp30
 70
     0
102
RTVSPropertyOp31
 70
     0
102
RTVSPropertyOp32
 70
     0
102
RTVSPropertyOp33
 70
     0
102
RTVSPropertyOp34
 70
     0
102
RTVSPropertyOp35
 70
     0
102
RTVSPropertyOp36
 70
     0
102
RTVSPropertyOp37
 70
     0
102
RTVSPropertyOp38
 70
     0
102
RTVSPropertyOp39
 70
     0
102
RTVSPropertyOp40
 70
     0
102
RTVSPropertyOp41
 70
     0
102
RTVSPropertyOp42
 70
     0
102
RTVSPropertyOp43
 70
     0
102
RTVSPropertyOp44
 70
     0
102
RTVSPropertyOp45
 70
     0
102
RTVSPropertyOp46
 70
     0
102
RTVSPropertyOp47
 70
     0
102
RTVSPropertyOp48
 70
     0
102
RTVSPropertyOp49
 70
     0
102
RTVSPropertyOp50
 70
     0
102
RTVSPropertyOp51
 70
     0
102
RTVSPropertyOp52
 70
     0
102
RTVSPropertyOp53
 70
     0
102
RTVSPropertyOp54
 70
     0
102
RTVSPropertyOp55
 70
     0
102
RTVSPropertyOp56
 70
     0
102
RTVSPropertyOp57
 70
     0
102
RTVSPropertyOp58
 70
     0
102
RTVSPropertyOp59
 70
     0
102
RTVSPropertyOp60
 70
     0
102
RTVSPropertyOp61
 70
     0
102
RTVSPropertyOp62
 70
     0
  0
XRECORD
  5
18F9
102
{ACAD_REACTORS
330
18F8
102
}
330
18F8
100
AcDbXrecord
280
     1
102
RTVSPost2010Prop28
280
     0
102
RTVSPost2010PropOp28
 70
     1
102
RTVSPost2010Prop29
280
     1
102
RTVSPost2010PropOp29
 70
     1
102
RTVSPost2010Prop30
280
     1
102
RTVSPost2010PropOp30
 70
     1
102
RTVSPost2010Prop31
280
     0
102
RTVSPost2010PropOp31
 70
     1
102
RTVSPost2010Prop32
280
     0
102
RTVSPost2010PropOp32
 70
     1
102
RTVSPost2010Prop33
280
     0
102
RTVSPost2010PropOp33
 70
     1
102
RTVSPost2010Prop34
280
     0
102
RTVSPost2010PropOp34
 70
     1
102
RTVSPost2010Prop35
280
     0
102
RTVSPost2010PropOp35
 70
     1
102
RTVSPost2010Prop36
280
     0
102
RTVSPost2010PropOp36
 70
     1
102
RTVSPost2010Prop37
 90
       50
102
RTVSPost2010PropOp37
 70
     1
102
RTVSPost2010Prop38
140
0.0
102
RTVSPost2010PropOp38
 70
     1
102
RTVSPost2010Prop39
140
1.0
102
RTVSPost2010PropOp39
 70
     1
102
RTVSPost2010Prop40
 90
        0
102
RTVSPost2010PropOp40
 70
     1
102
RTVSPost2010Prop41ColorIndex
 90
       18
102
RTVSPost2010Prop41ColorRGB
 90
        0
102
RTVSPost2010PropOp41
 70
     1
102
RTVSPost2010Prop42
 90
       50
102
RTVSPost2010PropOp42
 70
     1
102
RTVSPost2010Prop43
 90
        3
102
RTVSPost2010PropOp43
 70
     1
102
RTVSPost2010Prop44ColorIndex
 90
        5
102
RTVSPost2010Prop44ColorRGB
 90
      255
102
RTVSPost2010PropOp44
 70
     1
102
RTVSPost2010Prop45
280
     0
102
RTVSPost2010PropOp45
 70
     1
102
RTVSPost2010Prop46
 90
       50
102
RTVSPost2010PropOp46
 70
     1
102
RTVSPost2010Prop47
 90
       50
102
RTVSPost2010PropOp47
 70
     1
102
RTVSPost2010Prop48
 90
       50
102
RTVSPost2010PropOp48
 70
     1
102
RTVSPost2010Prop49
280
     0
102
RTVSPost2010PropOp49
 70
     1
102
RTVSPost2010Prop50
 90
       50
102
RTVSPost2010PropOp50
 70
     1
102
RTVSPost2010Prop51ColorIndex
 90
      256
102
RTVSPost2010Prop51ColorRGB
 90
-16777216
102
RTVSPost2010PropOp51
 70
     0
102
RTVSPost2010Prop52
140
1.0
102
RTVSPost2010PropOp52
 70
     0
102
RTVSPost2010Prop53
 90
        2
102
RTVSPost2010PropOp53
 70
     1
102
RTVSPost2010Prop54
  1
strokes_ogs.tif
102
RTVSPost2010PropOp54
 70
     1
102
RTVSPost2010Prop55
280
     0
102
RTVSPost2010PropOp55
 70
     1
102
RTVSPost2010Prop56
140
1.0
102
RTVSPost2010PropOp56
 70
     1
102
RTVSPost2010Prop57
140
1.0
102
RTVSPost2010PropOp57
 70
     1
102
RTVSPropertyOp0
 70
     1
102
RTVSPropertyOp1
 70
     1
102
RTVSPropertyOp2
 70
     1
102
RTVSPropertyOp3
 70
     1
102
RTVSPropertyOp4
 70
     1
102
RTVSPropertyOp5
 70
     1
102
RTVSPropertyOp6
 70
     1
102
RTVSPropertyOp7
 70
     1
102
RTVSPropertyOp8
 70
     1
102
RTVSPropertyOp9
 70
     1
102
RTVSPropertyOp10
 70
     1
102
RTVSPropertyOp11
 70
     1
102
RTVSPropertyOp12
 70
     1
102
RTVSPropertyOp13
 70
     1
102
RTVSPropertyOp14
 70
     1
102
RTVSPropertyOp15
 70
     1
102
RTVSPropertyOp16
 70
     1
102
RTVSPropertyOp17
 70
     1
102
RTVSPropertyOp18
 70
     1
102
RTVSPropertyOp19
 70
     1
102
RTVSPropertyOp20
 70
     1
102
RTVSPropertyOp21
 70
     1
102
RTVSPropertyOp22
 70
     1
102
RTVSPropertyOp23
 70
     1
102
RTVSPropertyOp24
 70
     1
102
RTVSPropertyOp25
 70
     1
102
RTVSPropertyOp26
 70
     1
102
RTVSPropertyOp27
 70
     1
102
RTVSPropertyOp28
 70
     1
102
RTVSPropertyOp29
 70
     1
102
RTVSPropertyOp30
 70
     1
102
RTVSPropertyOp31
 70
     1
102
RTVSPropertyOp32
 70
     1
102
RTVSPropertyOp33
 70
     1
102
RTVSPropertyOp34
 70
     1
102
RTVSPropertyOp35
 70
     1
102
RTVSPropertyOp36
 70
     1
102
RTVSPropertyOp37
 70
     1
102
RTVSPropertyOp38
 70
     1
102
RTVSPropertyOp39
 70
     1
102
RTVSPropertyOp40
 70
     1
102
RTVSPropertyOp41
 70
     1
102
RTVSPropertyOp42
 70
     1
102
RTVSPropertyOp43
 70
     1
102
RTVSPropertyOp44
 70
     1
102
RTVSPropertyOp45
 70
     1
102
RTVSPropertyOp46
 70
     1
102
RTVSPropertyOp47
 70
     1
102
RTVSPropertyOp48
 70
     1
102
RTVSPropertyOp49
 70
     1
102
RTVSPropertyOp50
 70
     1
102
RTVSPropertyOp51
 70
     0
102
RTVSPropertyOp52
 70
     0
102
RTVSPropertyOp53
 70
     1
102
RTVSPropertyOp54
 70
     1
102
RTVSPropertyOp55
 70
     1
102
RTVSPropertyOp56
 70
     1
102
RTVSPropertyOp57
 70
     1
102
RTVSPropertyOp58
 70
     1
102
RTVSPropertyOp59
 70
     1
102
RTVSPropertyOp60
 70
     1
102
RTVSPropertyOp61
 70
     1
102
RTVSPropertyOp62
 70
     1
  0
XRECORD
  5
1910
102
{ACAD_REACTORS
330
190F
102
}
330
190F
100
AcDbXrecord
280
     1
102
RTVSPost2010Prop28
280
     0
102
RTVSPost2010PropOp28
 70
     0
102
RTVSPost2010Prop29
280
     1
102
RTVSPost2010PropOp29
 70
     0
102
RTVSPost2010Prop30
280
     1
102
RTVSPost2010PropOp30
 70
     0
102
RTVSPost2010Prop31
280
     0
102
RTVSPost2010PropOp31
 70
     0
102
RTVSPost2010Prop32
280
     0
102
RTVSPost2010PropOp32
 70
     0
102
RTVSPost2010Prop33
280
     0
102
RTVSPost2010PropOp33
 70
     0
102
RTVSPost2010Prop34
280
     0
102
RTVSPost2010PropOp34
 70
     0
102
RTVSPost2010Prop35
280
     0
102
RTVSPost2010PropOp35
 70
     0
102
RTVSPost2010Prop36
280
     0
102
RTVSPost2010PropOp36
 70
     0
102
RTVSPost2010Prop37
 90
       50
102
RTVSPost2010PropOp37
 70
     0
102
RTVSPost2010Prop38
140
0.0
102
RTVSPost2010PropOp38
 70
     0
102
RTVSPost2010Prop39
140
1.0
102
RTVSPost2010PropOp39
 70
     0
102
RTVSPost2010Prop40
 90
        0
102
RTVSPost2010PropOp40
 70
     0
102
RTVSPost2010Prop41ColorIndex
 90
       18
102
RTVSPost2010Prop41ColorRGB
 90
        0
102
RTVSPost2010PropOp41
 70
     0
102
RTVSPost2010Prop42
 90
       50
102
RTVSPost2010PropOp42
 70
     0
102
RTVSPost2010Prop43
 90
        3
102
RTVSPost2010PropOp43
 70
     0
102
RTVSPost2010Prop44ColorIndex
 90
        5
102
RTVSPost2010Prop44ColorRGB
 90
      255
102
RTVSPost2010PropOp44
 70
     0
102
RTVSPost2010Prop45
280
     0
102
RTVSPost2010PropOp45
 70
     0
102
RTVSPost2010Prop46
 90
       50
102
RTVSPost2010PropOp46
 70
     0
102
RTVSPost2010Prop47
 90
       50
102
RTVSPost2010PropOp47
 70
     0
102
RTVSPost2010Prop48
 90
       50
102
RTVSPost2010PropOp48
 70
     0
102
RTVSPost2010Prop49
280
     0
102
RTVSPost2010PropOp49
 70
     0
102
RTVSPost2010Prop50
 90
       50
102
RTVSPost2010PropOp50
 70
     0
102
RTVSPost2010Prop51ColorIndex
 90
      256
102
RTVSPost2010Prop51ColorRGB
 90
-16777216
102
RTVSPost2010PropOp51
 70
     0
102
RTVSPost2010Prop52
140
1.0
102
RTVSPost2010PropOp52
 70
     0
102
RTVSPost2010Prop53
 90
        2
102
RTVSPost2010PropOp53
 70
     0
102
RTVSPost2010Prop54
  1
strokes_ogs.tif
102
RTVSPost2010PropOp54
 70
     0
102
RTVSPost2010Prop55
280
     0
102
RTVSPost2010PropOp55
 70
     0
102
RTVSPost2010Prop56
140
1.0
102
RTVSPost2010PropOp56
 70
     0
102
RTVSPost2010Prop57
140
1.0
102
RTVSPost2010PropOp57
 70
     0
102
RTVSPropertyOp0
 70
     0
102
RTVSPropertyOp1
 70
     0
102
RTVSPropertyOp2
 70
     0
102
RTVSPropertyOp3
 70
     0
102
RTVSPropertyOp4
 70
     0
102
RTVSPropertyOp5
 70
     0
102
RTVSPropertyOp6
 70
     0
102
RTVSPropertyOp7
 70
     0
102
RTVSPropertyOp8
 70
     0
102
RTVSPropertyOp9
 70
     0
102
RTVSPropertyOp10
 70
     0
102
RTVSPropertyOp11
 70
     0
102
RTVSPropertyOp12
 70
     0
102
RTVSPropertyOp13
 70
     0
102
RTVSPropertyOp14
 70
     2
102
RTVSPropertyOp15
 70
     0
102
RTVSPropertyOp16
 70
     0
102
RTVSPropertyOp17
 70
     0
102
RTVSPropertyOp18
 70
     0
102
RTVSPropertyOp19
 70
     0
102
RTVSPropertyOp20
 70
     0
102
RTVSPropertyOp21
 70
     0
102
RTVSPropertyOp22
 70
     0
102
RTVSPropertyOp23
 70
     0
102
RTVSPropertyOp24
 70
     0
102
RTVSPropertyOp25
 70
     0
102
RTVSPropertyOp26
 70
     0
102
RTVSPropertyOp27
 70
     0
102
RTVSPropertyOp28
 70
     0
102
RTVSPropertyOp29
 70
     0
102
RTVSPropertyOp30
 70
     0
102
RTVSPropertyOp31
 70
     0
102
RTVSPropertyOp32
 70
     0
102
RTVSPropertyOp33
 70
     0
102
RTVSPropertyOp34
 70
     0
102
RTVSPropertyOp35
 70
     0
102
RTVSPropertyOp36
 70
     0
102
RTVSPropertyOp37
 70
     0
102
RTVSPropertyOp38
 70
     0
102
RTVSPropertyOp39
 70
     0
102
RTVSPropertyOp40
 70
     0
102
RTVSPropertyOp41
 70
     0
102
RTVSPropertyOp42
 70
     0
102
RTVSPropertyOp43
 70
     0
102
RTVSPropertyOp44
 70
     0
102
RTVSPropertyOp45
 70
     0
102
RTVSPropertyOp46
 70
     0
102
RTVSPropertyOp47
 70
     0
102
RTVSPropertyOp48
 70
     0
102
RTVSPropertyOp49
 70
     0
102
RTVSPropertyOp50
 70
     0
102
RTVSPropertyOp51
 70
     0
102
RTVSPropertyOp52
 70
     0
102
RTVSPropertyOp53
 70
     0
102
RTVSPropertyOp54
 70
     0
102
RTVSPropertyOp55
 70
     0
102
RTVSPropertyOp56
 70
     0
102
RTVSPropertyOp57
 70
     0
102
RTVSPropertyOp58
 70
     0
102
RTVSPropertyOp59
 70
     0
102
RTVSPropertyOp60
 70
     0
102
RTVSPropertyOp61
 70
     0
102
RTVSPropertyOp62
 70
     0
  0
XRECORD
  5
18F1
102
{ACAD_REACTORS
330
18F0
102
}
330
18F0
100
AcDbXrecord
280
     1
102
RTVSPost2010Prop28
280
     0
102
RTVSPost2010PropOp28
 70
     1
102
RTVSPost2010Prop29
280
     1
102
RTVSPost2010PropOp29
 70
     1
102
RTVSPost2010Prop30
280
     1
102
RTVSPost2010PropOp30
 70
     1
102
RTVSPost2010Prop31
280
     0
102
RTVSPost2010PropOp31
 70
     1
102
RTVSPost2010Prop32
280
     0
102
RTVSPost2010PropOp32
 70
     1
102
RTVSPost2010Prop33
280
     0
102
RTVSPost2010PropOp33
 70
     1
102
RTVSPost2010Prop34
280
     0
102
RTVSPost2010PropOp34
 70
     1
102
RTVSPost2010Prop35
280
     0
102
RTVSPost2010PropOp35
 70
     1
102
RTVSPost2010Prop36
280
     0
102
RTVSPost2010PropOp36
 70
     1
102
RTVSPost2010Prop37
 90
       50
102
RTVSPost2010PropOp37
 70
     1
102
RTVSPost2010Prop38
140
0.0
102
RTVSPost2010PropOp38
 70
     1
102
RTVSPost2010Prop39
140
1.0
102
RTVSPost2010PropOp39
 70
     1
102
RTVSPost2010Prop40
 90
        0
102
RTVSPost2010PropOp40
 70
     1
102
RTVSPost2010Prop41ColorIndex
 90
       18
102
RTVSPost2010Prop41ColorRGB
 90
        0
102
RTVSPost2010PropOp41
 70
     1
102
RTVSPost2010Prop42
 90
       50
102
RTVSPost2010PropOp42
 70
     1
102
RTVSPost2010Prop43
 90
        3
102
RTVSPost2010PropOp43
 70
     1
102
RTVSPost2010Prop44ColorIndex
 90
        5
102
RTVSPost2010Prop44ColorRGB
 90
      255
102
RTVSPost2010PropOp44
 70
     1
102
RTVSPost2010Prop45
280
     0
102
RTVSPost2010PropOp45
 70
     1
102
RTVSPost2010Prop46
 90
       50
102
RTVSPost2010PropOp46
 70
     1
102
RTVSPost2010Prop47
 90
       50
102
RTVSPost2010PropOp47
 70
     1
102
RTVSPost2010Prop48
 90
       50
102
RTVSPost2010PropOp48
 70
     1
102
RTVSPost2010Prop49
280
     0
102
RTVSPost2010PropOp49
 70
     1
102
RTVSPost2010Prop50
 90
       50
102
RTVSPost2010PropOp50
 70
     1
102
RTVSPost2010Prop51ColorIndex
 90
      256
102
RTVSPost2010Prop51ColorRGB
 90
-16777216
102
RTVSPost2010PropOp51
 70
     0
102
RTVSPost2010Prop52
140
1.0
102
RTVSPost2010PropOp52
 70
     0
102
RTVSPost2010Prop53
 90
        2
102
RTVSPost2010PropOp53
 70
     1
102
RTVSPost2010Prop54
  1
strokes_ogs.tif
102
RTVSPost2010PropOp54
 70
     1
102
RTVSPost2010Prop55
280
     0
102
RTVSPost2010PropOp55
 70
     1
102
RTVSPost2010Prop56
140
1.0
102
RTVSPost2010PropOp56
 70
     1
102
RTVSPost2010Prop57
140
1.0
102
RTVSPost2010PropOp57
 70
     1
102
RTVSPropertyOp0
 70
     1
102
RTVSPropertyOp1
 70
     1
102
RTVSPropertyOp2
 70
     1
102
RTVSPropertyOp3
 70
     1
102
RTVSPropertyOp4
 70
     1
102
RTVSPropertyOp5
 70
     1
102
RTVSPropertyOp6
 70
     1
102
RTVSPropertyOp7
 70
     1
102
RTVSPropertyOp8
 70
     1
102
RTVSPropertyOp9
 70
     1
102
RTVSPropertyOp10
 70
     1
102
RTVSPropertyOp11
 70
     1
102
RTVSPropertyOp12
 70
     1
102
RTVSPropertyOp13
 70
     1
102
RTVSPropertyOp14
 70
     1
102
RTVSPropertyOp15
 70
     1
102
RTVSPropertyOp16
 70
     1
102
RTVSPropertyOp17
 70
     1
102
RTVSPropertyOp18
 70
     1
102
RTVSPropertyOp19
 70
     1
102
RTVSPropertyOp20
 70
     1
102
RTVSPropertyOp21
 70
     1
102
RTVSPropertyOp22
 70
     1
102
RTVSPropertyOp23
 70
     1
102
RTVSPropertyOp24
 70
     1
102
RTVSPropertyOp25
 70
     1
102
RTVSPropertyOp26
 70
     1
102
RTVSPropertyOp27
 70
     1
102
RTVSPropertyOp28
 70
     1
102
RTVSPropertyOp29
 70
     1
102
RTVSPropertyOp30
 70
     1
102
RTVSPropertyOp31
 70
     1
102
RTVSPropertyOp32
 70
     1
102
RTVSPropertyOp33
 70
     1
102
RTVSPropertyOp34
 70
     1
102
RTVSPropertyOp35
 70
     1
102
RTVSPropertyOp36
 70
     1
102
RTVSPropertyOp37
 70
     1
102
RTVSPropertyOp38
 70
     1
102
RTVSPropertyOp39
 70
     1
102
RTVSPropertyOp40
 70
     1
102
RTVSPropertyOp41
 70
     1
102
RTVSPropertyOp42
 70
     1
102
RTVSPropertyOp43
 70
     1
102
RTVSPropertyOp44
 70
     1
102
RTVSPropertyOp45
 70
     1
102
RTVSPropertyOp46
 70
     1
102
RTVSPropertyOp47
 70
     1
102
RTVSPropertyOp48
 70
     1
102
RTVSPropertyOp49
 70
     1
102
RTVSPropertyOp50
 70
     1
102
RTVSPropertyOp51
 70
     0
102
RTVSPropertyOp52
 70
     0
102
RTVSPropertyOp53
 70
     1
102
RTVSPropertyOp54
 70
     1
102
RTVSPropertyOp55
 70
     1
102
RTVSPropertyOp56
 70
     1
102
RTVSPropertyOp57
 70
     1
102
RTVSPropertyOp58
 70
     1
102
RTVSPropertyOp59
 70
     1
102
RTVSPropertyOp60
 70
     1
102
RTVSPropertyOp61
 70
     1
102
RTVSPropertyOp62
 70
     1
  0
XRECORD
  5
190C
102
{ACAD_REACTORS
330
190B
102
}
330
190B
100
AcDbXrecord
280
     1
102
RTVSPost2010Prop28
280
     0
102
RTVSPost2010PropOp28
 70
     1
102
RTVSPost2010Prop29
280
     1
102
RTVSPost2010PropOp29
 70
     1
102
RTVSPost2010Prop30
280
     1
102
RTVSPost2010PropOp30
 70
     1
102
RTVSPost2010Prop31
280
     0
102
RTVSPost2010PropOp31
 70
     1
102
RTVSPost2010Prop32
280
     0
102
RTVSPost2010PropOp32
 70
     1
102
RTVSPost2010Prop33
280
     0
102
RTVSPost2010PropOp33
 70
     1
102
RTVSPost2010Prop34
280
     0
102
RTVSPost2010PropOp34
 70
     1
102
RTVSPost2010Prop35
280
     0
102
RTVSPost2010PropOp35
 70
     1
102
RTVSPost2010Prop36
280
     0
102
RTVSPost2010PropOp36
 70
     1
102
RTVSPost2010Prop37
 90
       50
102
RTVSPost2010PropOp37
 70
     1
102
RTVSPost2010Prop38
140
0.0
102
RTVSPost2010PropOp38
 70
     1
102
RTVSPost2010Prop39
140
1.0
102
RTVSPost2010PropOp39
 70
     1
102
RTVSPost2010Prop40
 90
        0
102
RTVSPost2010PropOp40
 70
     1
102
RTVSPost2010Prop41ColorIndex
 90
       18
102
RTVSPost2010Prop41ColorRGB
 90
        0
102
RTVSPost2010PropOp41
 70
     1
102
RTVSPost2010Prop42
 90
       50
102
RTVSPost2010PropOp42
 70
     1
102
RTVSPost2010Prop43
 90
        3
102
RTVSPost2010PropOp43
 70
     1
102
RTVSPost2010Prop44ColorIndex
 90
        5
102
RTVSPost2010Prop44ColorRGB
 90
      255
102
RTVSPost2010PropOp44
 70
     1
102
RTVSPost2010Prop45
280
     0
102
RTVSPost2010PropOp45
 70
     1
102
RTVSPost2010Prop46
 90
       50
102
RTVSPost2010PropOp46
 70
     1
102
RTVSPost2010Prop47
 90
       50
102
RTVSPost2010PropOp47
 70
     1
102
RTVSPost2010Prop48
 90
       50
102
RTVSPost2010PropOp48
 70
     1
102
RTVSPost2010Prop49
280
     0
102
RTVSPost2010PropOp49
 70
     1
102
RTVSPost2010Prop50
 90
       50
102
RTVSPost2010PropOp50
 70
     1
102
RTVSPost2010Prop51ColorIndex
 90
      256
102
RTVSPost2010Prop51ColorRGB
 90
-16777216
102
RTVSPost2010PropOp51
 70
     0
102
RTVSPost2010Prop52
140
1.0
102
RTVSPost2010PropOp52
 70
     0
102
RTVSPost2010Prop53
 90
        2
102
RTVSPost2010PropOp53
 70
     1
102
RTVSPost2010Prop54
  1
strokes_ogs.tif
102
RTVSPost2010PropOp54
 70
     1
102
RTVSPost2010Prop55
280
     0
102
RTVSPost2010PropOp55
 70
     1
102
RTVSPost2010Prop56
140
1.0
102
RTVSPost2010PropOp56
 70
     1
102
RTVSPost2010Prop57
140
1.0
102
RTVSPost2010PropOp57
 70
     1
102
RTVSPropertyOp0
 70
     1
102
RTVSPropertyOp1
 70
     1
102
RTVSPropertyOp2
 70
     1
102
RTVSPropertyOp3
 70
     1
102
RTVSPropertyOp4
 70
     1
102
RTVSPropertyOp5
 70
     1
102
RTVSPropertyOp6
 70
     1
102
RTVSPropertyOp7
 70
     1
102
RTVSPropertyOp8
 70
     1
102
RTVSPropertyOp9
 70
     1
102
RTVSPropertyOp10
 70
     1
102
RTVSPropertyOp11
 70
     1
102
RTVSPropertyOp12
 70
     1
102
RTVSPropertyOp13
 70
     1
102
RTVSPropertyOp14
 70
     1
102
RTVSPropertyOp15
 70
     1
102
RTVSPropertyOp16
 70
     1
102
RTVSPropertyOp17
 70
     1
102
RTVSPropertyOp18
 70
     1
102
RTVSPropertyOp19
 70
     1
102
RTVSPropertyOp20
 70
     1
102
RTVSPropertyOp21
 70
     1
102
RTVSPropertyOp22
 70
     1
102
RTVSPropertyOp23
 70
     1
102
RTVSPropertyOp24
 70
     1
102
RTVSPropertyOp25
 70
     1
102
RTVSPropertyOp26
 70
     1
102
RTVSPropertyOp27
 70
     1
102
RTVSPropertyOp28
 70
     1
102
RTVSPropertyOp29
 70
     1
102
RTVSPropertyOp30
 70
     1
102
RTVSPropertyOp31
 70
     1
102
RTVSPropertyOp32
 70
     1
102
RTVSPropertyOp33
 70
     1
102
RTVSPropertyOp34
 70
     1
102
RTVSPropertyOp35
 70
     1
102
RTVSPropertyOp36
 70
     1
102
RTVSPropertyOp37
 70
     1
102
RTVSPropertyOp38
 70
     1
102
RTVSPropertyOp39
 70
     1
102
RTVSPropertyOp40
 70
     1
102
RTVSPropertyOp41
 70
     1
102
RTVSPropertyOp42
 70
     1
102
RTVSPropertyOp43
 70
     1
102
RTVSPropertyOp44
 70
     1
102
RTVSPropertyOp45
 70
     1
102
RTVSPropertyOp46
 70
     1
102
RTVSPropertyOp47
 70
     1
102
RTVSPropertyOp48
 70
     1
102
RTVSPropertyOp49
 70
     1
102
RTVSPropertyOp50
 70
     1
102
RTVSPropertyOp51
 70
     0
102
RTVSPropertyOp52
 70
     0
102
RTVSPropertyOp53
 70
     1
102
RTVSPropertyOp54
 70
     1
102
RTVSPropertyOp55
 70
     1
102
RTVSPropertyOp56
 70
     1
102
RTVSPropertyOp57
 70
     1
102
RTVSPropertyOp58
 70
     1
102
RTVSPropertyOp59
 70
     1
102
RTVSPropertyOp60
 70
     1
102
RTVSPropertyOp61
 70
     1
102
RTVSPropertyOp62
 70
     1
  0
XRECORD
  5
190A
102
{ACAD_REACTORS
330
1909
102
}
330
1909
100
AcDbXrecord
280
     1
102
RTVSPost2010Prop28
280
     0
102
RTVSPost2010PropOp28
 70
     1
102
RTVSPost2010Prop29
280
     1
102
RTVSPost2010PropOp29
 70
     1
102
RTVSPost2010Prop30
280
     1
102
RTVSPost2010PropOp30
 70
     1
102
RTVSPost2010Prop31
280
     0
102
RTVSPost2010PropOp31
 70
     1
102
RTVSPost2010Prop32
280
     0
102
RTVSPost2010PropOp32
 70
     1
102
RTVSPost2010Prop33
280
     0
102
RTVSPost2010PropOp33
 70
     1
102
RTVSPost2010Prop34
280
     0
102
RTVSPost2010PropOp34
 70
     1
102
RTVSPost2010Prop35
280
     0
102
RTVSPost2010PropOp35
 70
     1
102
RTVSPost2010Prop36
280
     0
102
RTVSPost2010PropOp36
 70
     1
102
RTVSPost2010Prop37
 90
       50
102
RTVSPost2010PropOp37
 70
     1
102
RTVSPost2010Prop38
140
0.0
102
RTVSPost2010PropOp38
 70
     1
102
RTVSPost2010Prop39
140
1.0
102
RTVSPost2010PropOp39
 70
     1
102
RTVSPost2010Prop40
 90
        0
102
RTVSPost2010PropOp40
 70
     1
102
RTVSPost2010Prop41ColorIndex
 90
       18
102
RTVSPost2010Prop41ColorRGB
 90
        0
102
RTVSPost2010PropOp41
 70
     1
102
RTVSPost2010Prop42
 90
       50
102
RTVSPost2010PropOp42
 70
     1
102
RTVSPost2010Prop43
 90
        3
102
RTVSPost2010PropOp43
 70
     1
102
RTVSPost2010Prop44ColorIndex
 90
        5
102
RTVSPost2010Prop44ColorRGB
 90
      255
102
RTVSPost2010PropOp44
 70
     1
102
RTVSPost2010Prop45
280
     0
102
RTVSPost2010PropOp45
 70
     1
102
RTVSPost2010Prop46
 90
       50
102
RTVSPost2010PropOp46
 70
     1
102
RTVSPost2010Prop47
 90
       50
102
RTVSPost2010PropOp47
 70
     1
102
RTVSPost2010Prop48
 90
       50
102
RTVSPost2010PropOp48
 70
     1
102
RTVSPost2010Prop49
280
     0
102
RTVSPost2010PropOp49
 70
     1
102
RTVSPost2010Prop50
 90
       50
102
RTVSPost2010PropOp50
 70
     1
102
RTVSPost2010Prop51ColorIndex
 90
      256
102
RTVSPost2010Prop51ColorRGB
 90
-16777216
102
RTVSPost2010PropOp51
 70
     0
102
RTVSPost2010Prop52
140
1.0
102
RTVSPost2010PropOp52
 70
     0
102
RTVSPost2010Prop53
 90
        2
102
RTVSPost2010PropOp53
 70
     1
102
RTVSPost2010Prop54
  1
strokes_ogs.tif
102
RTVSPost2010PropOp54
 70
     1
102
RTVSPost2010Prop55
280
     0
102
RTVSPost2010PropOp55
 70
     1
102
RTVSPost2010Prop56
140
1.0
102
RTVSPost2010PropOp56
 70
     1
102
RTVSPost2010Prop57
140
1.0
102
RTVSPost2010PropOp57
 70
     1
102
RTVSPropertyOp0
 70
     1
102
RTVSPropertyOp1
 70
     1
102
RTVSPropertyOp2
 70
     1
102
RTVSPropertyOp3
 70
     1
102
RTVSPropertyOp4
 70
     1
102
RTVSPropertyOp5
 70
     1
102
RTVSPropertyOp6
 70
     1
102
RTVSPropertyOp7
 70
     1
102
RTVSPropertyOp8
 70
     1
102
RTVSPropertyOp9
 70
     1
102
RTVSPropertyOp10
 70
     1
102
RTVSPropertyOp11
 70
     1
102
RTVSPropertyOp12
 70
     1
102
RTVSPropertyOp13
 70
     1
102
RTVSPropertyOp14
 70
     1
102
RTVSPropertyOp15
 70
     1
102
RTVSPropertyOp16
 70
     1
102
RTVSPropertyOp17
 70
     1
102
RTVSPropertyOp18
 70
     1
102
RTVSPropertyOp19
 70
     1
102
RTVSPropertyOp20
 70
     1
102
RTVSPropertyOp21
 70
     1
102
RTVSPropertyOp22
 70
     1
102
RTVSPropertyOp23
 70
     1
102
RTVSPropertyOp24
 70
     1
102
RTVSPropertyOp25
 70
     1
102
RTVSPropertyOp26
 70
     1
102
RTVSPropertyOp27
 70
     1
102
RTVSPropertyOp28
 70
     1
102
RTVSPropertyOp29
 70
     1
102
RTVSPropertyOp30
 70
     1
102
RTVSPropertyOp31
 70
     1
102
RTVSPropertyOp32
 70
     1
102
RTVSPropertyOp33
 70
     1
102
RTVSPropertyOp34
 70
     1
102
RTVSPropertyOp35
 70
     1
102
RTVSPropertyOp36
 70
     1
102
RTVSPropertyOp37
 70
     1
102
RTVSPropertyOp38
 70
     1
102
RTVSPropertyOp39
 70
     1
102
RTVSPropertyOp40
 70
     1
102
RTVSPropertyOp41
 70
     1
102
RTVSPropertyOp42
 70
     1
102
RTVSPropertyOp43
 70
     1
102
RTVSPropertyOp44
 70
     1
102
RTVSPropertyOp45
 70
     1
102
RTVSPropertyOp46
 70
     1
102
RTVSPropertyOp47
 70
     1
102
RTVSPropertyOp48
 70
     1
102
RTVSPropertyOp49
 70
     1
102
RTVSPropertyOp50
 70
     1
102
RTVSPropertyOp51
 70
     0
102
RTVSPropertyOp52
 70
     0
102
RTVSPropertyOp53
 70
     1
102
RTVSPropertyOp54
 70
     1
102
RTVSPropertyOp55
 70
     1
102
RTVSPropertyOp56
 70
     1
102
RTVSPropertyOp57
 70
     1
102
RTVSPropertyOp58
 70
     1
102
RTVSPropertyOp59
 70
     1
102
RTVSPropertyOp60
 70
     1
102
RTVSPropertyOp61
 70
     1
102
RTVSPropertyOp62
 70
     1
  0
XRECORD
  5
1904
102
{ACAD_REACTORS
330
1903
102
}
330
1903
100
AcDbXrecord
280
     1
102
RTVSPost2010Prop28
280
     0
102
RTVSPost2010PropOp28
 70
     1
102
RTVSPost2010Prop29
280
     1
102
RTVSPost2010PropOp29
 70
     1
102
RTVSPost2010Prop30
280
     1
102
RTVSPost2010PropOp30
 70
     1
102
RTVSPost2010Prop31
280
     0
102
RTVSPost2010PropOp31
 70
     1
102
RTVSPost2010Prop32
280
     0
102
RTVSPost2010PropOp32
 70
     1
102
RTVSPost2010Prop33
280
     0
102
RTVSPost2010PropOp33
 70
     1
102
RTVSPost2010Prop34
280
     0
102
RTVSPost2010PropOp34
 70
     1
102
RTVSPost2010Prop35
280
     0
102
RTVSPost2010PropOp35
 70
     1
102
RTVSPost2010Prop36
280
     0
102
RTVSPost2010PropOp36
 70
     1
102
RTVSPost2010Prop37
 90
       50
102
RTVSPost2010PropOp37
 70
     1
102
RTVSPost2010Prop38
140
0.0
102
RTVSPost2010PropOp38
 70
     1
102
RTVSPost2010Prop39
140
1.0
102
RTVSPost2010PropOp39
 70
     1
102
RTVSPost2010Prop40
 90
        0
102
RTVSPost2010PropOp40
 70
     1
102
RTVSPost2010Prop41ColorIndex
 90
       18
102
RTVSPost2010Prop41ColorRGB
 90
        0
102
RTVSPost2010PropOp41
 70
     1
102
RTVSPost2010Prop42
 90
       50
102
RTVSPost2010PropOp42
 70
     1
102
RTVSPost2010Prop43
 90
        3
102
RTVSPost2010PropOp43
 70
     1
102
RTVSPost2010Prop44ColorIndex
 90
        5
102
RTVSPost2010Prop44ColorRGB
 90
      255
102
RTVSPost2010PropOp44
 70
     1
102
RTVSPost2010Prop45
280
     0
102
RTVSPost2010PropOp45
 70
     1
102
RTVSPost2010Prop46
 90
       50
102
RTVSPost2010PropOp46
 70
     1
102
RTVSPost2010Prop47
 90
       50
102
RTVSPost2010PropOp47
 70
     1
102
RTVSPost2010Prop48
 90
       50
102
RTVSPost2010PropOp48
 70
     1
102
RTVSPost2010Prop49
280
     0
102
RTVSPost2010PropOp49
 70
     1
102
RTVSPost2010Prop50
 90
       50
102
RTVSPost2010PropOp50
 70
     1
102
RTVSPost2010Prop51ColorIndex
 90
      256
102
RTVSPost2010Prop51ColorRGB
 90
-16777216
102
RTVSPost2010PropOp51
 70
     0
102
RTVSPost2010Prop52
140
1.0
102
RTVSPost2010PropOp52
 70
     0
102
RTVSPost2010Prop53
 90
        2
102
RTVSPost2010PropOp53
 70
     1
102
RTVSPost2010Prop54
  1
strokes_ogs.tif
102
RTVSPost2010PropOp54
 70
     1
102
RTVSPost2010Prop55
280
     0
102
RTVSPost2010PropOp55
 70
     1
102
RTVSPost2010Prop56
140
1.0
102
RTVSPost2010PropOp56
 70
     1
102
RTVSPost2010Prop57
140
1.0
102
RTVSPost2010PropOp57
 70
     1
102
RTVSPropertyOp0
 70
     1
102
RTVSPropertyOp1
 70
     1
102
RTVSPropertyOp2
 70
     1
102
RTVSPropertyOp3
 70
     1
102
RTVSPropertyOp4
 70
     1
102
RTVSPropertyOp5
 70
     1
102
RTVSPropertyOp6
 70
     1
102
RTVSPropertyOp7
 70
     1
102
RTVSPropertyOp8
 70
     1
102
RTVSPropertyOp9
 70
     1
102
RTVSPropertyOp10
 70
     1
102
RTVSPropertyOp11
 70
     1
102
RTVSPropertyOp12
 70
     1
102
RTVSPropertyOp13
 70
     1
102
RTVSPropertyOp14
 70
     1
102
RTVSPropertyOp15
 70
     1
102
RTVSPropertyOp16
 70
     1
102
RTVSPropertyOp17
 70
     1
102
RTVSPropertyOp18
 70
     1
102
RTVSPropertyOp19
 70
     1
102
RTVSPropertyOp20
 70
     1
102
RTVSPropertyOp21
 70
     1
102
RTVSPropertyOp22
 70
     1
102
RTVSPropertyOp23
 70
     1
102
RTVSPropertyOp24
 70
     1
102
RTVSPropertyOp25
 70
     1
102
RTVSPropertyOp26
 70
     1
102
RTVSPropertyOp27
 70
     1
102
RTVSPropertyOp28
 70
     1
102
RTVSPropertyOp29
 70
     1
102
RTVSPropertyOp30
 70
     1
102
RTVSPropertyOp31
 70
     1
102
RTVSPropertyOp32
 70
     1
102
RTVSPropertyOp33
 70
     1
102
RTVSPropertyOp34
 70
     1
102
RTVSPropertyOp35
 70
     1
102
RTVSPropertyOp36
 70
     1
102
RTVSPropertyOp37
 70
     1
102
RTVSPropertyOp38
 70
     1
102
RTVSPropertyOp39
 70
     1
102
RTVSPropertyOp40
 70
     1
102
RTVSPropertyOp41
 70
     1
102
RTVSPropertyOp42
 70
     1
102
RTVSPropertyOp43
 70
     1
102
RTVSPropertyOp44
 70
     1
102
RTVSPropertyOp45
 70
     1
102
RTVSPropertyOp46
 70
     1
102
RTVSPropertyOp47
 70
     1
102
RTVSPropertyOp48
 70
     1
102
RTVSPropertyOp49
 70
     1
102
RTVSPropertyOp50
 70
     1
102
RTVSPropertyOp51
 70
     0
102
RTVSPropertyOp52
 70
     0
102
RTVSPropertyOp53
 70
     1
102
RTVSPropertyOp54
 70
     1
102
RTVSPropertyOp55
 70
     1
102
RTVSPropertyOp56
 70
     1
102
RTVSPropertyOp57
 70
     1
102
RTVSPropertyOp58
 70
     1
102
RTVSPropertyOp59
 70
     1
102
RTVSPropertyOp60
 70
     1
102
RTVSPropertyOp61
 70
     1
102
RTVSPropertyOp62
 70
     1
  0
XRECORD
  5
1906
102
{ACAD_REACTORS
330
1905
102
}
330
1905
100
AcDbXrecord
280
     1
102
RTVSPost2010Prop28
280
     0
102
RTVSPost2010PropOp28
 70
     1
102
RTVSPost2010Prop29
280
     1
102
RTVSPost2010PropOp29
 70
     1
102
RTVSPost2010Prop30
280
     1
102
RTVSPost2010PropOp30
 70
     1
102
RTVSPost2010Prop31
280
     0
102
RTVSPost2010PropOp31
 70
     1
102
RTVSPost2010Prop32
280
     0
102
RTVSPost2010PropOp32
 70
     1
102
RTVSPost2010Prop33
280
     0
102
RTVSPost2010PropOp33
 70
     1
102
RTVSPost2010Prop34
280
     0
102
RTVSPost2010PropOp34
 70
     1
102
RTVSPost2010Prop35
280
     0
102
RTVSPost2010PropOp35
 70
     1
102
RTVSPost2010Prop36
280
     0
102
RTVSPost2010PropOp36
 70
     1
102
RTVSPost2010Prop37
 90
       50
102
RTVSPost2010PropOp37
 70
     1
102
RTVSPost2010Prop38
140
0.0
102
RTVSPost2010PropOp38
 70
     1
102
RTVSPost2010Prop39
140
1.0
102
RTVSPost2010PropOp39
 70
     1
102
RTVSPost2010Prop40
 90
        0
102
RTVSPost2010PropOp40
 70
     1
102
RTVSPost2010Prop41ColorIndex
 90
       18
102
RTVSPost2010Prop41ColorRGB
 90
        0
102
RTVSPost2010PropOp41
 70
     1
102
RTVSPost2010Prop42
 90
       50
102
RTVSPost2010PropOp42
 70
     1
102
RTVSPost2010Prop43
 90
        3
102
RTVSPost2010PropOp43
 70
     1
102
RTVSPost2010Prop44ColorIndex
 90
        5
102
RTVSPost2010Prop44ColorRGB
 90
      255
102
RTVSPost2010PropOp44
 70
     1
102
RTVSPost2010Prop45
280
     0
102
RTVSPost2010PropOp45
 70
     1
102
RTVSPost2010Prop46
 90
       50
102
RTVSPost2010PropOp46
 70
     1
102
RTVSPost2010Prop47
 90
       50
102
RTVSPost2010PropOp47
 70
     1
102
RTVSPost2010Prop48
 90
       50
102
RTVSPost2010PropOp48
 70
     1
102
RTVSPost2010Prop49
280
     0
102
RTVSPost2010PropOp49
 70
     1
102
RTVSPost2010Prop50
 90
       50
102
RTVSPost2010PropOp50
 70
     1
102
RTVSPost2010Prop51ColorIndex
 90
      256
102
RTVSPost2010Prop51ColorRGB
 90
-16777216
102
RTVSPost2010PropOp51
 70
     0
102
RTVSPost2010Prop52
140
1.0
102
RTVSPost2010PropOp52
 70
     0
102
RTVSPost2010Prop53
 90
        2
102
RTVSPost2010PropOp53
 70
     1
102
RTVSPost2010Prop54
  1
strokes_ogs.tif
102
RTVSPost2010PropOp54
 70
     1
102
RTVSPost2010Prop55
280
     0
102
RTVSPost2010PropOp55
 70
     1
102
RTVSPost2010Prop56
140
1.0
102
RTVSPost2010PropOp56
 70
     1
102
RTVSPost2010Prop57
140
1.0
102
RTVSPost2010PropOp57
 70
     1
102
RTVSPropertyOp0
 70
     1
102
RTVSPropertyOp1
 70
     1
102
RTVSPropertyOp2
 70
     1
102
RTVSPropertyOp3
 70
     1
102
RTVSPropertyOp4
 70
     1
102
RTVSPropertyOp5
 70
     1
102
RTVSPropertyOp6
 70
     1
102
RTVSPropertyOp7
 70
     1
102
RTVSPropertyOp8
 70
     1
102
RTVSPropertyOp9
 70
     1
102
RTVSPropertyOp10
 70
     1
102
RTVSPropertyOp11
 70
     1
102
RTVSPropertyOp12
 70
     1
102
RTVSPropertyOp13
 70
     1
102
RTVSPropertyOp14
 70
     1
102
RTVSPropertyOp15
 70
     1
102
RTVSPropertyOp16
 70
     1
102
RTVSPropertyOp17
 70
     1
102
RTVSPropertyOp18
 70
     1
102
RTVSPropertyOp19
 70
     1
102
RTVSPropertyOp20
 70
     1
102
RTVSPropertyOp21
 70
     1
102
RTVSPropertyOp22
 70
     1
102
RTVSPropertyOp23
 70
     1
102
RTVSPropertyOp24
 70
     1
102
RTVSPropertyOp25
 70
     1
102
RTVSPropertyOp26
 70
     1
102
RTVSPropertyOp27
 70
     1
102
RTVSPropertyOp28
 70
     1
102
RTVSPropertyOp29
 70
     1
102
RTVSPropertyOp30
 70
     1
102
RTVSPropertyOp31
 70
     1
102
RTVSPropertyOp32
 70
     1
102
RTVSPropertyOp33
 70
     1
102
RTVSPropertyOp34
 70
     1
102
RTVSPropertyOp35
 70
     1
102
RTVSPropertyOp36
 70
     1
102
RTVSPropertyOp37
 70
     1
102
RTVSPropertyOp38
 70
     1
102
RTVSPropertyOp39
 70
     1
102
RTVSPropertyOp40
 70
     1
102
RTVSPropertyOp41
 70
     1
102
RTVSPropertyOp42
 70
     1
102
RTVSPropertyOp43
 70
     1
102
RTVSPropertyOp44
 70
     1
102
RTVSPropertyOp45
 70
     1
102
RTVSPropertyOp46
 70
     1
102
RTVSPropertyOp47
 70
     1
102
RTVSPropertyOp48
 70
     1
102
RTVSPropertyOp49
 70
     1
102
RTVSPropertyOp50
 70
     1
102
RTVSPropertyOp51
 70
     0
102
RTVSPropertyOp52
 70
     0
102
RTVSPropertyOp53
 70
     1
102
RTVSPropertyOp54
 70
     1
102
RTVSPropertyOp55
 70
     1
102
RTVSPropertyOp56
 70
     1
102
RTVSPropertyOp57
 70
     1
102
RTVSPropertyOp58
 70
     1
102
RTVSPropertyOp59
 70
     1
102
RTVSPropertyOp60
 70
     1
102
RTVSPropertyOp61
 70
     1
102
RTVSPropertyOp62
 70
     1
  0
XRECORD
  5
18F7
102
{ACAD_REACTORS
330
18F6
102
}
330
18F6
100
AcDbXrecord
280
     1
102
RTVSPost2010Prop28
280
     0
102
RTVSPost2010PropOp28
 70
     1
102
RTVSPost2010Prop29
280
     1
102
RTVSPost2010PropOp29
 70
     1
102
RTVSPost2010Prop30
280
     1
102
RTVSPost2010PropOp30
 70
     1
102
RTVSPost2010Prop31
280
     0
102
RTVSPost2010PropOp31
 70
     1
102
RTVSPost2010Prop32
280
     0
102
RTVSPost2010PropOp32
 70
     1
102
RTVSPost2010Prop33
280
     0
102
RTVSPost2010PropOp33
 70
     1
102
RTVSPost2010Prop34
280
     0
102
RTVSPost2010PropOp34
 70
     1
102
RTVSPost2010Prop35
280
     0
102
RTVSPost2010PropOp35
 70
     1
102
RTVSPost2010Prop36
280
     0
102
RTVSPost2010PropOp36
 70
     1
102
RTVSPost2010Prop37
 90
       50
102
RTVSPost2010PropOp37
 70
     1
102
RTVSPost2010Prop38
140
0.0
102
RTVSPost2010PropOp38
 70
     1
102
RTVSPost2010Prop39
140
1.0
102
RTVSPost2010PropOp39
 70
     1
102
RTVSPost2010Prop40
 90
        0
102
RTVSPost2010PropOp40
 70
     1
102
RTVSPost2010Prop41ColorIndex
 90
       18
102
RTVSPost2010Prop41ColorRGB
 90
        0
102
RTVSPost2010PropOp41
 70
     1
102
RTVSPost2010Prop42
 90
       50
102
RTVSPost2010PropOp42
 70
     1
102
RTVSPost2010Prop43
 90
        3
102
RTVSPost2010PropOp43
 70
     1
102
RTVSPost2010Prop44ColorIndex
 90
        5
102
RTVSPost2010Prop44ColorRGB
 90
      255
102
RTVSPost2010PropOp44
 70
     1
102
RTVSPost2010Prop45
280
     0
102
RTVSPost2010PropOp45
 70
     1
102
RTVSPost2010Prop46
 90
       50
102
RTVSPost2010PropOp46
 70
     1
102
RTVSPost2010Prop47
 90
       50
102
RTVSPost2010PropOp47
 70
     1
102
RTVSPost2010Prop48
 90
       50
102
RTVSPost2010PropOp48
 70
     1
102
RTVSPost2010Prop49
280
     0
102
RTVSPost2010PropOp49
 70
     1
102
RTVSPost2010Prop50
 90
       50
102
RTVSPost2010PropOp50
 70
     1
102
RTVSPost2010Prop51ColorIndex
 90
      256
102
RTVSPost2010Prop51ColorRGB
 90
-16777216
102
RTVSPost2010PropOp51
 70
     0
102
RTVSPost2010Prop52
140
1.0
102
RTVSPost2010PropOp52
 70
     0
102
RTVSPost2010Prop53
 90
        2
102
RTVSPost2010PropOp53
 70
     1
102
RTVSPost2010Prop54
  1
strokes_ogs.tif
102
RTVSPost2010PropOp54
 70
     1
102
RTVSPost2010Prop55
280
     0
102
RTVSPost2010PropOp55
 70
     1
102
RTVSPost2010Prop56
140
1.0
102
RTVSPost2010PropOp56
 70
     1
102
RTVSPost2010Prop57
140
1.0
102
RTVSPost2010PropOp57
 70
     1
102
RTVSPropertyOp0
 70
     1
102
RTVSPropertyOp1
 70
     1
102
RTVSPropertyOp2
 70
     1
102
RTVSPropertyOp3
 70
     1
102
RTVSPropertyOp4
 70
     1
102
RTVSPropertyOp5
 70
     1
102
RTVSPropertyOp6
 70
     1
102
RTVSPropertyOp7
 70
     1
102
RTVSPropertyOp8
 70
     1
102
RTVSPropertyOp9
 70
     1
102
RTVSPropertyOp10
 70
     1
102
RTVSPropertyOp11
 70
     1
102
RTVSPropertyOp12
 70
     1
102
RTVSPropertyOp13
 70
     1
102
RTVSPropertyOp14
 70
     1
102
RTVSPropertyOp15
 70
     1
102
RTVSPropertyOp16
 70
     1
102
RTVSPropertyOp17
 70
     1
102
RTVSPropertyOp18
 70
     1
102
RTVSPropertyOp19
 70
     1
102
RTVSPropertyOp20
 70
     1
102
RTVSPropertyOp21
 70
     1
102
RTVSPropertyOp22
 70
     1
102
RTVSPropertyOp23
 70
     1
102
RTVSPropertyOp24
 70
     1
102
RTVSPropertyOp25
 70
     1
102
RTVSPropertyOp26
 70
     1
102
RTVSPropertyOp27
 70
     1
102
RTVSPropertyOp28
 70
     1
102
RTVSPropertyOp29
 70
     1
102
RTVSPropertyOp30
 70
     1
102
RTVSPropertyOp31
 70
     1
102
RTVSPropertyOp32
 70
     1
102
RTVSPropertyOp33
 70
     1
102
RTVSPropertyOp34
 70
     1
102
RTVSPropertyOp35
 70
     1
102
RTVSPropertyOp36
 70
     1
102
RTVSPropertyOp37
 70
     1
102
RTVSPropertyOp38
 70
     1
102
RTVSPropertyOp39
 70
     1
102
RTVSPropertyOp40
 70
     1
102
RTVSPropertyOp41
 70
     1
102
RTVSPropertyOp42
 70
     1
102
RTVSPropertyOp43
 70
     1
102
RTVSPropertyOp44
 70
     1
102
RTVSPropertyOp45
 70
     1
102
RTVSPropertyOp46
 70
     1
102
RTVSPropertyOp47
 70
     1
102
RTVSPropertyOp48
 70
     1
102
RTVSPropertyOp49
 70
     1
102
RTVSPropertyOp50
 70
     1
102
RTVSPropertyOp51
 70
     0
102
RTVSPropertyOp52
 70
     0
102
RTVSPropertyOp53
 70
     1
102
RTVSPropertyOp54
 70
     1
102
RTVSPropertyOp55
 70
     1
102
RTVSPropertyOp56
 70
     1
102
RTVSPropertyOp57
 70
     1
102
RTVSPropertyOp58
 70
     1
102
RTVSPropertyOp59
 70
     1
102
RTVSPropertyOp60
 70
     1
102
RTVSPropertyOp61
 70
     1
102
RTVSPropertyOp62
 70
     1
  0
XRECORD
  5
1900
102
{ACAD_REACTORS
330
18FF
102
}
330
18FF
100
AcDbXrecord
280
     1
102
RTVSPost2010Prop28
280
     0
102
RTVSPost2010PropOp28
 70
     1
102
RTVSPost2010Prop29
280
     1
102
RTVSPost2010PropOp29
 70
     1
102
RTVSPost2010Prop30
280
     1
102
RTVSPost2010PropOp30
 70
     1
102
RTVSPost2010Prop31
280
     0
102
RTVSPost2010PropOp31
 70
     1
102
RTVSPost2010Prop32
280
     0
102
RTVSPost2010PropOp32
 70
     1
102
RTVSPost2010Prop33
280
     0
102
RTVSPost2010PropOp33
 70
     1
102
RTVSPost2010Prop34
280
     0
102
RTVSPost2010PropOp34
 70
     1
102
RTVSPost2010Prop35
280
     0
102
RTVSPost2010PropOp35
 70
     1
102
RTVSPost2010Prop36
280
     0
102
RTVSPost2010PropOp36
 70
     1
102
RTVSPost2010Prop37
 90
       50
102
RTVSPost2010PropOp37
 70
     1
102
RTVSPost2010Prop38
140
0.0
102
RTVSPost2010PropOp38
 70
     1
102
RTVSPost2010Prop39
140
1.0
102
RTVSPost2010PropOp39
 70
     1
102
RTVSPost2010Prop40
 90
        0
102
RTVSPost2010PropOp40
 70
     1
102
RTVSPost2010Prop41ColorIndex
 90
       18
102
RTVSPost2010Prop41ColorRGB
 90
        0
102
RTVSPost2010PropOp41
 70
     1
102
RTVSPost2010Prop42
 90
       50
102
RTVSPost2010PropOp42
 70
     1
102
RTVSPost2010Prop43
 90
        3
102
RTVSPost2010PropOp43
 70
     1
102
RTVSPost2010Prop44ColorIndex
 90
        5
102
RTVSPost2010Prop44ColorRGB
 90
      255
102
RTVSPost2010PropOp44
 70
     1
102
RTVSPost2010Prop45
280
     0
102
RTVSPost2010PropOp45
 70
     1
102
RTVSPost2010Prop46
 90
       50
102
RTVSPost2010PropOp46
 70
     1
102
RTVSPost2010Prop47
 90
       50
102
RTVSPost2010PropOp47
 70
     1
102
RTVSPost2010Prop48
 90
       50
102
RTVSPost2010PropOp48
 70
     1
102
RTVSPost2010Prop49
280
     0
102
RTVSPost2010PropOp49
 70
     1
102
RTVSPost2010Prop50
 90
       50
102
RTVSPost2010PropOp50
 70
     1
102
RTVSPost2010Prop51ColorIndex
 90
      256
102
RTVSPost2010Prop51ColorRGB
 90
-16777216
102
RTVSPost2010PropOp51
 70
     0
102
RTVSPost2010Prop52
140
1.0
102
RTVSPost2010PropOp52
 70
     0
102
RTVSPost2010Prop53
 90
        2
102
RTVSPost2010PropOp53
 70
     1
102
RTVSPost2010Prop54
  1
strokes_ogs.tif
102
RTVSPost2010PropOp54
 70
     1
102
RTVSPost2010Prop55
280
     0
102
RTVSPost2010PropOp55
 70
     1
102
RTVSPost2010Prop56
140
1.0
102
RTVSPost2010PropOp56
 70
     1
102
RTVSPost2010Prop57
140
1.0
102
RTVSPost2010PropOp57
 70
     1
102
RTVSPropertyOp0
 70
     1
102
RTVSPropertyOp1
 70
     1
102
RTVSPropertyOp2
 70
     1
102
RTVSPropertyOp3
 70
     1
102
RTVSPropertyOp4
 70
     1
102
RTVSPropertyOp5
 70
     1
102
RTVSPropertyOp6
 70
     1
102
RTVSPropertyOp7
 70
     1
102
RTVSPropertyOp8
 70
     1
102
RTVSPropertyOp9
 70
     1
102
RTVSPropertyOp10
 70
     1
102
RTVSPropertyOp11
 70
     1
102
RTVSPropertyOp12
 70
     1
102
RTVSPropertyOp13
 70
     1
102
RTVSPropertyOp14
 70
     1
102
RTVSPropertyOp15
 70
     1
102
RTVSPropertyOp16
 70
     1
102
RTVSPropertyOp17
 70
     1
102
RTVSPropertyOp18
 70
     1
102
RTVSPropertyOp19
 70
     1
102
RTVSPropertyOp20
 70
     1
102
RTVSPropertyOp21
 70
     1
102
RTVSPropertyOp22
 70
     1
102
RTVSPropertyOp23
 70
     1
102
RTVSPropertyOp24
 70
     1
102
RTVSPropertyOp25
 70
     1
102
RTVSPropertyOp26
 70
     1
102
RTVSPropertyOp27
 70
     1
102
RTVSPropertyOp28
 70
     1
102
RTVSPropertyOp29
 70
     1
102
RTVSPropertyOp30
 70
     1
102
RTVSPropertyOp31
 70
     1
102
RTVSPropertyOp32
 70
     1
102
RTVSPropertyOp33
 70
     1
102
RTVSPropertyOp34
 70
     1
102
RTVSPropertyOp35
 70
     1
102
RTVSPropertyOp36
 70
     1
102
RTVSPropertyOp37
 70
     1
102
RTVSPropertyOp38
 70
     1
102
RTVSPropertyOp39
 70
     1
102
RTVSPropertyOp40
 70
     1
102
RTVSPropertyOp41
 70
     1
102
RTVSPropertyOp42
 70
     1
102
RTVSPropertyOp43
 70
     1
102
RTVSPropertyOp44
 70
     1
102
RTVSPropertyOp45
 70
     1
102
RTVSPropertyOp46
 70
     1
102
RTVSPropertyOp47
 70
     1
102
RTVSPropertyOp48
 70
     1
102
RTVSPropertyOp49
 70
     1
102
RTVSPropertyOp50
 70
     1
102
RTVSPropertyOp51
 70
     0
102
RTVSPropertyOp52
 70
     0
102
RTVSPropertyOp53
 70
     1
102
RTVSPropertyOp54
 70
     1
102
RTVSPropertyOp55
 70
     1
102
RTVSPropertyOp56
 70
     1
102
RTVSPropertyOp57
 70
     1
102
RTVSPropertyOp58
 70
     1
102
RTVSPropertyOp59
 70
     1
102
RTVSPropertyOp60
 70
     1
102
RTVSPropertyOp61
 70
     1
102
RTVSPropertyOp62
 70
     1
  0
XRECORD
  5
1908
102
{ACAD_REACTORS
330
1907
102
}
330
1907
100
AcDbXrecord
280
     1
102
RTVSPost2010Prop28
280
     0
102
RTVSPost2010PropOp28
 70
     1
102
RTVSPost2010Prop29
280
     1
102
RTVSPost2010PropOp29
 70
     1
102
RTVSPost2010Prop30
280
     1
102
RTVSPost2010PropOp30
 70
     1
102
RTVSPost2010Prop31
280
     0
102
RTVSPost2010PropOp31
 70
     1
102
RTVSPost2010Prop32
280
     0
102
RTVSPost2010PropOp32
 70
     1
102
RTVSPost2010Prop33
280
     0
102
RTVSPost2010PropOp33
 70
     1
102
RTVSPost2010Prop34
280
     0
102
RTVSPost2010PropOp34
 70
     1
102
RTVSPost2010Prop35
280
     0
102
RTVSPost2010PropOp35
 70
     1
102
RTVSPost2010Prop36
280
     0
102
RTVSPost2010PropOp36
 70
     1
102
RTVSPost2010Prop37
 90
       50
102
RTVSPost2010PropOp37
 70
     1
102
RTVSPost2010Prop38
140
0.0
102
RTVSPost2010PropOp38
 70
     1
102
RTVSPost2010Prop39
140
1.0
102
RTVSPost2010PropOp39
 70
     1
102
RTVSPost2010Prop40
 90
        0
102
RTVSPost2010PropOp40
 70
     1
102
RTVSPost2010Prop41ColorIndex
 90
       18
102
RTVSPost2010Prop41ColorRGB
 90
        0
102
RTVSPost2010PropOp41
 70
     1
102
RTVSPost2010Prop42
 90
       50
102
RTVSPost2010PropOp42
 70
     1
102
RTVSPost2010Prop43
 90
        3
102
RTVSPost2010PropOp43
 70
     1
102
RTVSPost2010Prop44ColorIndex
 90
        5
102
RTVSPost2010Prop44ColorRGB
 90
      255
102
RTVSPost2010PropOp44
 70
     1
102
RTVSPost2010Prop45
280
     0
102
RTVSPost2010PropOp45
 70
     1
102
RTVSPost2010Prop46
 90
       50
102
RTVSPost2010PropOp46
 70
     1
102
RTVSPost2010Prop47
 90
       50
102
RTVSPost2010PropOp47
 70
     1
102
RTVSPost2010Prop48
 90
       50
102
RTVSPost2010PropOp48
 70
     1
102
RTVSPost2010Prop49
280
     0
102
RTVSPost2010PropOp49
 70
     1
102
RTVSPost2010Prop50
 90
       50
102
RTVSPost2010PropOp50
 70
     1
102
RTVSPost2010Prop51ColorIndex
 90
      256
102
RTVSPost2010Prop51ColorRGB
 90
-16777216
102
RTVSPost2010PropOp51
 70
     0
102
RTVSPost2010Prop52
140
1.0
102
RTVSPost2010PropOp52
 70
     0
102
RTVSPost2010Prop53
 90
        2
102
RTVSPost2010PropOp53
 70
     1
102
RTVSPost2010Prop54
  1
strokes_ogs.tif
102
RTVSPost2010PropOp54
 70
     1
102
RTVSPost2010Prop55
280
     0
102
RTVSPost2010PropOp55
 70
     1
102
RTVSPost2010Prop56
140
1.0
102
RTVSPost2010PropOp56
 70
     1
102
RTVSPost2010Prop57
140
1.0
102
RTVSPost2010PropOp57
 70
     1
102
RTVSPropertyOp0
 70
     1
102
RTVSPropertyOp1
 70
     1
102
RTVSPropertyOp2
 70
     1
102
RTVSPropertyOp3
 70
     1
102
RTVSPropertyOp4
 70
     1
102
RTVSPropertyOp5
 70
     1
102
RTVSPropertyOp6
 70
     1
102
RTVSPropertyOp7
 70
     1
102
RTVSPropertyOp8
 70
     1
102
RTVSPropertyOp9
 70
     1
102
RTVSPropertyOp10
 70
     1
102
RTVSPropertyOp11
 70
     1
102
RTVSPropertyOp12
 70
     1
102
RTVSPropertyOp13
 70
     1
102
RTVSPropertyOp14
 70
     1
102
RTVSPropertyOp15
 70
     1
102
RTVSPropertyOp16
 70
     1
102
RTVSPropertyOp17
 70
     1
102
RTVSPropertyOp18
 70
     1
102
RTVSPropertyOp19
 70
     1
102
RTVSPropertyOp20
 70
     1
102
RTVSPropertyOp21
 70
     1
102
RTVSPropertyOp22
 70
     1
102
RTVSPropertyOp23
 70
     1
102
RTVSPropertyOp24
 70
     1
102
RTVSPropertyOp25
 70
     1
102
RTVSPropertyOp26
 70
     1
102
RTVSPropertyOp27
 70
     1
102
RTVSPropertyOp28
 70
     1
102
RTVSPropertyOp29
 70
     1
102
RTVSPropertyOp30
 70
     1
102
RTVSPropertyOp31
 70
     1
102
RTVSPropertyOp32
 70
     1
102
RTVSPropertyOp33
 70
     1
102
RTVSPropertyOp34
 70
     1
102
RTVSPropertyOp35
 70
     1
102
RTVSPropertyOp36
 70
     1
102
RTVSPropertyOp37
 70
     1
102
RTVSPropertyOp38
 70
     1
102
RTVSPropertyOp39
 70
     1
102
RTVSPropertyOp40
 70
     1
102
RTVSPropertyOp41
 70
     1
102
RTVSPropertyOp42
 70
     1
102
RTVSPropertyOp43
 70
     1
102
RTVSPropertyOp44
 70
     1
102
RTVSPropertyOp45
 70
     1
102
RTVSPropertyOp46
 70
     1
102
RTVSPropertyOp47
 70
     1
102
RTVSPropertyOp48
 70
     1
102
RTVSPropertyOp49
 70
     1
102
RTVSPropertyOp50
 70
     1
102
RTVSPropertyOp51
 70
     0
102
RTVSPropertyOp52
 70
     0
102
RTVSPropertyOp53
 70
     1
102
RTVSPropertyOp54
 70
     1
102
RTVSPropertyOp55
 70
     1
102
RTVSPropertyOp56
 70
     1
102
RTVSPropertyOp57
 70
     1
102
RTVSPropertyOp58
 70
     1
102
RTVSPropertyOp59
 70
     1
102
RTVSPropertyOp60
 70
     1
102
RTVSPropertyOp61
 70
     1
102
RTVSPropertyOp62
 70
     1
  0
ENDSEC
  0
EOF
