  0
SECTION
  2
HEADER
  9
$CLAYER
  8
1
  9
$LTSCALE
 40
3.0
  0
ENDSEC
  0
SECTION
  2
TABLES
  0
TABLE
  2
LTYPE
 70
     4
  0
LTYPE
  2
CONTINUOUS
  3
solid line
 70
    64
 72
    65
 73
     0
 40
0.0
  0
LTYPE
  2
DASHED
  3
__ __ __ __ __ __ __ __ __ __ __ __ __ __ __
 70
    64
 72
    65
 73
     2
 40
0.75
 49
0.5
 49
-0.25
  0
LTYPE
  2
CENTER
  3
____ _ ____ _ ____ _ ____ _ ____ _ ____ _ ____
 70
    64
 72
    65
 73
     4
 40
2.0
 49
1.25
 49
-0.25
 49
0.25
 49
-0.25
  0
LTYPE
  2
PHANTOM
  3
_____ _ _ _____ _ _ _____ _ _ _____ _ _ ____
 70
    64
 72
    65
 73
     6
 40
2.5
 49
1.25
 49
-0.25
 49
0.25
 49
-0.25
 49
0.25
 49
-0.25
  0
ENDTAB
  0
TABLE
  2
LAYER
 70
     1
  0
LAYER
  2
0
 70
    64
 62
     7
  6
CONTINUOUS
  0
ENDTAB
  0
TABLE
  2
STYLE
 70
     1
  0
STYLE
  2
STANDARD
 70
     0
 40
0.000000
 41
1.000000
 50
0.000000
 71
     0
 42
3.000000
  3
txt
  4
BIGFONT
  0
ENDTAB
  0
ENDSEC
  0
SECTION
  2
BLOCKS
  0
ENDSEC
  0
SECTION
  2
ENTITIES
  0
LINE
  8
0
  6
CENTER
 10
-8.493750
 20
51.494999
 11
155.547943
 21
51.494999
  0
LINE
  8
0
  6
CONTINUOUS
 10
234.161255
 20
32.695000
 11
234.161255
 21
91.695000
  0
LINE
  8
0
  6
CONTINUOUS
 10
60.661251
 20
96.495003
 11
133.507004
 21
96.495003
  0
LINE
  8
0
  6
CONTINUOUS
 10
131.161255
 20
6.495000
 11
60.661251
 21
6.495000
  0
LINE
  8
0
  6
CENTER
 10
147.884995
 20
77.195000
 11
219.969070
 21
77.195000
  0
LINE
  8
0
  6
CENTER
 10
183.661255
 20
129.744995
 11
183.661255
 21
-6.245300
  0
LINE
  8
0
  6
CONTINUOUS
 10
143.661255
 20
121.195000
 11
223.661255
 21
121.195000
  0
LINE
  8
0
  6
CONTINUOUS
 10
143.661255
 20
3.195000
 11
223.661255
 21
3.195000
  0
LINE
  8
0
  6
CENTER
 10
216.661255
 20
112.195000
 11
230.536255
 21
112.195000
  0
LINE
  8
0
  6
CENTER
 10
223.661255
 20
105.495003
 11
223.661255
 21
118.995003
  0
CIRCLE
  8
0
  6
CONTINUOUS
 10
223.661255
 20
112.195000
 40
4.250000
  0
LINE
  8
0
  6
CENTER
 10
216.661255
 20
12.195000
 11
230.536255
 21
12.195000
  0
LINE
  8
0
  6
CENTER
 10
223.661255
 20
18.895000
 11
223.661255
 21
5.395000
  0
CIRCLE
  8
0
  6
CONTINUOUS
 10
223.661255
 20
12.195000
 40
4.250000
  0
LINE
  8
0
  6
CENTER
 10
150.661255
 20
112.195000
 11
136.786255
 21
112.195000
  0
LINE
  8
0
  6
CENTER
 10
143.661255
 20
105.495003
 11
143.661255
 21
118.995003
  0
CIRCLE
  8
0
  6
CONTINUOUS
 10
143.661255
 20
112.195000
 40
4.250000
  0
LINE
  8
0
  6
CENTER
 10
150.661255
 20
12.195000
 11
136.786255
 21
12.195000
  0
LINE
  8
0
  6
CENTER
 10
143.661255
 20
18.895000
 11
143.661255
 21
5.395000
  0
CIRCLE
  8
0
  6
CONTINUOUS
 10
143.661255
 20
12.195000
 40
4.250000
  0
LINE
  8
0
  6
CONTINUOUS
 10
232.637955
 20
112.841629
 11
234.161255
 21
91.695000
  0
LINE
  8
0
  6
CONTINUOUS
 10
232.637955
 20
11.548440
 11
234.161255
 21
32.695000
  0
LINE
  8
0
  6
CONTINUOUS
 10
157.661255
 20
117.195000
 11
209.661255
 21
117.195000
  0
LINE
  8
0
  6
CONTINUOUS
 10
209.661255
 20
7.195000
 11
157.661255
 21
7.195000
  0
LINE
  8
0
  6
CONTINUOUS
 10
135.661255
 20
77.887192
 11
135.661255
 21
46.502480
  0
ARC
  8
0
  6
CONTINUOUS
 10
183.661255
 20
62.195000
 40
50.500000
 50
18.103800
 51
161.896194
  0
ARC
  8
0
  6
CONTINUOUS
 10
183.661255
 20
62.195000
 40
50.500000
 50
198.103806
 51
341.896210
  0
LINE
  8
0
  6
CONTINUOUS
 10
231.661255
 20
77.887360
 11
231.661255
 21
46.502964
  0
ARC
  8
0
  6
CONTINUOUS
 10
209.661255
 20
112.195000
 40
5.000000
 50
0.000000
 51
90.000000
  0
ARC
  8
0
  6
CONTINUOUS
 10
224.667145
 20
98.231178
 40
5.000000
 50
4.120544
 51
94.120201
  0
ARC
  8
0
  6
CONTINUOUS
 10
223.661255
 20
112.195000
 40
9.000000
 50
180.000000
 51
274.120697
  0
ARC
  8
0
  6
CONTINUOUS
 10
223.661255
 20
112.195000
 40
9.000000
 50
4.120065
 51
90.000000
  0
ARC
  8
0
  6
CONTINUOUS
 10
209.661255
 20
12.195000
 40
5.000000
 50
-90.000000
 51
0.000000
  0
ARC
  8
0
  6
CONTINUOUS
 10
224.667145
 20
26.158819
 40
5.000000
 50
265.879791
 51
355.879486
  0
ARC
  8
0
  6
CONTINUOUS
 10
223.661255
 20
12.195000
 40
9.000000
 50
270.000000
 51
355.879913
  0
ARC
  8
0
  6
CONTINUOUS
 10
223.661255
 20
12.195000
 40
9.000000
 50
85.879837
 51
180.000000
  0
LINE
  8
0
  6
CONTINUOUS
 10
229.654144
 20
98.590462
 11
231.661255
 21
77.887360
  0
LINE
  8
0
  6
CONTINUOUS
 10
229.654144
 20
25.799580
 11
231.661346
 21
46.502964
  0
ARC
  8
0
  6
CONTINUOUS
 10
157.661255
 20
112.195000
 40
5.000000
 50
90.000000
 51
180.000000
  0
ARC
  8
0
  6
CONTINUOUS
 10
143.661255
 20
112.195000
 40
9.000000
 50
-94.120667
 51
0.000000
  0
ARC
  8
0
  6
CONTINUOUS
 10
142.655350
 20
98.231178
 40
5.000000
 50
85.879799
 51
175.879501
  0
LINE
  8
0
  6
CONTINUOUS
 10
137.668350
 20
98.590462
 11
135.661255
 21
77.887360
  0
ARC
  8
0
  6
CONTINUOUS
 10
142.655350
 20
26.158819
 40
5.000000
 50
-175.879501
 51
-85.879791
  0
ARC
  8
0
  6
CONTINUOUS
 10
143.661255
 20
12.195000
 40
9.000000
 50
0.000000
 51
94.120163
  0
ARC
  8
0
  6
CONTINUOUS
 10
157.661255
 20
12.195000
 40
5.000000
 50
180.000000
 51
270.000000
  0
LINE
  8
0
  6
CONTINUOUS
 10
137.668350
 20
25.799580
 11
135.661148
 21
46.502964
  0
ARC
  8
0
  6
CONTINUOUS
 10
143.661255
 20
112.195000
 40
9.000000
 50
90.000000
 51
175.879898
  0
LINE
  8
0
  6
CONTINUOUS
 10
134.684448
 20
112.841629
 11
133.161255
 21
91.695000
  0
LINE
  8
0
  6
CONTINUOUS
 10
134.684448
 20
11.548440
 11
133.161255
 21
32.695000
  0
ARC
  8
0
  6
CONTINUOUS
 10
143.661255
 20
12.195000
 40
9.000000
 50
-175.879898
 51
-90.000000
  0
ARC
  8
0
  6
CONTINUOUS
 10
138.161255
 20
16.495029
 40
5.000000
 50
143.994797
 51
180.000000
  0
ARC
  8
0
  6
CONTINUOUS
 10
131.161255
 20
8.495000
 40
2.000000
 50
-90.000000
 51
0.000000
  0
LINE
  8
0
  6
CONTINUOUS
 10
133.161255
 20
8.495000
 11
133.161255
 21
16.495029
  0
LINE
  8
0
  6
CONTINUOUS
 10
133.161255
 20
91.695000
 11
133.161255
 21
32.694988
  0
LINE
  8
0
  6
CONTINUOUS
 10
60.661251
 20
85.904297
 11
131.161255
 21
85.904297
  0
LINE
  8
0
  6
CONTINUOUS
 10
60.661251
 20
17.085690
 11
131.661255
 21
17.085690
  0
CIRCLE
  8
0
  6
CONTINUOUS
 10
183.661255
 20
77.195000
 40
23.500000
  0
LINE
  8
0
  6
CONTINUOUS
 10
177.286255
 20
39.748230
 11
177.286255
 21
34.195000
  0
LINE
  8
0
  6
CONTINUOUS
 10
180.473755
 20
41.765316
 11
180.473755
 21
43.757504
  0
LINE
  8
0
  6
CONTINUOUS
 10
186.848755
 20
41.765316
 11
186.848755
 21
43.757504
  0
LINE
  8
0
  6
CONTINUOUS
 10
183.038651
 20
42.587093
 11
183.038651
 21
35.240898
  0
LINE
  8
0
  6
CONTINUOUS
 10
184.234055
 20
42.587093
 11
184.234055
 21
35.240898
  0
LINE
  8
0
  6
CONTINUOUS
 10
190.509354
 20
42.587093
 11
190.509354
 21
35.191101
  0
LINE
  8
0
  6
CONTINUOUS
 10
191.605057
 20
38.664982
 11
191.605057
 21
35.191101
  0
LINE
  8
0
  6
CONTINUOUS
 10
175.773743
 20
42.487484
 11
172.701843
 21
42.487484
  0
LINE
  8
0
  6
CONTINUOUS
 10
172.701843
 20
42.487484
 11
171.982056
 21
41.594990
  0
LINE
  8
0
  6
CONTINUOUS
 10
172.068649
 20
43.757504
 11
170.911255
 21
42.275509
  0
LINE
  8
0
  6
CONTINUOUS
 10
171.982056
 20
36.085930
 11
172.713348
 21
35.315609
  0
LINE
  8
0
  6
CONTINUOUS
 10
170.911255
 20
35.435860
 11
172.141052
 21
34.195000
  0
LINE
  8
0
  6
CONTINUOUS
 10
170.911255
 20
42.275509
 11
170.911255
 21
35.435860
  0
LINE
  8
0
  6
CONTINUOUS
 10
171.982056
 20
41.594990
 11
171.982056
 21
36.085930
  0
LINE
  8
0
  6
CONTINUOUS
 10
176.364853
 20
41.916042
 11
175.761642
 21
42.487484
  0
LINE
  8
0
  6
CONTINUOUS
 10
176.355255
 20
43.757504
 11
177.286255
 21
42.724361
  0
LINE
  8
0
  6
CONTINUOUS
 10
176.364853
 20
41.765316
 11
177.286255
 21
41.765316
  0
LINE
  8
0
  6
CONTINUOUS
 10
172.068649
 20
43.757504
 11
176.355255
 21
43.757504
  0
LINE
  8
0
  6
CONTINUOUS
 10
176.364853
 20
38.702332
 11
174.696457
 21
38.702332
  0
LINE
  8
0
  6
CONTINUOUS
 10
176.364853
 20
37.706242
 11
176.364853
 21
38.503109
  0
LINE
  8
0
  6
CONTINUOUS
 10
174.372650
 20
35.315609
 11
172.713348
 21
35.315609
  0
ARC
  8
0
  6
CONTINUOUS
 10
174.372650
 20
37.307800
 40
1.992187
 50
-89.999786
 51
0.000109
  0
LINE
  8
0
  6
CONTINUOUS
 10
176.364853
 20
34.957272
 11
176.364853
 21
34.195000
  0
LINE
  8
0
  6
CONTINUOUS
 10
177.286255
 20
42.724361
 11
177.286255
 21
41.765316
  0
LINE
  8
0
  6
CONTINUOUS
 10
176.364853
 20
38.702332
 11
176.364853
 21
37.307800
  0
LINE
  8
0
  6
CONTINUOUS
 10
174.696457
 20
39.748230
 11
174.696457
 21
38.702332
  0
LINE
  8
0
  6
CONTINUOUS
 10
176.364853
 20
34.195000
 11
177.286255
 21
34.195000
  0
LINE
  8
0
  6
CONTINUOUS
 10
176.364853
 20
34.957272
 11
175.456345
 21
34.195000
  0
LINE
  8
0
  6
CONTINUOUS
 10
184.234055
 20
35.240898
 11
184.632446
 21
35.240898
  0
LINE
  8
0
  6
CONTINUOUS
 10
182.565552
 20
35.240898
 11
182.565552
 21
34.195000
  0
LINE
  8
0
  6
CONTINUOUS
 10
184.632446
 20
35.240898
 11
184.632446
 21
34.195000
  0
LINE
  8
0
  6
CONTINUOUS
 10
186.183746
 20
41.765316
 11
186.848755
 21
41.765316
  0
LINE
  8
0
  6
CONTINUOUS
 10
180.473755
 20
41.765316
 11
181.181351
 21
41.765316
  0
LINE
  8
0
  6
CONTINUOUS
 10
180.473755
 20
43.757504
 11
186.848755
 21
43.757504
  0
LINE
  8
0
  6
CONTINUOUS
 10
182.565552
 20
34.195000
 11
184.632446
 21
34.195000
  0
LINE
  8
0
  6
CONTINUOUS
 10
182.565552
 20
35.240898
 11
183.038651
 21
35.240898
  0
ARC
  8
0
  6
CONTINUOUS
 10
193.858749
 20
41.205009
 40
2.552490
 50
-73.981873
 51
90.003510
  0
ARC
  8
0
  6
CONTINUOUS
 10
193.858749
 20
41.205009
 40
1.557193
 50
-82.585274
 51
62.411850
  0
LINE
  8
0
  6
CONTINUOUS
 10
190.036255
 20
43.757504
 11
193.858749
 21
43.757504
  0
LINE
  8
0
  6
CONTINUOUS
 10
190.036255
 20
43.757504
 11
190.036255
 21
42.587093
  0
LINE
  8
0
  6
CONTINUOUS
 10
191.605057
 20
42.587093
 11
191.605057
 21
39.660839
  0
LINE
  8
0
  6
CONTINUOUS
 10
194.563156
 20
38.751629
 11
196.142944
 21
35.191101
  0
LINE
  8
0
  6
CONTINUOUS
 10
193.645554
 20
38.664982
 11
195.140656
 21
35.191101
  0
LINE
  8
0
  6
CONTINUOUS
 10
190.036255
 20
35.191101
 11
190.509354
 21
35.191101
  0
LINE
  8
0
  6
CONTINUOUS
 10
191.605057
 20
35.191101
 11
192.040848
 21
35.191101
  0
LINE
  8
0
  6
CONTINUOUS
 10
192.040848
 20
34.195000
 11
190.036255
 21
34.195000
  0
LINE
  8
0
  6
CONTINUOUS
 10
194.942047
 20
35.191101
 11
195.140656
 21
35.191101
  0
LINE
  8
0
  6
CONTINUOUS
 10
196.142944
 20
35.191101
 11
196.411255
 21
35.191101
  0
LINE
  8
0
  6
CONTINUOUS
 10
194.942047
 20
34.195000
 11
196.411255
 21
34.195000
  0
LINE
  8
0
  6
CONTINUOUS
 10
196.411255
 20
35.191101
 11
196.411255
 21
34.195000
  0
LINE
  8
0
  6
CONTINUOUS
 10
194.942047
 20
35.191101
 11
194.942047
 21
34.195000
  0
LINE
  8
0
  6
CONTINUOUS
 10
192.040848
 20
35.191101
 11
192.040848
 21
34.195000
  0
LINE
  8
0
  6
CONTINUOUS
 10
190.036255
 20
35.191101
 11
190.036255
 21
34.195000
  0
LINE
  8
0
  6
CONTINUOUS
 10
181.523743
 20
42.587093
 11
181.181351
 21
41.765316
  0
LINE
  8
0
  6
CONTINUOUS
 10
185.895050
 20
42.587093
 11
186.183746
 21
41.765316
  0
LINE
  8
0
  6
CONTINUOUS
 10
184.234055
 20
42.587093
 11
185.895050
 21
42.587093
  0
LINE
  8
0
  6
CONTINUOUS
 10
183.038651
 20
42.587093
 11
181.523743
 21
42.587093
  0
LINE
  8
0
  6
CONTINUOUS
 10
190.036255
 20
42.587093
 11
190.509354
 21
42.587093
  0
LINE
  8
0
  6
CONTINUOUS
 10
191.605057
 20
42.587093
 11
194.579956
 21
42.585155
  0
LINE
  8
0
  6
CONTINUOUS
 10
176.364853
 20
41.916042
 11
176.364853
 21
41.765316
  0
LINE
  8
0
  6
CONTINUOUS
 10
172.141052
 20
34.195000
 11
175.456345
 21
34.195000
  0
LINE
  8
0
  6
CONTINUOUS
 10
191.605057
 20
39.660839
 11
194.059753
 21
39.660839
  0
LINE
  8
0
  6
CONTINUOUS
 10
191.605057
 20
38.664982
 11
193.645554
 21
38.664982
  0
LINE
  8
0
  6
CONTINUOUS
 10
174.696457
 20
39.748230
 11
177.286255
 21
39.748230
  0
LINE
  8
0
  6
CONTINUOUS
 10
169.661255
 20
116.263802
 11
169.661255
 21
110.715607
  0
LINE
  8
0
  6
CONTINUOUS
 10
197.661255
 20
116.263802
 11
197.661255
 21
110.715622
  0
LINE
  8
0
  6
CONTINUOUS
 10
169.661255
 20
13.674390
 11
169.661255
 21
8.400370
  0
LINE
  8
0
  6
CONTINUOUS
 10
197.661255
 20
13.674390
 11
197.661255
 21
8.400370
  0
LINE
  8
0
  6
CONTINUOUS
 10
189.161255
 20
74.195023
 11
189.161255
 21
80.195023
  0
LINE
  8
0
  6
CONTINUOUS
 10
195.161255
 20
74.195038
 11
195.161255
 21
80.195038
  0
LINE
  8
0
  6
CONTINUOUS
 10
195.161255
 20
74.195038
 11
189.161255
 21
74.195023
  0
LINE
  8
0
  6
CONTINUOUS
 10
195.161255
 20
80.195038
 11
189.161255
 21
80.195023
  0
ARC
  8
0
  6
CONTINUOUS
 10
183.661255
 20
77.195000
 40
9.000000
 50
19.471210
 51
340.528809
  0
LINE
  8
0
  6
CENTER
 10
183.661255
 20
305.982513
 11
183.661255
 21
170.520004
  0
LINE
  8
0
  6
CENTER
 10
-10.216875
 20
250.813126
 11
247.802505
 21
250.813126
  0
LINE
  8
0
  6
CONTINUOUS
 10
229.987137
 20
287.813110
 11
135.109558
 21
287.813110
  0
LINE
  8
0
  6
CONTINUOUS
 10
132.951828
 20
279.815857
 11
133.110245
 21
285.865479
  0
LINE
  8
0
  6
CONTINUOUS
 10
131.003448
 20
295.813110
 11
60.661251
 21
295.813110
  0
LINE
  8
0
  6
CONTINUOUS
 10
60.661251
 20
279.813110
 11
140.003799
 21
279.813110
  0
LINE
  8
0
  6
CONTINUOUS
 10
60.661251
 20
221.813126
 11
131.278122
 21
221.813126
  0
LINE
  8
0
  6
CONTINUOUS
 10
131.134384
 20
205.813126
 11
60.661251
 21
205.813126
  0
LINE
  8
0
  6
CONTINUOUS
 10
131.904327
 20
250.813126
 11
133.161255
 21
202.813126
  0
LINE
  8
0
  6
CONTINUOUS
 10
166.661255
 20
282.813110
 11
166.661255
 21
214.813126
  0
LINE
  8
0
  6
CONTINUOUS
 10
200.661255
 20
282.813110
 11
200.661255
 21
214.813126
  0
LINE
  8
0
  6
CONTINUOUS
 10
140.003799
 20
277.813110
 11
140.003799
 21
214.348129
  0
LINE
  8
0
  6
CONTINUOUS
 10
206.161255
 20
292.813110
 11
161.161255
 21
292.813110
  0
LINE
  8
0
  6
CONTINUOUS
 10
160.161255
 20
291.813110
 11
160.161255
 21
289.813110
  0
LINE
  8
0
  6
CONTINUOUS
 10
207.161255
 20
291.813110
 11
207.161255
 21
289.813110
  0
ARC
  8
0
  6
CONTINUOUS
 10
158.161255
 20
289.813110
 40
2.000000
 50
-90.000000
 51
0.000000
  0
ARC
  8
0
  6
CONTINUOUS
 10
209.161240
 20
289.813110
 40
2.000000
 50
180.000000
 51
270.000000
  0
ARC
  8
0
  6
CONTINUOUS
 10
161.161255
 20
291.813110
 40
1.000000
 50
90.000000
 51
180.000000
  0
ARC
  8
0
  6
CONTINUOUS
 10
206.161255
 20
291.813110
 40
1.000000
 50
0.000000
 51
90.000000
  0
LINE
  8
0
  6
CONTINUOUS
 10
195.161255
 20
176.813126
 11
174.661255
 21
176.813126
  0
LINE
  8
0
  6
CONTINUOUS
 10
174.661255
 20
202.813126
 11
174.661255
 21
176.813126
  0
LINE
  8
0
  6
CONTINUOUS
 10
195.161255
 20
176.813126
 11
195.161255
 21
200.813126
  0
LINE
  8
0
  6
CONTINUOUS
 10
192.146255
 20
176.813126
 11
192.146255
 21
200.813126
  0
LINE
  8
0
  6
CONTINUOUS
 10
133.161255
 20
202.813126
 11
234.161255
 21
202.813126
  0
LINE
  8
0
  6
CONTINUOUS
 10
231.986450
 20
285.865479
 11
234.161255
 21
202.813126
  0
LINE
  8
0
  6
CONTINUOUS
 10
134.952454
 20
212.813126
 11
231.951080
 21
212.813126
  0
ARC
  8
0
  6
CONTINUOUS
 10
231.951080
 20
210.813126
 40
2.000000
 50
1.500000
 51
90.000000
  0
ARC
  8
0
  6
CONTINUOUS
 10
229.987137
 20
285.813110
 40
2.000000
 50
1.500000
 51
90.000000
  0
ARC
  8
0
  6
CONTINUOUS
 10
202.661255
 20
214.813126
 40
2.000000
 50
180.000000
 51
270.000000
  0
ARC
  8
0
  6
CONTINUOUS
 10
164.661255
 20
214.813126
 40
2.000000
 50
-90.000000
 51
0.000000
  0
LINE
  8
0
  6
CONTINUOUS
 10
166.519318
 20
214.073120
 11
200.803192
 21
214.073120
  0
ARC
  8
0
  6
CONTINUOUS
 10
134.952454
 20
210.813126
 40
2.000000
 50
90.000000
 51
181.500000
  0
ARC
  8
0
  6
CONTINUOUS
 10
131.134384
 20
203.813126
 40
2.000000
 50
1.500000
 51
90.000000
  0
LINE
  8
0
  6
CONTINUOUS
 10
133.002762
 20
293.865479
 11
133.110245
 21
289.760773
  0
ARC
  8
0
  6
CONTINUOUS
 10
131.003448
 20
293.813110
 40
2.000000
 50
1.500000
 51
90.000000
  0
ARC
  8
0
  6
CONTINUOUS
 10
135.109558
 20
289.813110
 40
2.000000
 50
181.500000
 51
270.000000
  0
ARC
  8
0
  6
CONTINUOUS
 10
135.109558
 20
285.813110
 40
2.000000
 50
90.000000
 51
178.500000
  0
LINE
  8
0
  6
CENTER
 10
223.661255
 20
195.124527
 11
223.661255
 21
218.987183
  0
LINE
  8
0
  6
DASHED
 10
227.911255
 20
212.813126
 11
227.911255
 21
202.813126
  0
LINE
  8
0
  6
DASHED
 10
219.411255
 20
212.813126
 11
219.411255
 21
202.813126
  0
LINE
  8
0
  6
CENTER
 10
143.661255
 20
195.124527
 11
143.661255
 21
218.987183
  0
LINE
  8
0
  6
DASHED
 10
139.411255
 20
212.813126
 11
139.411255
 21
202.813126
  0
LINE
  8
0
  6
DASHED
 10
147.911255
 20
212.813126
 11
147.911255
 21
202.813126
  0
LINE
  8
0
  6
CENTER
 10
365.700012
 20
-3.505000
 11
365.700012
 21
126.995003
  0
LINE
  8
0
  6
CONTINUOUS
 10
323.700012
 20
99.694992
 11
323.700012
 21
54.694992
  0
LINE
  8
0
  6
CONTINUOUS
 10
402.700012
 20
112.246880
 11
402.700012
 21
12.143080
  0
LINE
  8
0
  6
CENTER
 10
284.200012
 20
77.195000
 11
412.011963
 21
77.195000
  0
LINE
  8
0
  6
CONTINUOUS
 10
327.700012
 20
100.695000
 11
324.700012
 21
100.695000
  0
LINE
  8
0
  6
CONTINUOUS
 10
327.700012
 20
53.694996
 11
324.700012
 21
53.694996
  0
LINE
  8
0
  6
CONTINUOUS
 10
326.165405
 20
121.195000
 11
317.700012
 21
121.195000
  0
LINE
  8
0
  6
CONTINUOUS
 10
326.165405
 20
3.195000
 11
317.700012
 21
3.195000
  0
LINE
  8
0
  6
CONTINUOUS
 10
399.752289
 20
115.246437
 11
329.665100
 21
116.469543
  0
LINE
  8
0
  6
CONTINUOUS
 10
399.752411
 20
9.143550
 11
329.665100
 21
7.919920
  0
LINE
  8
0
  6
CONTINUOUS
 10
400.747803
 20
91.695000
 11
332.865814
 21
91.695000
  0
LINE
  8
0
  6
CONTINUOUS
 10
400.747803
 20
32.695000
 11
330.700012
 21
32.695000
  0
ARC
  8
0
  6
CONTINUOUS
 10
399.700012
 20
112.246880
 40
3.000000
 50
0.000000
 51
89.000359
  0
ARC
  8
0
  6
CONTINUOUS
 10
399.700012
 20
12.143080
 40
3.000000
 50
-88.999687
 51
0.000000
  0
ARC
  8
0
  6
CONTINUOUS
 10
330.700012
 20
29.695021
 40
3.000000
 50
90.000000
 51
180.000000
  0
LINE
  8
0
  6
CENTER
 10
312.637512
 20
12.195000
 11
332.387512
 21
12.195000
  0
LINE
  8
0
  6
CENTER
 10
314.387512
 20
112.195000
 11
331.387512
 21
112.195000
  0
LINE
  8
0
  6
DASHED
 10
317.700012
 20
107.945000
 11
327.700012
 21
107.945000
  0
LINE
  8
0
  6
DASHED
 10
317.700012
 20
116.445000
 11
327.700012
 21
116.445000
  0
LINE
  8
0
  6
DASHED
 10
317.700012
 20
16.445000
 11
327.700012
 21
16.445000
  0
LINE
  8
0
  6
DASHED
 10
317.700012
 20
7.945000
 11
327.700012
 21
7.945000
  0
LINE
  8
0
  6
CONTINUOUS
 10
339.700012
 20
6.495000
 11
391.700012
 21
6.495000
  0
ARC
  8
0
  6
CONTINUOUS
 10
391.700012
 20
9.495000
 40
3.000000
 50
270.000000
 51
351.561859
  0
ARC
  8
0
  6
CONTINUOUS
 10
339.700012
 20
9.495000
 40
3.000000
 50
208.811234
 51
270.000000
  0
ARC
  8
0
  6
CONTINUOUS
 10
324.700012
 20
54.694996
 40
1.000000
 50
180.000000
 51
270.000000
  0
ARC
  8
0
  6
CONTINUOUS
 10
324.700012
 20
99.694992
 40
1.000000
 50
90.000000
 51
180.000000
  0
ARC
  8
0
  6
CONTINUOUS
 10
365.700012
 20
51.494999
 40
45.000000
 50
-34.692131
 51
20.419371
  0
LINE
  8
0
  6
CONTINUOUS
 10
407.700012
 20
99.694992
 11
407.700012
 21
54.694992
  0
LINE
  8
0
  6
CONTINUOUS
 10
404.700012
 20
100.695000
 11
406.700012
 21
100.695000
  0
LINE
  8
0
  6
CONTINUOUS
 10
404.700012
 20
53.694996
 11
406.700012
 21
53.694996
  0
ARC
  8
0
  6
CONTINUOUS
 10
404.700012
 20
102.695000
 40
2.000000
 50
180.000000
 51
270.000000
  0
ARC
  8
0
  6
CONTINUOUS
 10
404.700012
 20
51.695007
 40
2.000000
 50
90.000000
 51
180.000000
  0
ARC
  8
0
  6
CONTINUOUS
 10
406.700012
 20
54.694996
 40
1.000000
 50
-90.000000
 51
0.000000
  0
ARC
  8
0
  6
CONTINUOUS
 10
406.700012
 20
99.694992
 40
1.000000
 50
0.000000
 51
90.000000
  0
LINE
  8
0
  6
CONTINUOUS
 10
327.700012
 20
119.195000
 11
327.700012
 21
48.807499
  0
LINE
  8
0
  6
CONTINUOUS
 10
327.700012
 20
5.195000
 11
327.700012
 21
29.695009
  0
LINE
  8
0
  6
CONTINUOUS
 10
317.700012
 20
121.195000
 11
317.700012
 21
86.195000
  0
LINE
  8
0
  6
CONTINUOUS
 10
317.700012
 20
3.195000
 11
317.700012
 21
68.195000
  0
LINE
  8
0
  6
CENTER
 10
311.995392
 20
51.494999
 11
417.704895
 21
51.494999
  0
LINE
  8
0
  6
CONTINUOUS
 10
328.097198
 20
119.712639
 11
328.377808
 21
118.665413
  0
ARC
  8
0
  6
CONTINUOUS
 10
325.700012
 20
119.194992
 40
2.000000
 50
0.000000
 51
90.000000
  0
ARC
  8
0
  6
CONTINUOUS
 10
326.165405
 20
119.194992
 40
2.000000
 50
15.000500
 51
90.000000
  0
ARC
  8
0
  6
CONTINUOUS
 10
329.700012
 20
118.469254
 40
2.000000
 50
180.000000
 51
269.000610
  0
ARC
  8
0
  6
CONTINUOUS
 10
331.275604
 20
119.441902
 40
3.000000
 50
195.000504
 51
269.000610
  0
LINE
  8
0
  6
CONTINUOUS
 10
328.097198
 20
4.677370
 11
328.377594
 21
5.724020
  0
ARC
  8
0
  6
CONTINUOUS
 10
325.700012
 20
5.195000
 40
2.000000
 50
-90.000000
 51
0.000000
  0
ARC
  8
0
  6
CONTINUOUS
 10
326.165405
 20
5.195000
 40
2.000000
 50
270.000000
 51
345.000000
  0
ARC
  8
0
  6
CONTINUOUS
 10
329.700012
 20
5.920220
 40
2.000000
 50
91.000526
 51
180.000000
  0
ARC
  8
0
  6
CONTINUOUS
 10
331.275391
 20
4.947580
 40
3.000000
 50
91.000458
 51
165.000305
  0
LINE
  8
0
  6
CONTINUOUS
 10
291.700012
 20
68.195000
 11
291.700012
 21
86.195000
  0
LINE
  8
0
  6
CONTINUOUS
 10
321.700012
 20
86.195000
 11
291.700012
 21
86.195000
  0
LINE
  8
0
  6
CONTINUOUS
 10
321.700012
 20
68.195000
 11
291.700012
 21
68.195000
  0
LINE
  8
0
  6
CONTINUOUS
 10
321.700012
 20
87.195000
 11
321.700012
 21
67.195000
  0
LINE
  8
0
  6
CONTINUOUS
 10
323.700012
 20
87.195000
 11
321.700012
 21
87.195000
  0
LINE
  8
0
  6
CONTINUOUS
 10
323.700012
 20
67.195000
 11
321.700012
 21
67.195000
  0
ARC
  8
0
  6
CONTINUOUS
 10
315.700012
 20
77.195000
 40
3.000000
 50
-90.000000
 51
90.000000
  0
LINE
  8
0
  6
CONTINUOUS
 10
315.700012
 20
80.195000
 11
291.700012
 21
80.195000
  0
LINE
  8
0
  6
CONTINUOUS
 10
315.700012
 20
74.195000
 11
291.700012
 21
74.195000
  0
LINE
  8
0
  6
DASHED
 10
392.734894
 20
96.024803
 11
365.700012
 21
96.496689
  0
ARC
  8
0
  6
DASHED
 10
392.700012
 20
94.025101
 40
2.000000
 50
0.000000
 51
89.000191
  0
LINE
  8
0
  6
DASHED
 10
394.700012
 20
94.025108
 11
394.700012
 21
87.272087
  0
LINE
  8
0
  6
DASHED
 10
338.665100
 20
96.024803
 11
365.700012
 21
96.496689
  0
ARC
  8
0
  6
DASHED
 10
338.700012
 20
94.025101
 40
2.000000
 50
90.999809
 51
180.000000
  0
LINE
  8
0
  6
DASHED
 10
336.700012
 20
94.025108
 11
336.700012
 21
87.272087
  0
ARC
  8
0
  6
DASHED
 10
365.700012
 20
51.494999
 40
45.000000
 50
131.810318
 51
228.189682
  0
LINE
  8
0
  6
DASHED
 10
336.700012
 20
9.495000
 11
336.700012
 21
15.717912
  0
ARC
  8
0
  6
DASHED
 10
339.700012
 20
9.495000
 40
3.000000
 50
180.000000
 51
208.811234
  0
ARC
  8
0
  6
DASHED
 10
391.700012
 20
9.495000
 40
3.000000
 50
-8.438150
 51
0.000000
  0
LINE
  8
0
  6
DASHED
 10
394.700012
 20
9.495000
 11
394.700012
 21
15.717912
  0
ARC
  8
0
  6
DASHED
 10
365.700012
 20
51.494999
 40
45.000000
 50
-48.189686
 51
-34.692131
  0
ARC
  8
0
  6
DASHED
 10
397.700012
 20
87.272087
 40
3.000000
 50
180.000000
 51
228.189682
  0
ARC
  8
0
  6
DASHED
 10
333.700012
 20
87.272087
 40
3.000000
 50
-48.189686
 51
0.000000
  0
ARC
  8
0
  6
DASHED
 10
333.700012
 20
15.717912
 40
3.000000
 50
0.000000
 51
48.189686
  0
ARC
  8
0
  6
DASHED
 10
397.700012
 20
15.717912
 40
3.000000
 50
131.810318
 51
180.000000
  0
ARC
  8
0
  6
DASHED
 10
365.700012
 20
51.494999
 40
45.000000
 50
20.419371
 51
48.189686
  0
LINE
  8
0
  6
DASHED
 10
388.700012
 20
108.495300
 11
388.700012
 21
96.093529
  0
LINE
  8
0
  6
DASHED
 10
342.700012
 20
108.495300
 11
342.700012
 21
96.093529
  0
LINE
  8
0
  6
DASHED
 10
388.200012
 20
108.495300
 11
388.200012
 21
109.495300
  0
LINE
  8
0
  6
DASHED
 10
343.200012
 20
108.495300
 11
343.200012
 21
109.495300
  0
LINE
  8
0
  6
DASHED
 10
342.700012
 20
115.478699
 11
342.700012
 21
109.495300
  0
LINE
  8
0
  6
DASHED
 10
388.700012
 20
115.478699
 11
388.700012
 21
109.495300
  0
ARC
  8
0
  6
CONTINUOUS
 10
385.700012
 20
109.195198
 40
7.000000
 50
73.041977
 51
106.956497
  0
ARC
  8
0
  6
CONTINUOUS
 10
383.950012
 20
114.934502
 40
1.000000
 50
106.956902
 51
143.012054
  0
ARC
  8
0
  6
CONTINUOUS
 10
387.450012
 20
114.934502
 40
1.000000
 50
30.772787
 51
73.041847
  0
LINE
  8
0
  6
CONTINUOUS
 10
382.200012
 20
115.981743
 11
382.200012
 21
115.552750
  0
ARC
  8
0
  6
CONTINUOUS
 10
365.700012
 20
-133.004700
 40
250.000000
 50
84.826019
 51
94.598679
  0
ARC
  8
0
  6
CONTINUOUS
 10
388.200012
 20
115.478699
 40
0.500000
 50
0.000000
 51
84.826019
  0
ARC
  8
0
  6
CONTINUOUS
 10
381.700012
 20
115.981743
 40
0.500000
 50
0.000000
 51
86.323196
  0
LINE
  8
0
  6
DASHED
 10
388.200012
 20
108.495300
 11
388.700012
 21
108.495300
  0
LINE
  8
0
  6
DASHED
 10
388.200012
 20
109.495300
 11
388.700012
 21
109.495300
  0
LINE
  8
0
  6
DASHED
 10
343.200012
 20
108.495300
 11
342.700012
 21
108.495300
  0
LINE
  8
0
  6
DASHED
 10
343.200012
 20
109.495300
 11
342.700012
 21
109.495300
  0
LINE
  8
0
  6
CONTINUOUS
 10
315.700012
 20
80.195000
 11
315.700012
 21
74.195000
  0
LINE
  8
0
  6
CONTINUOUS
 10
192.146255
 20
200.813126
 11
195.161255
 21
200.813126
  0
LINE
  8
0
  6
CONTINUOUS
 10
192.661255
 20
202.813126
 11
192.661255
 21
200.813126
  0
LINE
  8
0
  6
CONTINUOUS
 10
29.661249
 20
7.836823
 11
29.661249
 21
12.614558
  0
LINE
  8
0
  6
CONTINUOUS
 10
29.661249
 20
7.995020
 11
28.222040
 21
7.995020
  0
LINE
  8
0
  6
CONTINUOUS
 10
28.961300
 20
7.995020
 11
28.961300
 21
12.632887
  0
ARC
  8
0
  6
CONTINUOUS
 10
33.961300
 20
10.745020
 40
7.000000
 50
163.968933
 51
196.957993
  0
ARC
  8
0
  6
CONTINUOUS
 10
28.222040
 20
8.995020
 40
1.000000
 50
196.958099
 51
270.000000
  0
LINE
  8
0
  6
CONTINUOUS
 10
2.661271
 20
87.527100
 11
2.661250
 21
51.494999
  0
LINE
  8
0
  6
CONTINUOUS
 10
2.661270
 20
15.753900
 11
2.661250
 21
51.494999
  0
LINE
  8
0
  6
CONTINUOUS
 10
29.661249
 20
63.758560
 11
29.661249
 21
75.870003
  0
LINE
  8
0
  6
CONTINUOUS
 10
29.661249
 20
69.120003
 11
28.222040
 21
69.120003
  0
LINE
  8
0
  6
CONTINUOUS
 10
29.661249
 20
74.620003
 11
28.222040
 21
74.620003
  0
LINE
  8
0
  6
CONTINUOUS
 10
28.961300
 20
69.120003
 11
28.961300
 21
74.620003
  0
ARC
  8
0
  6
CONTINUOUS
 10
33.961300
 20
71.870003
 40
7.000000
 50
163.043503
 51
196.957993
  0
ARC
  8
0
  6
CONTINUOUS
 10
28.222040
 20
73.620003
 40
1.000000
 50
90.000000
 51
163.043106
  0
ARC
  8
0
  6
CONTINUOUS
 10
28.222040
 20
70.120003
 40
1.000000
 50
196.958099
 51
270.000000
  0
LINE
  8
0
  6
CONTINUOUS
 10
29.661249
 20
63.758560
 11
33.661251
 21
63.758560
  0
LINE
  8
0
  6
CONTINUOUS
 10
29.661249
 20
75.870003
 11
33.661251
 21
75.870003
  0
LINE
  8
0
  6
CONTINUOUS
 10
60.661251
 20
6.495000
 11
60.661251
 21
96.495003
  0
LINE
  8
0
  6
CONTINUOUS
 10
46.661251
 20
7.230720
 11
46.661251
 21
17.085711
  0
LINE
  8
0
  6
CONTINUOUS
 10
33.661251
 20
89.521141
 11
33.661251
 21
7.245000
  0
LINE
  8
0
  6
CENTER
 10
43.161251
 20
98.433281
 11
43.161251
 21
119.695778
  0
ARC
  8
0
  6
CONTINUOUS
 10
59.161251
 20
97.495003
 40
1.000000
 50
180.000000
 51
270.000000
  0
LINE
  8
0
  6
CONTINUOUS
 10
60.661251
 20
17.085711
 11
46.661251
 21
17.085711
  0
LINE
  8
0
  6
CONTINUOUS
 10
46.661251
 20
95.995003
 11
46.661251
 21
85.995003
  0
LINE
  8
0
  6
CONTINUOUS
 10
60.661251
 20
85.904297
 11
46.661251
 21
85.904297
  0
LINE
  8
0
  6
CONTINUOUS
 10
60.661251
 20
96.495003
 11
28.161320
 21
96.495003
  0
ARC
  8
0
  6
CONTINUOUS
 10
47.161251
 20
95.995003
 40
0.500000
 50
90.000000
 51
180.000000
  0
LINE
  8
0
  6
CONTINUOUS
 10
28.161596
 20
108.495239
 11
28.161299
 21
96.497742
  0
LINE
  8
0
  6
CONTINUOUS
 10
58.161251
 20
108.495300
 11
58.161251
 21
97.495003
  0
LINE
  8
0
  6
CONTINUOUS
 10
58.161251
 20
109.495300
 11
58.161251
 21
116.073601
  0
LINE
  8
0
  6
CONTINUOUS
 10
14.273680
 20
105.445297
 11
26.161249
 21
105.445297
  0
LINE
  8
0
  6
CONTINUOUS
 10
28.161051
 20
109.495300
 11
28.161051
 21
116.073601
  0
LINE
  8
0
  6
CONTINUOUS
 10
60.161251
 20
113.995300
 11
60.161251
 21
109.495300
  0
LINE
  8
0
  6
CONTINUOUS
 10
26.161249
 20
109.495300
 11
60.161251
 21
109.495300
  0
LINE
  8
0
  6
CONTINUOUS
 10
26.161249
 20
108.495300
 11
60.161251
 21
108.495300
  0
LINE
  8
0
  6
CONTINUOUS
 10
26.161249
 20
113.995300
 11
26.161249
 21
113.245300
  0
LINE
  8
0
  6
CONTINUOUS
 10
26.161249
 20
113.245300
 11
26.161249
 21
109.495300
  0
LINE
  8
0
  6
CONTINUOUS
 10
15.125480
 20
113.145302
 11
26.161249
 21
113.145302
  0
ARC
  8
0
  6
CONTINUOUS
 10
43.161251
 20
-133.004700
 40
250.000000
 50
86.668304
 51
93.331696
  0
LINE
  8
0
  6
CONTINUOUS
 10
58.661251
 20
114.995300
 11
59.161251
 21
114.995300
  0
ARC
  8
0
  6
CONTINUOUS
 10
59.161251
 20
113.995300
 40
1.000000
 50
0.000000
 51
90.000000
  0
ARC
  8
0
  6
CONTINUOUS
 10
58.661251
 20
115.495300
 40
0.500000
 50
180.000000
 51
270.000000
  0
LINE
  8
0
  6
CONTINUOUS
 10
58.661251
 20
102.995300
 11
59.161251
 21
102.995300
  0
ARC
  8
0
  6
CONTINUOUS
 10
59.161251
 20
103.995300
 40
1.000000
 50
-90.000000
 51
0.000000
  0
ARC
  8
0
  6
CONTINUOUS
 10
58.661251
 20
102.495300
 40
0.500000
 50
90.000000
 51
180.000000
  0
LINE
  8
0
  6
CONTINUOUS
 10
27.661249
 20
114.995300
 11
27.161249
 21
114.995300
  0
ARC
  8
0
  6
CONTINUOUS
 10
27.161249
 20
113.995300
 40
1.000000
 50
90.000000
 51
180.000000
  0
ARC
  8
0
  6
CONTINUOUS
 10
27.661249
 20
115.495300
 40
0.500000
 50
-90.000000
 51
0.000000
  0
LINE
  8
0
  6
CONTINUOUS
 10
27.661249
 20
102.995300
 11
27.161249
 21
102.995300
  0
ARC
  8
0
  6
CONTINUOUS
 10
27.161249
 20
103.995300
 40
1.000000
 50
180.000000
 51
270.000000
  0
ARC
  8
0
  6
CONTINUOUS
 10
27.661249
 20
102.495300
 40
0.500000
 50
0.000000
 51
90.000000
  0
LINE
  8
0
  6
CONTINUOUS
 10
59.661251
 20
109.495300
 11
59.661251
 21
108.495300
  0
LINE
  8
0
  6
CONTINUOUS
 10
60.161251
 20
108.495300
 11
60.161251
 21
103.995300
  0
ARC
  8
0
  6
CONTINUOUS
 10
57.661251
 20
116.073601
 40
0.500000
 50
0.000000
 51
86.668304
  0
LINE
  8
0
  6
CONTINUOUS
 10
26.161249
 20
108.495300
 11
26.161249
 21
103.995300
  0
LINE
  8
0
  6
CONTINUOUS
 10
28.661596
 20
109.495300
 11
28.661596
 21
108.495239
  0
LINE
  8
0
  6
CONTINUOUS
 10
52.161251
 20
113.495300
 11
57.911251
 21
113.495300
  0
LINE
  8
0
  6
CONTINUOUS
 10
51.661251
 20
113.995300
 11
51.661251
 21
116.367012
  0
LINE
  8
0
  6
CONTINUOUS
 10
52.411251
 20
113.495300
 11
52.411251
 21
114.934502
  0
LINE
  8
0
  6
CONTINUOUS
 10
57.911251
 20
113.495102
 11
57.911251
 21
114.934502
  0
LINE
  8
0
  6
CONTINUOUS
 10
52.411251
 20
114.195198
 11
57.911251
 21
114.195198
  0
ARC
  8
0
  6
CONTINUOUS
 10
55.161251
 20
109.195198
 40
7.000000
 50
73.043503
 51
106.958000
  0
ARC
  8
0
  6
CONTINUOUS
 10
56.911251
 20
114.934502
 40
1.000000
 50
0.000000
 51
73.043098
  0
ARC
  8
0
  6
CONTINUOUS
 10
53.411251
 20
114.934502
 40
1.000000
 50
106.958199
 51
180.000000
  0
ARC
  8
0
  6
CONTINUOUS
 10
52.161251
 20
113.995300
 40
0.500000
 50
180.000000
 51
270.000000
  0
ARC
  8
0
  6
CONTINUOUS
 10
57.661251
 20
112.995300
 40
0.500000
 50
0.000000
 51
90.000000
  0
ARC
  8
0
  6
CONTINUOUS
 10
51.161251
 20
116.367012
 40
0.500000
 50
0.000000
 51
88.162544
  0
ARC
  8
0
  6
CONTINUOUS
 10
28.661249
 20
116.073601
 40
0.500000
 50
93.331696
 51
180.000000
  0
LINE
  8
0
  6
CONTINUOUS
 10
34.161251
 20
113.495300
 11
28.411249
 21
113.495300
  0
LINE
  8
0
  6
CONTINUOUS
 10
34.661251
 20
113.995300
 11
34.661251
 21
116.367012
  0
LINE
  8
0
  6
CONTINUOUS
 10
33.911251
 20
113.495300
 11
33.911251
 21
114.934502
  0
LINE
  8
0
  6
CONTINUOUS
 10
28.411249
 20
113.495102
 11
28.411249
 21
114.934502
  0
LINE
  8
0
  6
CONTINUOUS
 10
33.911251
 20
114.195198
 11
28.411249
 21
114.195198
  0
ARC
  8
0
  6
CONTINUOUS
 10
31.161249
 20
109.195198
 40
7.000000
 50
73.042000
 51
106.956497
  0
ARC
  8
0
  6
CONTINUOUS
 10
29.411249
 20
114.934502
 40
1.000000
 50
106.956902
 51
180.000000
  0
ARC
  8
0
  6
CONTINUOUS
 10
32.911251
 20
114.934502
 40
1.000000
 50
0.000000
 51
73.041801
  0
ARC
  8
0
  6
CONTINUOUS
 10
34.161251
 20
113.995300
 40
0.500000
 50
-90.000000
 51
0.000000
  0
ARC
  8
0
  6
CONTINUOUS
 10
28.661249
 20
112.995300
 40
0.500000
 50
90.000000
 51
180.000000
  0
ARC
  8
0
  6
CONTINUOUS
 10
35.161251
 20
116.367012
 40
0.500000
 50
91.837456
 51
180.000000
  0
LINE
  8
0
  6
CONTINUOUS
 10
28.161320
 20
92.587631
 11
28.161320
 21
96.495003
  0
LINE
  8
0
  6
CONTINUOUS
 10
35.629234
 20
6.892619
 11
60.661251
 21
6.495000
  0
ARC
  8
0
  6
CONTINUOUS
 10
47.161251
 20
7.230720
 40
0.500000
 50
180.000000
 51
269.000000
  0
LINE
  8
0
  6
CONTINUOUS
 10
34.404266
 20
7.218358
 11
35.660999
 21
6.884173
  0
ARC
  8
0
  6
CONTINUOUS
 10
34.661251
 20
8.184773
 40
1.000000
 50
180.000000
 51
255.108749
  0
LINE
  8
0
  6
CONTINUOUS
 10
35.660999
 20
15.994590
 11
46.661251
 21
15.994590
  0
LINE
  8
0
  6
CONTINUOUS
 10
34.404266
 20
16.328775
 11
35.660999
 21
15.994590
  0
ARC
  8
0
  6
CONTINUOUS
 10
34.661251
 20
17.295191
 40
1.000000
 50
180.000000
 51
255.108749
  0
LINE
  8
0
  6
CONTINUOUS
 10
35.660999
 20
86.995407
 11
46.661251
 21
86.995407
  0
LINE
  8
0
  6
CONTINUOUS
 10
34.404266
 20
86.661224
 11
35.660999
 21
86.995407
  0
ARC
  8
0
  6
CONTINUOUS
 10
34.661251
 20
85.694809
 40
1.000000
 50
104.891251
 51
180.000000
  0
LINE
  8
0
  6
CONTINUOUS
 10
32.687428
 20
90.520798
 11
30.108967
 21
90.588318
  0
ARC
  8
0
  6
CONTINUOUS
 10
30.161320
 20
92.587631
 40
2.000000
 50
180.000000
 51
268.500000
  0
LINE
  8
0
  6
CONTINUOUS
 10
6.464432
 20
90.032829
 11
29.701118
 21
90.641296
  0
ARC
  8
0
  6
CONTINUOUS
 10
32.661251
 20
89.521141
 40
1.000000
 50
0.000000
 51
88.499985
  0
LINE
  8
0
  6
CONTINUOUS
 10
4.903246
 20
89.739525
 11
3.984443
 21
89.409096
  0
ARC
  8
0
  6
CONTINUOUS
 10
4.661272
 20
87.527100
 40
2.000000
 50
109.780319
 51
180.000000
  0
LINE
  8
0
  6
CONTINUOUS
 10
30.148161
 20
7.336994
 11
33.661251
 21
7.245000
  0
LINE
  8
0
  6
CONTINUOUS
 10
6.464432
 20
13.248174
 11
33.661251
 21
12.536000
  0
LINE
  8
0
  6
CONTINUOUS
 10
4.903246
 20
13.541474
 11
3.984443
 21
13.871906
  0
ARC
  8
0
  6
CONTINUOUS
 10
4.661272
 20
15.753900
 40
2.000000
 50
180.000000
 51
250.219681
  0
LINE
  8
0
  6
CONTINUOUS
 10
15.125480
 20
113.145302
 11
14.389680
 21
110.310204
  0
LINE
  8
0
  6
CONTINUOUS
 10
14.389680
 20
110.310204
 11
15.201780
 21
107.835197
  0
LINE
  8
0
  6
CONTINUOUS
 10
15.201780
 20
107.835197
 11
14.273680
 21
105.445297
  0
ARC
  8
0
  6
CONTINUOUS
 10
6.595316
 20
85.034538
 40
5.000000
 50
91.500000
 51
109.780281
  0
ARC
  8
0
  6
CONTINUOUS
 10
6.595316
 20
18.246462
 40
5.000000
 50
250.219727
 51
268.500000
  0
LINE
  8
0
  6
CONTINUOUS
 10
45.661251
 20
87.995399
 11
45.661251
 21
94.995399
  0
LINE
  8
0
  6
CONTINUOUS
 10
46.661251
 20
87.995399
 11
44.682240
 21
87.995399
  0
LINE
  8
0
  6
CONTINUOUS
 10
46.661251
 20
94.995399
 11
44.682240
 21
94.995399
  0
ARC
  8
0
  6
CONTINUOUS
 10
52.061279
 20
91.495399
 40
8.999999
 50
163.398987
 51
196.601517
  0
ARC
  8
0
  6
CONTINUOUS
 10
44.682240
 20
89.295418
 40
1.300000
 50
196.601578
 51
270.000000
  0
ARC
  8
0
  6
CONTINUOUS
 10
44.682240
 20
93.695412
 40
1.300000
 50
90.000000
 51
163.399094
  0
LINE
  8
0
  6
CONTINUOUS
 10
45.661251
 20
7.994590
 11
45.661251
 21
14.994590
  0
LINE
  8
0
  6
CONTINUOUS
 10
46.661251
 20
7.994590
 11
44.682240
 21
7.994590
  0
LINE
  8
0
  6
CONTINUOUS
 10
46.661251
 20
14.994590
 11
44.682240
 21
14.994590
  0
ARC
  8
0
  6
CONTINUOUS
 10
52.061279
 20
11.494590
 40
8.999999
 50
163.398987
 51
196.601517
  0
ARC
  8
0
  6
CONTINUOUS
 10
44.682240
 20
9.294608
 40
1.300000
 50
196.601578
 51
270.000000
  0
ARC
  8
0
  6
CONTINUOUS
 10
44.682240
 20
13.694602
 40
1.300000
 50
90.000000
 51
163.399094
  0
ARC
  8
0
  6
CONTINUOUS
 10
30.161249
 20
7.836823
 40
0.500000
 50
180.000000
 51
268.500000
  0
LINE
  8
0
  6
CONTINUOUS
 10
29.661249
 20
74.843811
 11
2.661265
 21
74.136803
  0
LINE
  8
0
  6
CONTINUOUS
 10
29.661249
 20
68.896187
 11
2.661265
 21
69.603203
  0
LINE
  8
0
  6
CONTINUOUS
 10
60.161251
 20
255.696823
 11
60.161251
 21
245.929428
  0
LINE
  8
0
  6
CONTINUOUS
 10
60.661251
 20
205.813126
 11
60.661251
 21
295.813110
  0
LINE
  8
0
  6
CONTINUOUS
 10
33.661251
 20
294.082825
 11
33.661251
 21
273.813110
  0
LINE
  8
0
  6
CONTINUOUS
 10
33.661251
 20
207.543427
 11
33.661251
 21
227.813126
  0
LINE
  8
0
  6
CONTINUOUS
 10
60.661251
 20
279.813110
 11
47.148151
 21
279.459229
  0
LINE
  8
0
  6
CONTINUOUS
 10
47.148151
 20
222.167023
 11
60.661251
 21
221.813126
  0
LINE
  8
0
  6
CONTINUOUS
 10
26.161249
 20
255.696823
 11
26.161249
 21
245.929428
  0
LINE
  8
0
  6
CONTINUOUS
 10
46.661251
 20
222.666931
 11
46.661251
 21
227.813126
  0
ARC
  8
0
  6
CONTINUOUS
 10
47.161251
 20
222.666931
 40
0.500000
 50
180.000000
 51
268.496399
  0
LINE
  8
0
  6
CONTINUOUS
 10
46.661251
 20
278.959320
 11
46.661251
 21
273.813110
  0
ARC
  8
0
  6
CONTINUOUS
 10
47.161251
 20
278.959320
 40
0.500000
 50
91.503601
 51
180.000000
  0
LINE
  8
0
  6
CONTINUOUS
 10
46.661251
 20
223.163132
 11
33.661251
 21
223.503616
  0
LINE
  8
0
  6
CONTINUOUS
 10
46.661251
 20
278.463135
 11
33.661251
 21
278.122620
  0
ARC
  8
0
  6
CONTINUOUS
 10
56.161251
 20
229.830627
 40
2.000000
 50
-90.500061
 51
0.000000
  0
LINE
  8
0
  6
CONTINUOUS
 10
35.626038
 20
206.250168
 11
60.661251
 21
205.813126
  0
LINE
  8
0
  6
CONTINUOUS
 10
34.402851
 20
206.577332
 11
35.626038
 21
206.250168
  0
ARC
  8
0
  6
CONTINUOUS
 10
34.661251
 20
207.543427
 40
1.000000
 50
180.000000
 51
255.023895
  0
LINE
  8
0
  6
CONTINUOUS
 10
35.626049
 20
295.376099
 11
60.661251
 21
295.813110
  0
LINE
  8
0
  6
CONTINUOUS
 10
34.402851
 20
295.048828
 11
35.626049
 21
295.376099
  0
ARC
  8
0
  6
CONTINUOUS
 10
34.661251
 20
294.082825
 40
1.000000
 50
104.976097
 51
180.000000
  0
LINE
  8
0
  6
CONTINUOUS
 10
28.161150
 20
229.813126
 11
28.161150
 21
271.813110
  0
LINE
  8
0
  6
CENTER
 10
43.161251
 20
282.623138
 11
43.161251
 21
219.088120
  0
LINE
  8
0
  6
CONTINUOUS
 10
58.161251
 20
271.813110
 11
58.161251
 21
229.813126
  0
LINE
  8
0
  6
CONTINUOUS
 10
60.161251
 20
255.813126
 11
60.161251
 21
245.813126
  0
LINE
  8
0
  6
CONTINUOUS
 10
26.161249
 20
255.813126
 11
26.161249
 21
245.813126
  0
ARC
  8
0
  6
CONTINUOUS
 10
31.161249
 20
230.813126
 40
3.500000
 50
0.000000
 51
90.000000
  0
LINE
  8
0
  6
CONTINUOUS
 10
29.161150
 20
234.313126
 11
31.161249
 21
234.313126
  0
LINE
  8
0
  6
CONTINUOUS
 10
34.661251
 20
228.813126
 11
34.661251
 21
230.813126
  0
ARC
  8
0
  6
CONTINUOUS
 10
29.161150
 20
235.313126
 40
1.000000
 50
180.000000
 51
270.000000
  0
ARC
  8
0
  6
CONTINUOUS
 10
55.161251
 20
230.813126
 40
3.500000
 50
90.000000
 51
180.000000
  0
LINE
  8
0
  6
CONTINUOUS
 10
51.661251
 20
228.813126
 11
51.661251
 21
230.813126
  0
LINE
  8
0
  6
CONTINUOUS
 10
57.161350
 20
234.313126
 11
55.161251
 21
234.313126
  0
ARC
  8
0
  6
CONTINUOUS
 10
57.161350
 20
235.313126
 40
1.000000
 50
-90.000000
 51
0.000000
  0
LINE
  8
0
  6
CONTINUOUS
 10
56.161251
 20
227.813126
 11
30.161150
 21
227.813126
  0
ARC
  8
0
  6
CONTINUOUS
 10
50.661251
 20
228.813126
 40
1.000000
 50
-90.000000
 51
0.000000
  0
ARC
  8
0
  6
CONTINUOUS
 10
35.661251
 20
228.813126
 40
1.000000
 50
180.000000
 51
270.000000
  0
ARC
  8
0
  6
CONTINUOUS
 10
30.161150
 20
229.813126
 40
2.000000
 50
180.000000
 51
270.000000
  0
ARC
  8
0
  6
CONTINUOUS
 10
56.161251
 20
229.813126
 40
2.000000
 50
-90.000000
 51
0.000000
  0
ARC
  8
0
  6
CONTINUOUS
 10
31.161249
 20
270.813110
 40
3.500000
 50
-90.000000
 51
0.000000
  0
LINE
  8
0
  6
CONTINUOUS
 10
29.161150
 20
267.313110
 11
31.161249
 21
267.313110
  0
LINE
  8
0
  6
CONTINUOUS
 10
34.661251
 20
272.813110
 11
34.661251
 21
270.813110
  0
ARC
  8
0
  6
CONTINUOUS
 10
29.161150
 20
266.313110
 40
1.000000
 50
90.000000
 51
180.000000
  0
ARC
  8
0
  6
CONTINUOUS
 10
55.161251
 20
270.813110
 40
3.500000
 50
180.000000
 51
270.000000
  0
LINE
  8
0
  6
CONTINUOUS
 10
51.661251
 20
272.813110
 11
51.661251
 21
270.813110
  0
LINE
  8
0
  6
CONTINUOUS
 10
57.161350
 20
267.313110
 11
55.161251
 21
267.313110
  0
ARC
  8
0
  6
CONTINUOUS
 10
57.161350
 20
266.313110
 40
1.000000
 50
0.000000
 51
90.000000
  0
LINE
  8
0
  6
CONTINUOUS
 10
56.161251
 20
273.813110
 11
30.161150
 21
273.813110
  0
ARC
  8
0
  6
CONTINUOUS
 10
50.661251
 20
272.813110
 40
1.000000
 50
0.000000
 51
90.000000
  0
ARC
  8
0
  6
CONTINUOUS
 10
35.661251
 20
272.813110
 40
1.000000
 50
90.000000
 51
180.000000
  0
ARC
  8
0
  6
CONTINUOUS
 10
30.161150
 20
271.813110
 40
2.000000
 50
90.000000
 51
180.000000
  0
ARC
  8
0
  6
CONTINUOUS
 10
56.161251
 20
271.813110
 40
2.000000
 50
0.000000
 51
90.000000
  0
LINE
  8
0
  6
CONTINUOUS
 10
27.661249
 20
256.813110
 11
27.161249
 21
256.813110
  0
ARC
  8
0
  6
CONTINUOUS
 10
27.161249
 20
255.813126
 40
1.000000
 50
90.000000
 51
180.000000
  0
ARC
  8
0
  6
CONTINUOUS
 10
27.661249
 20
257.313110
 40
0.500000
 50
-90.000000
 51
0.000000
  0
LINE
  8
0
  6
CONTINUOUS
 10
27.661249
 20
244.813126
 11
27.161249
 21
244.813126
  0
ARC
  8
0
  6
CONTINUOUS
 10
27.161249
 20
245.813126
 40
1.000000
 50
180.000000
 51
270.000000
  0
ARC
  8
0
  6
CONTINUOUS
 10
27.661249
 20
244.313126
 40
0.500000
 50
0.000000
 51
90.000000
  0
LINE
  8
0
  6
CONTINUOUS
 10
58.661251
 20
256.813110
 11
59.161251
 21
256.813110
  0
ARC
  8
0
  6
CONTINUOUS
 10
59.161251
 20
255.813126
 40
1.000000
 50
0.000000
 51
90.000000
  0
ARC
  8
0
  6
CONTINUOUS
 10
58.661251
 20
257.313110
 40
0.500000
 50
180.000000
 51
270.000000
  0
LINE
  8
0
  6
CONTINUOUS
 10
58.661251
 20
244.813126
 11
59.161251
 21
244.813126
  0
ARC
  8
0
  6
CONTINUOUS
 10
59.161251
 20
245.813126
 40
1.000000
 50
-90.000000
 51
0.000000
  0
ARC
  8
0
  6
CONTINUOUS
 10
58.661251
 20
244.313126
 40
0.500000
 50
90.000000
 51
180.000000
  0
LINE
  8
0
  6
CONTINUOUS
 10
32.911251
 20
231.213120
 11
32.911251
 21
230.413101
  0
LINE
  8
0
  6
CONTINUOUS
 10
30.761227
 20
232.563126
 11
31.561243
 21
232.563126
  0
LINE
  8
0
  6
CONTINUOUS
 10
30.761227
 20
229.063126
 11
31.561243
 21
229.063126
  0
LINE
  8
0
  6
CONTINUOUS
 10
29.411249
 20
231.213120
 11
29.411249
 21
230.413101
  0
CIRCLE
  8
0
  6
CONTINUOUS
 10
31.161249
 20
230.813126
 40
2.750000
  0
ARC
  8
0
  6
CONTINUOUS
 10
29.411249
 20
232.563126
 40
1.350000
 50
-90.000000
 51
0.000000
  0
ARC
  8
0
  6
CONTINUOUS
 10
29.411249
 20
229.063126
 40
1.350000
 50
0.000000
 51
90.000000
  0
ARC
  8
0
  6
CONTINUOUS
 10
32.911251
 20
232.563126
 40
1.350000
 50
180.000000
 51
270.000000
  0
ARC
  8
0
  6
CONTINUOUS
 10
32.911251
 20
229.063126
 40
1.350000
 50
90.000000
 51
180.000000
  0
LINE
  8
0
  6
CONTINUOUS
 10
56.911251
 20
231.213120
 11
56.911251
 21
230.413101
  0
LINE
  8
0
  6
CONTINUOUS
 10
54.761227
 20
232.563126
 11
55.561245
 21
232.563126
  0
LINE
  8
0
  6
CONTINUOUS
 10
54.761227
 20
229.063126
 11
55.561245
 21
229.063126
  0
LINE
  8
0
  6
CONTINUOUS
 10
53.411251
 20
231.213120
 11
53.411251
 21
230.413101
  0
CIRCLE
  8
0
  6
CONTINUOUS
 10
55.161251
 20
230.813126
 40
2.750000
  0
ARC
  8
0
  6
CONTINUOUS
 10
53.411251
 20
232.563126
 40
1.350000
 50
-90.000000
 51
0.000000
  0
ARC
  8
0
  6
CONTINUOUS
 10
53.411251
 20
229.063126
 40
1.350000
 50
0.000000
 51
90.000000
  0
ARC
  8
0
  6
CONTINUOUS
 10
56.911251
 20
232.563126
 40
1.350000
 50
180.000000
 51
270.000000
  0
ARC
  8
0
  6
CONTINUOUS
 10
56.911251
 20
229.063126
 40
1.350000
 50
90.000000
 51
180.000000
  0
LINE
  8
0
  6
CONTINUOUS
 10
56.911251
 20
271.213104
 11
56.911251
 21
270.413086
  0
LINE
  8
0
  6
CONTINUOUS
 10
54.761227
 20
272.563110
 11
55.561245
 21
272.563110
  0
LINE
  8
0
  6
CONTINUOUS
 10
54.761227
 20
269.063110
 11
55.561245
 21
269.063110
  0
LINE
  8
0
  6
CONTINUOUS
 10
53.411251
 20
271.213104
 11
53.411251
 21
270.413086
  0
CIRCLE
  8
0
  6
CONTINUOUS
 10
55.161251
 20
270.813110
 40
2.750000
  0
ARC
  8
0
  6
CONTINUOUS
 10
53.411251
 20
272.563110
 40
1.350000
 50
-90.000000
 51
0.000000
  0
ARC
  8
0
  6
CONTINUOUS
 10
53.411251
 20
269.063110
 40
1.350000
 50
0.000000
 51
90.000000
  0
ARC
  8
0
  6
CONTINUOUS
 10
56.911251
 20
272.563110
 40
1.350000
 50
180.000000
 51
270.000000
  0
ARC
  8
0
  6
CONTINUOUS
 10
56.911251
 20
269.063110
 40
1.350000
 50
90.000000
 51
180.000000
  0
LINE
  8
0
  6
CONTINUOUS
 10
32.911251
 20
271.213104
 11
32.911251
 21
270.413086
  0
LINE
  8
0
  6
CONTINUOUS
 10
30.761227
 20
272.563110
 11
31.561243
 21
272.563110
  0
LINE
  8
0
  6
CONTINUOUS
 10
30.761227
 20
269.063110
 11
31.561243
 21
269.063110
  0
LINE
  8
0
  6
CONTINUOUS
 10
29.411249
 20
271.213104
 11
29.411249
 21
270.413086
  0
CIRCLE
  8
0
  6
CONTINUOUS
 10
31.161249
 20
270.813110
 40
2.750000
  0
ARC
  8
0
  6
CONTINUOUS
 10
29.411249
 20
272.563110
 40
1.350000
 50
-90.000000
 51
0.000000
  0
ARC
  8
0
  6
CONTINUOUS
 10
29.411249
 20
269.063110
 40
1.350000
 50
0.000000
 51
90.000000
  0
ARC
  8
0
  6
CONTINUOUS
 10
32.911251
 20
272.563110
 40
1.350000
 50
180.000000
 51
270.000000
  0
ARC
  8
0
  6
CONTINUOUS
 10
32.911251
 20
269.063110
 40
1.350000
 50
90.000000
 51
180.000000
  0
LINE
  8
0
  6
CONTINUOUS
 10
11.012570
 20
246.963120
 11
26.161369
 21
246.963120
  0
LINE
  8
0
  6
CONTINUOUS
 10
11.864370
 20
254.663132
 11
11.128570
 21
251.828018
  0
LINE
  8
0
  6
CONTINUOUS
 10
11.128570
 20
251.828018
 11
11.940670
 21
249.353027
  0
LINE
  8
0
  6
CONTINUOUS
 10
11.940670
 20
249.353027
 11
11.012570
 21
246.963120
  0
LINE
  8
0
  6
CONTINUOUS
 10
11.864370
 20
254.663132
 11
26.161369
 21
254.663132
  0
LINE
  8
0
  6
CONTINUOUS
 10
45.661251
 20
273.813110
 11
45.661251
 21
278.313110
  0
LINE
  8
0
  6
CONTINUOUS
 10
46.661251
 20
278.313110
 11
44.682240
 21
278.313110
  0
ARC
  8
0
  6
CONTINUOUS
 10
52.061279
 20
274.813110
 40
8.999999
 50
163.398987
 51
186.379364
  0
ARC
  8
0
  6
CONTINUOUS
 10
44.682240
 20
277.013123
 40
1.300000
 50
90.000000
 51
163.399094
  0
LINE
  8
0
  6
CONTINUOUS
 10
45.661251
 20
227.813126
 11
45.661251
 21
223.313126
  0
LINE
  8
0
  6
CONTINUOUS
 10
46.661251
 20
223.313126
 11
44.682240
 21
223.313126
  0
ARC
  8
0
  6
CONTINUOUS
 10
52.061279
 20
226.813126
 40
8.999999
 50
173.620636
 51
196.601013
  0
ARC
  8
0
  6
CONTINUOUS
 10
44.682240
 20
224.613113
 40
1.300000
 50
196.600906
 51
270.000000
  0
LINE
  8
0
  6
CONTINUOUS
 10
6.405348
 20
289.349396
 11
33.661251
 21
290.063110
  0
LINE
  8
0
  6
CONTINUOUS
 10
2.661250
 20
286.888397
 11
2.661250
 21
214.737854
  0
LINE
  8
0
  6
CONTINUOUS
 10
4.955094
 20
289.094543
 11
4.028794
 21
288.785767
  0
ARC
  8
0
  6
CONTINUOUS
 10
4.661250
 20
286.888397
 40
2.000000
 50
108.434952
 51
180.000000
  0
ARC
  8
0
  6
CONTINUOUS
 10
6.536233
 20
284.351105
 40
5.000000
 50
91.500000
 51
108.434952
  0
LINE
  8
0
  6
CONTINUOUS
 10
30.148163
 20
211.660721
 11
33.661251
 21
211.568726
  0
LINE
  8
0
  6
CONTINUOUS
 10
29.661249
 20
212.160553
 11
29.661249
 21
221.283264
  0
LINE
  8
0
  6
CONTINUOUS
 10
6.405348
 20
212.276840
 11
33.661251
 21
211.563126
  0
LINE
  8
0
  6
CONTINUOUS
 10
4.955094
 20
212.531723
 11
4.028794
 21
212.840485
  0
ARC
  8
0
  6
CONTINUOUS
 10
4.661250
 20
214.737854
 40
2.000000
 50
180.000000
 51
251.565048
  0
ARC
  8
0
  6
CONTINUOUS
 10
6.536233
 20
217.275131
 40
5.000000
 50
251.565048
 51
268.500000
  0
LINE
  8
0
  6
CONTINUOUS
 10
29.661249
 20
212.772720
 11
28.222040
 21
212.772720
  0
LINE
  8
0
  6
CONTINUOUS
 10
29.661249
 20
218.272720
 11
28.222040
 21
218.272720
  0
LINE
  8
0
  6
CONTINUOUS
 10
28.961300
 20
212.772720
 11
28.961300
 21
218.272720
  0
ARC
  8
0
  6
CONTINUOUS
 10
33.961300
 20
215.522720
 40
7.000000
 50
163.043503
 51
196.957993
  0
ARC
  8
0
  6
CONTINUOUS
 10
28.222040
 20
217.272720
 40
1.000000
 50
90.000000
 51
163.043106
  0
ARC
  8
0
  6
CONTINUOUS
 10
28.222040
 20
213.772720
 40
1.000000
 50
196.958099
 51
270.000000
  0
LINE
  8
0
  6
CONTINUOUS
 10
29.661249
 20
221.283264
 11
33.661251
 21
221.283264
  0
LINE
  8
0
  6
CONTINUOUS
 10
2.670502
 20
219.492264
 11
2.661250
 21
219.492508
  0
ARC
  8
0
  6
CONTINUOUS
 10
30.161249
 20
212.160553
 40
0.500000
 50
180.000000
 51
268.500000
  0
LINE
  8
0
  6
CONTINUOUS
 10
30.148163
 20
289.965546
 11
33.661251
 21
290.057526
  0
LINE
  8
0
  6
CONTINUOUS
 10
29.661249
 20
289.465698
 11
29.661249
 21
280.342987
  0
LINE
  8
0
  6
CONTINUOUS
 10
29.661249
 20
288.853516
 11
28.222040
 21
288.853516
  0
LINE
  8
0
  6
CONTINUOUS
 10
29.661249
 20
283.353516
 11
28.222040
 21
283.353516
  0
LINE
  8
0
  6
CONTINUOUS
 10
28.961300
 20
288.853516
 11
28.961300
 21
283.353516
  0
ARC
  8
0
  6
CONTINUOUS
 10
33.961300
 20
286.103516
 40
7.000000
 50
163.042007
 51
196.956497
  0
ARC
  8
0
  6
CONTINUOUS
 10
28.222040
 20
284.353516
 40
1.000000
 50
196.956894
 51
270.000000
  0
ARC
  8
0
  6
CONTINUOUS
 10
28.222040
 20
287.853516
 40
1.000000
 50
90.000000
 51
163.041901
  0
LINE
  8
0
  6
CONTINUOUS
 10
29.661249
 20
280.342987
 11
33.661251
 21
280.342987
  0
ARC
  8
0
  6
CONTINUOUS
 10
30.161249
 20
289.465698
 40
0.500000
 50
91.500000
 51
180.000000
  0
LINE
  8
0
  6
CONTINUOUS
 10
26.967819
 20
215.220673
 11
2.661250
 21
215.857147
  0
LINE
  8
0
  6
CONTINUOUS
 10
29.661249
 20
219.131302
 11
2.661250
 21
218.424271
  0
LINE
  8
0
  6
CONTINUOUS
 10
26.967819
 20
286.405579
 11
2.661250
 21
285.769104
  0
LINE
  8
0
  6
CONTINUOUS
 10
29.661249
 20
282.494934
 11
2.661250
 21
283.201965
  0
ARC
  8
0
  6
DASHED
 10
343.200012
 20
115.478699
 40
0.500000
 50
95.173981
 51
180.000000
  0
ARC
  8
0
  6
CONTINUOUS
 10
349.700012
 20
115.981743
 40
0.500000
 50
93.676804
 51
162.961609
  0
ARC
  8
0
  6
DASHED
 10
365.700012
 20
-133.004700
 40
250.000000
 50
94.598679
 51
95.173981
  0
LINE
  8
0
  6
CONTINUOUS
 10
317.700012
 20
104.911118
 11
325.137512
 21
103.932503
  0
LINE
  8
0
  6
CONTINUOUS
 10
325.137512
 20
103.932503
 11
330.137512
 21
100.682503
  0
LINE
  8
0
  6
CONTINUOUS
 10
330.137512
 20
100.682503
 11
330.887512
 21
96.245003
  0
LINE
  8
0
  6
CONTINUOUS
 10
330.887512
 20
96.245003
 11
333.051605
 21
91.267502
  0
LINE
  8
0
  6
CONTINUOUS
 10
333.051605
 20
91.267502
 11
334.512512
 21
90.307503
  0
LINE
  8
0
  6
CONTINUOUS
 10
334.512512
 20
90.307503
 11
334.012512
 21
84.307503
  0
LINE
  8
0
  6
CONTINUOUS
 10
334.012512
 20
84.307503
 11
332.012512
 21
80.807503
  0
LINE
  8
0
  6
CONTINUOUS
 10
332.012512
 20
80.807503
 11
333.887512
 21
75.307503
  0
LINE
  8
0
  6
CONTINUOUS
 10
333.887512
 20
75.307503
 11
333.262512
 21
69.557503
  0
LINE
  8
0
  6
CONTINUOUS
 10
333.262512
 20
69.557503
 11
332.637512
 21
63.307499
  0
LINE
  8
0
  6
CONTINUOUS
 10
332.637512
 20
63.307499
 11
333.762512
 21
58.682499
  0
LINE
  8
0
  6
CONTINUOUS
 10
333.762512
 20
58.682499
 11
332.637512
 21
54.432499
  0
LINE
  8
0
  6
CONTINUOUS
 10
332.637512
 20
54.432499
 11
329.387512
 21
49.557499
  0
LINE
  8
0
  6
CONTINUOUS
 10
329.387512
 20
49.557499
 11
324.887512
 21
47.557499
  0
LINE
  8
0
  6
CONTINUOUS
 10
324.887512
 20
47.557499
 11
320.637512
 21
44.932499
  0
LINE
  8
0
  6
CONTINUOUS
 10
320.637512
 20
44.932499
 11
317.700012
 21
44.535542
  0
TEXT
  8
0
 10
-10.000000
 20
-6.000000
 40
4.000000
 41
1.000000
  1
HFV-18R-10~240-S40
 50
0.000000
  0
ENDSEC
  0
EOF
