  0
SECTION
  2
HEADER
  9
$CLAYER
  8
1
  9
$LTSCALE
 40
3.0
  0
ENDSEC
  0
SECTION
  2
TABLES
  0
TABLE
  2
LTYPE
 70
     4
  0
LTYPE
  2
CONTINUOUS
  3
solid line
 70
    64
 72
    65
 73
     0
 40
0.0
  0
LTYPE
  2
DASHED
  3
__ __ __ __ __ __ __ __ __ __ __ __ __ __ __
 70
    64
 72
    65
 73
     2
 40
0.75
 49
0.5
 49
-0.25
  0
LTYPE
  2
CENTER
  3
____ _ ____ _ ____ _ ____ _ ____ _ ____ _ ____
 70
    64
 72
    65
 73
     4
 40
2.0
 49
1.25
 49
-0.25
 49
0.25
 49
-0.25
  0
LTYPE
  2
PHANTOM
  3
_____ _ _ _____ _ _ _____ _ _ _____ _ _ ____
 70
    64
 72
    65
 73
     6
 40
2.5
 49
1.25
 49
-0.25
 49
0.25
 49
-0.25
 49
0.25
 49
-0.25
  0
ENDTAB
  0
TABLE
  2
LAYER
 70
     1
  0
LAYER
  2
0
 70
    64
 62
     7
  6
CONTINUOUS
  0
ENDTAB
  0
TABLE
  2
STYLE
 70
     1
  0
STYLE
  2
STANDARD
 70
     0
 40
0.000000
 41
1.000000
 50
0.000000
 71
     0
 42
3.000000
  3
txt
  4
BIGFONT
  0
ENDTAB
  0
ENDSEC
  0
SECTION
  2
BLOCKS
  0
ENDSEC
  0
SECTION
  2
ENTITIES
  0
LINE
  8
0
  6
CENTER
 10
-10.301250
 20
52.654999
 11
152.884201
 21
52.654999
  0
LINE
  8
0
  6
CONTINUOUS
 10
231.497498
 20
33.855000
 11
231.497498
 21
92.855003
  0
LINE
  8
0
  6
CONTINUOUS
 10
57.997501
 20
97.654999
 11
130.843262
 21
97.654999
  0
LINE
  8
0
  6
CONTINUOUS
 10
128.497498
 20
7.655000
 11
57.997501
 21
7.655000
  0
LINE
  8
0
  6
CENTER
 10
146.047195
 20
78.355003
 11
210.459396
 21
78.355003
  0
LINE
  8
0
  6
CENTER
 10
180.997498
 20
130.904999
 11
180.997498
 21
-5.085300
  0
LINE
  8
0
  6
CONTINUOUS
 10
140.997498
 20
122.355003
 11
220.997498
 21
122.355003
  0
LINE
  8
0
  6
CONTINUOUS
 10
140.997498
 20
4.355000
 11
220.997498
 21
4.355000
  0
LINE
  8
0
  6
CENTER
 10
213.997498
 20
113.355003
 11
227.872498
 21
113.355003
  0
LINE
  8
0
  6
CENTER
 10
220.997498
 20
106.654999
 11
220.997498
 21
120.421875
  0
CIRCLE
  8
0
  6
CONTINUOUS
 10
220.997498
 20
113.355003
 40
4.250000
  0
LINE
  8
0
  6
CENTER
 10
213.997498
 20
13.355000
 11
227.872498
 21
13.355000
  0
LINE
  8
0
  6
CENTER
 10
220.997498
 20
20.055000
 11
220.997498
 21
6.555000
  0
CIRCLE
  8
0
  6
CONTINUOUS
 10
220.997498
 20
13.355000
 40
4.250000
  0
LINE
  8
0
  6
CENTER
 10
147.997498
 20
113.355003
 11
134.122498
 21
113.355003
  0
LINE
  8
0
  6
CENTER
 10
140.997498
 20
106.654999
 11
140.997498
 21
120.154999
  0
CIRCLE
  8
0
  6
CONTINUOUS
 10
140.997498
 20
113.355003
 40
4.250000
  0
LINE
  8
0
  6
CENTER
 10
147.997498
 20
13.355000
 11
134.122498
 21
13.355000
  0
LINE
  8
0
  6
CENTER
 10
140.997498
 20
20.055000
 11
140.997498
 21
6.555000
  0
CIRCLE
  8
0
  6
CONTINUOUS
 10
140.997498
 20
13.355000
 40
4.250000
  0
LINE
  8
0
  6
CONTINUOUS
 10
229.974197
 20
114.001633
 11
231.497498
 21
92.855003
  0
LINE
  8
0
  6
CONTINUOUS
 10
229.974197
 20
12.708440
 11
231.497498
 21
33.855000
  0
LINE
  8
0
  6
CONTINUOUS
 10
154.997498
 20
118.355003
 11
206.997498
 21
118.355003
  0
LINE
  8
0
  6
CONTINUOUS
 10
206.997498
 20
8.355000
 11
154.997498
 21
8.355000
  0
LINE
  8
0
  6
CONTINUOUS
 10
132.997498
 20
79.047188
 11
132.997498
 21
47.662479
  0
ARC
  8
0
  6
CONTINUOUS
 10
180.997498
 20
63.355000
 40
50.500000
 50
18.103800
 51
161.896194
  0
ARC
  8
0
  6
CONTINUOUS
 10
180.997498
 20
63.355000
 40
50.500000
 50
198.103806
 51
341.896210
  0
LINE
  8
0
  6
CONTINUOUS
 10
228.997498
 20
79.047363
 11
228.997498
 21
47.662964
  0
ARC
  8
0
  6
CONTINUOUS
 10
206.997498
 20
113.355003
 40
5.000000
 50
0.000000
 51
90.000000
  0
ARC
  8
0
  6
CONTINUOUS
 10
222.003403
 20
99.391182
 40
5.000000
 50
4.120544
 51
94.120201
  0
ARC
  8
0
  6
CONTINUOUS
 10
220.997498
 20
113.355003
 40
9.000000
 50
180.000000
 51
274.120697
  0
ARC
  8
0
  6
CONTINUOUS
 10
220.997498
 20
113.355003
 40
9.000000
 50
4.120065
 51
90.000000
  0
ARC
  8
0
  6
CONTINUOUS
 10
206.997498
 20
13.355000
 40
5.000000
 50
-90.000000
 51
0.000000
  0
ARC
  8
0
  6
CONTINUOUS
 10
222.003403
 20
27.318821
 40
5.000000
 50
265.879791
 51
355.879486
  0
ARC
  8
0
  6
CONTINUOUS
 10
220.997498
 20
13.355000
 40
9.000000
 50
270.000000
 51
355.879913
  0
ARC
  8
0
  6
CONTINUOUS
 10
220.997498
 20
13.355000
 40
9.000000
 50
85.879837
 51
180.000000
  0
LINE
  8
0
  6
CONTINUOUS
 10
226.990402
 20
99.750458
 11
228.997498
 21
79.047363
  0
LINE
  8
0
  6
CONTINUOUS
 10
226.990402
 20
26.959579
 11
228.997604
 21
47.662964
  0
ARC
  8
0
  6
CONTINUOUS
 10
154.997498
 20
113.355003
 40
5.000000
 50
90.000000
 51
180.000000
  0
ARC
  8
0
  6
CONTINUOUS
 10
140.997498
 20
113.355003
 40
9.000000
 50
-94.120667
 51
0.000000
  0
ARC
  8
0
  6
CONTINUOUS
 10
139.991592
 20
99.391182
 40
5.000000
 50
85.879799
 51
175.879501
  0
LINE
  8
0
  6
CONTINUOUS
 10
135.004593
 20
99.750458
 11
132.997498
 21
79.047363
  0
ARC
  8
0
  6
CONTINUOUS
 10
139.991592
 20
27.318821
 40
5.000000
 50
-175.879501
 51
-85.879791
  0
ARC
  8
0
  6
CONTINUOUS
 10
140.997498
 20
13.355000
 40
9.000000
 50
0.000000
 51
94.120163
  0
ARC
  8
0
  6
CONTINUOUS
 10
154.997498
 20
13.355000
 40
5.000000
 50
180.000000
 51
270.000000
  0
LINE
  8
0
  6
CONTINUOUS
 10
135.004593
 20
26.959579
 11
132.997406
 21
47.662964
  0
ARC
  8
0
  6
CONTINUOUS
 10
140.997498
 20
113.355003
 40
9.000000
 50
90.000000
 51
175.879898
  0
LINE
  8
0
  6
CONTINUOUS
 10
132.020706
 20
114.001633
 11
130.497498
 21
92.855003
  0
LINE
  8
0
  6
CONTINUOUS
 10
132.020706
 20
12.708440
 11
130.497498
 21
33.855000
  0
ARC
  8
0
  6
CONTINUOUS
 10
140.997498
 20
13.355000
 40
9.000000
 50
-175.879898
 51
-90.000000
  0
ARC
  8
0
  6
CONTINUOUS
 10
135.497498
 20
17.655029
 40
5.000000
 50
143.994797
 51
180.000000
  0
ARC
  8
0
  6
CONTINUOUS
 10
128.497498
 20
9.655000
 40
2.000000
 50
-90.000000
 51
0.000000
  0
LINE
  8
0
  6
CONTINUOUS
 10
130.497498
 20
9.655000
 11
130.497498
 21
17.655029
  0
LINE
  8
0
  6
CONTINUOUS
 10
130.497498
 20
92.855003
 11
130.497498
 21
33.854988
  0
LINE
  8
0
  6
CONTINUOUS
 10
57.997501
 20
87.064301
 11
128.497498
 21
87.064301
  0
LINE
  8
0
  6
CONTINUOUS
 10
57.997501
 20
18.245689
 11
128.997498
 21
18.245689
  0
CIRCLE
  8
0
  6
CONTINUOUS
 10
180.997498
 20
78.355003
 40
23.500000
  0
LINE
  8
0
  6
CONTINUOUS
 10
174.622498
 20
40.908230
 11
174.622498
 21
35.355000
  0
LINE
  8
0
  6
CONTINUOUS
 10
177.809998
 20
42.925316
 11
177.809998
 21
44.917503
  0
LINE
  8
0
  6
CONTINUOUS
 10
184.184998
 20
42.925316
 11
184.184998
 21
44.917503
  0
LINE
  8
0
  6
CONTINUOUS
 10
180.374893
 20
43.747093
 11
180.374893
 21
36.400902
  0
LINE
  8
0
  6
CONTINUOUS
 10
181.570297
 20
43.747093
 11
181.570297
 21
36.400902
  0
LINE
  8
0
  6
CONTINUOUS
 10
187.845596
 20
43.747093
 11
187.845596
 21
36.351101
  0
LINE
  8
0
  6
CONTINUOUS
 10
188.941299
 20
39.824982
 11
188.941299
 21
36.351101
  0
LINE
  8
0
  6
CONTINUOUS
 10
173.110001
 20
43.647484
 11
170.038101
 21
43.647484
  0
LINE
  8
0
  6
CONTINUOUS
 10
170.038101
 20
43.647484
 11
169.318298
 21
42.754990
  0
LINE
  8
0
  6
CONTINUOUS
 10
169.404907
 20
44.917503
 11
168.247498
 21
43.435509
  0
LINE
  8
0
  6
CONTINUOUS
 10
169.318298
 20
37.245930
 11
170.049606
 21
36.475609
  0
LINE
  8
0
  6
CONTINUOUS
 10
168.247498
 20
36.595860
 11
169.477295
 21
35.355000
  0
LINE
  8
0
  6
CONTINUOUS
 10
168.247498
 20
43.435509
 11
168.247498
 21
36.595860
  0
LINE
  8
0
  6
CONTINUOUS
 10
169.318298
 20
42.754990
 11
169.318298
 21
37.245930
  0
LINE
  8
0
  6
CONTINUOUS
 10
173.701096
 20
43.076042
 11
173.097900
 21
43.647484
  0
LINE
  8
0
  6
CONTINUOUS
 10
173.691498
 20
44.917503
 11
174.622498
 21
43.884361
  0
LINE
  8
0
  6
CONTINUOUS
 10
173.701096
 20
42.925316
 11
174.622498
 21
42.925316
  0
LINE
  8
0
  6
CONTINUOUS
 10
169.404907
 20
44.917503
 11
173.691498
 21
44.917503
  0
LINE
  8
0
  6
CONTINUOUS
 10
173.701096
 20
39.862331
 11
172.032700
 21
39.862331
  0
LINE
  8
0
  6
CONTINUOUS
 10
173.701096
 20
38.866241
 11
173.701096
 21
39.663109
  0
LINE
  8
0
  6
CONTINUOUS
 10
171.708893
 20
36.475609
 11
170.049606
 21
36.475609
  0
ARC
  8
0
  6
CONTINUOUS
 10
171.708893
 20
38.467800
 40
1.992187
 50
-89.999786
 51
0.000109
  0
LINE
  8
0
  6
CONTINUOUS
 10
173.701096
 20
36.117271
 11
173.701096
 21
35.355000
  0
LINE
  8
0
  6
CONTINUOUS
 10
174.622498
 20
43.884361
 11
174.622498
 21
42.925316
  0
LINE
  8
0
  6
CONTINUOUS
 10
173.701096
 20
39.862331
 11
173.701096
 21
38.467800
  0
LINE
  8
0
  6
CONTINUOUS
 10
172.032700
 20
40.908230
 11
172.032700
 21
39.862331
  0
LINE
  8
0
  6
CONTINUOUS
 10
173.701096
 20
35.355000
 11
174.622498
 21
35.355000
  0
LINE
  8
0
  6
CONTINUOUS
 10
173.701096
 20
36.117271
 11
172.792603
 21
35.355000
  0
LINE
  8
0
  6
CONTINUOUS
 10
181.570297
 20
36.400902
 11
181.968704
 21
36.400902
  0
LINE
  8
0
  6
CONTINUOUS
 10
179.901794
 20
36.400902
 11
179.901794
 21
35.355000
  0
LINE
  8
0
  6
CONTINUOUS
 10
181.968704
 20
36.400902
 11
181.968704
 21
35.355000
  0
LINE
  8
0
  6
CONTINUOUS
 10
183.520004
 20
42.925316
 11
184.184998
 21
42.925316
  0
LINE
  8
0
  6
CONTINUOUS
 10
177.809998
 20
42.925316
 11
178.517593
 21
42.925316
  0
LINE
  8
0
  6
CONTINUOUS
 10
177.809998
 20
44.917503
 11
184.184998
 21
44.917503
  0
LINE
  8
0
  6
CONTINUOUS
 10
179.901794
 20
35.355000
 11
181.968704
 21
35.355000
  0
LINE
  8
0
  6
CONTINUOUS
 10
179.901794
 20
36.400902
 11
180.374893
 21
36.400902
  0
ARC
  8
0
  6
CONTINUOUS
 10
191.195007
 20
42.365009
 40
2.552490
 50
-73.981873
 51
90.003510
  0
ARC
  8
0
  6
CONTINUOUS
 10
191.195007
 20
42.365009
 40
1.557193
 50
-82.585274
 51
62.411850
  0
LINE
  8
0
  6
CONTINUOUS
 10
187.372498
 20
44.917503
 11
191.195007
 21
44.917503
  0
LINE
  8
0
  6
CONTINUOUS
 10
187.372498
 20
44.917503
 11
187.372498
 21
43.747093
  0
LINE
  8
0
  6
CONTINUOUS
 10
188.941299
 20
43.747093
 11
188.941299
 21
40.820839
  0
LINE
  8
0
  6
CONTINUOUS
 10
191.899399
 20
39.911629
 11
193.479202
 21
36.351101
  0
LINE
  8
0
  6
CONTINUOUS
 10
190.981796
 20
39.824982
 11
192.476898
 21
36.351101
  0
LINE
  8
0
  6
CONTINUOUS
 10
187.372498
 20
36.351101
 11
187.845596
 21
36.351101
  0
LINE
  8
0
  6
CONTINUOUS
 10
188.941299
 20
36.351101
 11
189.377106
 21
36.351101
  0
LINE
  8
0
  6
CONTINUOUS
 10
189.377106
 20
35.355000
 11
187.372498
 21
35.355000
  0
LINE
  8
0
  6
CONTINUOUS
 10
192.278305
 20
36.351101
 11
192.476898
 21
36.351101
  0
LINE
  8
0
  6
CONTINUOUS
 10
193.479202
 20
36.351101
 11
193.747498
 21
36.351101
  0
LINE
  8
0
  6
CONTINUOUS
 10
192.278305
 20
35.355000
 11
193.747498
 21
35.355000
  0
LINE
  8
0
  6
CONTINUOUS
 10
193.747498
 20
36.351101
 11
193.747498
 21
35.355000
  0
LINE
  8
0
  6
CONTINUOUS
 10
192.278305
 20
36.351101
 11
192.278305
 21
35.355000
  0
LINE
  8
0
  6
CONTINUOUS
 10
189.377106
 20
36.351101
 11
189.377106
 21
35.355000
  0
LINE
  8
0
  6
CONTINUOUS
 10
187.372498
 20
36.351101
 11
187.372498
 21
35.355000
  0
LINE
  8
0
  6
CONTINUOUS
 10
178.860001
 20
43.747093
 11
178.517593
 21
42.925316
  0
LINE
  8
0
  6
CONTINUOUS
 10
183.231293
 20
43.747093
 11
183.520004
 21
42.925316
  0
LINE
  8
0
  6
CONTINUOUS
 10
181.570297
 20
43.747093
 11
183.231293
 21
43.747093
  0
LINE
  8
0
  6
CONTINUOUS
 10
180.374893
 20
43.747093
 11
178.860001
 21
43.747093
  0
LINE
  8
0
  6
CONTINUOUS
 10
187.372498
 20
43.747093
 11
187.845596
 21
43.747093
  0
LINE
  8
0
  6
CONTINUOUS
 10
188.941299
 20
43.747093
 11
191.916199
 21
43.745155
  0
LINE
  8
0
  6
CONTINUOUS
 10
173.701096
 20
43.076042
 11
173.701096
 21
42.925316
  0
LINE
  8
0
  6
CONTINUOUS
 10
169.477295
 20
35.355000
 11
172.792603
 21
35.355000
  0
LINE
  8
0
  6
CONTINUOUS
 10
188.941299
 20
40.820839
 11
191.395996
 21
40.820839
  0
LINE
  8
0
  6
CONTINUOUS
 10
188.941299
 20
39.824982
 11
190.981796
 21
39.824982
  0
LINE
  8
0
  6
CONTINUOUS
 10
172.032700
 20
40.908230
 11
174.622498
 21
40.908230
  0
LINE
  8
0
  6
CONTINUOUS
 10
166.997498
 20
117.423798
 11
166.997498
 21
111.875610
  0
LINE
  8
0
  6
CONTINUOUS
 10
194.997498
 20
117.423798
 11
194.997498
 21
111.875618
  0
LINE
  8
0
  6
CONTINUOUS
 10
166.997498
 20
14.834390
 11
166.997498
 21
9.560370
  0
LINE
  8
0
  6
CONTINUOUS
 10
194.997498
 20
14.834390
 11
194.997498
 21
9.560370
  0
LINE
  8
0
  6
CONTINUOUS
 10
186.497498
 20
75.355019
 11
186.497498
 21
81.355019
  0
LINE
  8
0
  6
CONTINUOUS
 10
192.497498
 20
75.355042
 11
192.497498
 21
81.355042
  0
LINE
  8
0
  6
CONTINUOUS
 10
192.497498
 20
75.355042
 11
186.497498
 21
75.355019
  0
LINE
  8
0
  6
CONTINUOUS
 10
192.497498
 20
81.355042
 11
186.497498
 21
81.355019
  0
ARC
  8
0
  6
CONTINUOUS
 10
180.997498
 20
78.355003
 40
9.000000
 50
19.471210
 51
340.528809
  0
LINE
  8
0
  6
CENTER
 10
180.997498
 20
338.650635
 11
180.997498
 21
177.479996
  0
LINE
  8
0
  6
CENTER
 10
-12.024375
 20
257.773132
 11
245.138748
 21
257.773132
  0
LINE
  8
0
  6
CONTINUOUS
 10
227.323380
 20
294.773132
 11
132.445816
 21
294.773132
  0
LINE
  8
0
  6
CONTINUOUS
 10
130.288086
 20
286.775879
 11
130.446503
 21
292.825470
  0
LINE
  8
0
  6
CONTINUOUS
 10
128.339706
 20
302.773132
 11
57.997501
 21
302.773132
  0
LINE
  8
0
  6
CONTINUOUS
 10
57.997501
 20
286.773132
 11
137.340057
 21
286.773132
  0
LINE
  8
0
  6
CONTINUOUS
 10
57.997501
 20
228.773132
 11
128.614380
 21
228.773132
  0
LINE
  8
0
  6
CONTINUOUS
 10
128.470627
 20
212.773132
 11
57.997501
 21
212.773132
  0
LINE
  8
0
  6
CONTINUOUS
 10
129.240570
 20
257.773132
 11
130.497498
 21
209.773132
  0
LINE
  8
0
  6
CONTINUOUS
 10
163.997498
 20
289.773132
 11
163.997498
 21
221.773132
  0
LINE
  8
0
  6
CONTINUOUS
 10
197.997498
 20
289.773132
 11
197.997498
 21
221.773132
  0
LINE
  8
0
  6
CONTINUOUS
 10
137.340057
 20
284.773132
 11
137.340057
 21
221.308121
  0
LINE
  8
0
  6
CONTINUOUS
 10
203.497498
 20
299.773132
 11
158.497498
 21
299.773132
  0
LINE
  8
0
  6
CONTINUOUS
 10
157.497498
 20
298.773132
 11
157.497498
 21
296.773132
  0
LINE
  8
0
  6
CONTINUOUS
 10
204.497498
 20
298.773132
 11
204.497498
 21
296.773132
  0
ARC
  8
0
  6
CONTINUOUS
 10
155.497498
 20
296.773132
 40
2.000000
 50
-90.000000
 51
0.000000
  0
ARC
  8
0
  6
CONTINUOUS
 10
206.497498
 20
296.773132
 40
2.000000
 50
180.000000
 51
270.000000
  0
ARC
  8
0
  6
CONTINUOUS
 10
158.497513
 20
298.773132
 40
1.000000
 50
90.000000
 51
180.000000
  0
ARC
  8
0
  6
CONTINUOUS
 10
203.497498
 20
298.773132
 40
1.000000
 50
0.000000
 51
90.000000
  0
LINE
  8
0
  6
CONTINUOUS
 10
192.497498
 20
331.773132
 11
171.997498
 21
331.773132
  0
LINE
  8
0
  6
CONTINUOUS
 10
171.997498
 20
301.773132
 11
171.997498
 21
331.773132
  0
LINE
  8
0
  6
CONTINUOUS
 10
189.997498
 20
301.773132
 11
189.997498
 21
307.773132
  0
LINE
  8
0
  6
CONTINUOUS
 10
170.997498
 20
301.773132
 11
190.997498
 21
301.773132
  0
LINE
  8
0
  6
CONTINUOUS
 10
170.997498
 20
299.773132
 11
170.997498
 21
301.773132
  0
LINE
  8
0
  6
CONTINUOUS
 10
190.997498
 20
299.773132
 11
190.997498
 21
301.773132
  0
LINE
  8
0
  6
CONTINUOUS
 10
192.497498
 20
331.773132
 11
192.497498
 21
307.773132
  0
LINE
  8
0
  6
CONTINUOUS
 10
192.497498
 20
307.773132
 11
189.482498
 21
307.773132
  0
LINE
  8
0
  6
CONTINUOUS
 10
189.482498
 20
331.773132
 11
189.482498
 21
307.773132
  0
LINE
  8
0
  6
CONTINUOUS
 10
192.497498
 20
183.773132
 11
171.997498
 21
183.773132
  0
LINE
  8
0
  6
CONTINUOUS
 10
171.997498
 20
209.773132
 11
171.997498
 21
183.773132
  0
LINE
  8
0
  6
CONTINUOUS
 10
192.497498
 20
183.773132
 11
192.497498
 21
207.773132
  0
LINE
  8
0
  6
CONTINUOUS
 10
189.482498
 20
183.773132
 11
189.482498
 21
207.773132
  0
LINE
  8
0
  6
CONTINUOUS
 10
130.497498
 20
209.773132
 11
231.497498
 21
209.773132
  0
LINE
  8
0
  6
CONTINUOUS
 10
229.322693
 20
292.825470
 11
231.497498
 21
209.773132
  0
LINE
  8
0
  6
CONTINUOUS
 10
132.288696
 20
219.773132
 11
229.287323
 21
219.773132
  0
ARC
  8
0
  6
CONTINUOUS
 10
229.287323
 20
217.773132
 40
2.000000
 50
1.500000
 51
90.000000
  0
ARC
  8
0
  6
CONTINUOUS
 10
227.323380
 20
292.773132
 40
2.000000
 50
1.500000
 51
90.000000
  0
ARC
  8
0
  6
CONTINUOUS
 10
199.997498
 20
221.773132
 40
2.000000
 50
180.000000
 51
270.000000
  0
ARC
  8
0
  6
CONTINUOUS
 10
161.997498
 20
221.773132
 40
2.000000
 50
-90.000000
 51
0.000000
  0
LINE
  8
0
  6
CONTINUOUS
 10
163.855560
 20
221.033127
 11
198.139435
 21
221.033127
  0
ARC
  8
0
  6
CONTINUOUS
 10
132.288696
 20
217.773132
 40
2.000000
 50
90.000000
 51
181.500000
  0
ARC
  8
0
  6
CONTINUOUS
 10
128.470627
 20
210.773132
 40
2.000000
 50
1.500000
 51
90.000000
  0
LINE
  8
0
  6
CONTINUOUS
 10
130.339020
 20
300.825470
 11
130.446503
 21
296.720764
  0
ARC
  8
0
  6
CONTINUOUS
 10
128.339706
 20
300.773132
 40
2.000000
 50
1.500000
 51
90.000000
  0
ARC
  8
0
  6
CONTINUOUS
 10
132.445816
 20
296.773132
 40
2.000000
 50
181.500000
 51
270.000000
  0
ARC
  8
0
  6
CONTINUOUS
 10
132.445816
 20
292.773132
 40
2.000000
 50
90.000000
 51
178.500000
  0
LINE
  8
0
  6
CENTER
 10
220.997498
 20
202.084534
 11
220.997498
 21
225.947189
  0
LINE
  8
0
  6
DASHED
 10
225.247498
 20
219.773132
 11
225.247498
 21
209.773132
  0
LINE
  8
0
  6
DASHED
 10
216.747498
 20
219.773132
 11
216.747498
 21
209.773132
  0
LINE
  8
0
  6
CENTER
 10
140.997498
 20
202.084534
 11
140.997498
 21
225.947189
  0
LINE
  8
0
  6
DASHED
 10
136.747498
 20
219.773132
 11
136.747498
 21
209.773132
  0
LINE
  8
0
  6
DASHED
 10
145.247498
 20
219.773132
 11
145.247498
 21
209.773132
  0
LINE
  8
0
  6
CENTER
 10
369.179993
 20
-2.345000
 11
369.179993
 21
128.154999
  0
LINE
  8
0
  6
CONTINUOUS
 10
327.179993
 20
100.854988
 11
327.179993
 21
55.854992
  0
LINE
  8
0
  6
CONTINUOUS
 10
406.179993
 20
113.406883
 11
406.179993
 21
13.303080
  0
LINE
  8
0
  6
CENTER
 10
287.679993
 20
78.355003
 11
449.679993
 21
78.355003
  0
LINE
  8
0
  6
CONTINUOUS
 10
331.179993
 20
101.855003
 11
328.179993
 21
101.855003
  0
LINE
  8
0
  6
CONTINUOUS
 10
331.179993
 20
54.854996
 11
328.179993
 21
54.854996
  0
LINE
  8
0
  6
CONTINUOUS
 10
329.645386
 20
122.355003
 11
321.179993
 21
122.355003
  0
LINE
  8
0
  6
CONTINUOUS
 10
329.645386
 20
4.355000
 11
321.179993
 21
4.355000
  0
LINE
  8
0
  6
CONTINUOUS
 10
403.232300
 20
116.406441
 11
333.145111
 21
117.629539
  0
LINE
  8
0
  6
CONTINUOUS
 10
403.232391
 20
10.303550
 11
333.145111
 21
9.079920
  0
LINE
  8
0
  6
CONTINUOUS
 10
404.227814
 20
92.855003
 11
336.345795
 21
92.855003
  0
LINE
  8
0
  6
CONTINUOUS
 10
404.227814
 20
33.855000
 11
334.179993
 21
33.855000
  0
ARC
  8
0
  6
CONTINUOUS
 10
403.179993
 20
113.406883
 40
3.000000
 50
0.000000
 51
89.000359
  0
ARC
  8
0
  6
CONTINUOUS
 10
403.179993
 20
13.303080
 40
3.000000
 50
-88.999687
 51
0.000000
  0
ARC
  8
0
  6
CONTINUOUS
 10
334.179993
 20
30.855021
 40
3.000000
 50
90.000000
 51
180.000000
  0
LINE
  8
0
  6
CENTER
 10
316.117493
 20
13.355000
 11
335.867493
 21
13.355000
  0
LINE
  8
0
  6
CENTER
 10
317.867493
 20
113.355003
 11
334.867493
 21
113.355003
  0
LINE
  8
0
  6
DASHED
 10
321.179993
 20
109.105003
 11
331.179993
 21
109.105003
  0
LINE
  8
0
  6
DASHED
 10
321.179993
 20
117.605003
 11
331.179993
 21
117.605003
  0
LINE
  8
0
  6
DASHED
 10
321.179993
 20
17.605000
 11
331.179993
 21
17.605000
  0
LINE
  8
0
  6
DASHED
 10
321.179993
 20
9.105000
 11
331.179993
 21
9.105000
  0
LINE
  8
0
  6
CONTINUOUS
 10
343.179993
 20
7.655000
 11
395.179993
 21
7.655000
  0
ARC
  8
0
  6
CONTINUOUS
 10
395.179993
 20
10.655000
 40
3.000000
 50
270.000000
 51
351.561859
  0
ARC
  8
0
  6
CONTINUOUS
 10
343.179993
 20
10.655000
 40
3.000000
 50
208.811234
 51
270.000000
  0
ARC
  8
0
  6
CONTINUOUS
 10
328.179993
 20
55.854996
 40
1.000000
 50
180.000000
 51
270.000000
  0
ARC
  8
0
  6
CONTINUOUS
 10
328.179993
 20
100.854988
 40
1.000000
 50
90.000000
 51
180.000000
  0
ARC
  8
0
  6
CONTINUOUS
 10
369.179993
 20
52.654999
 40
45.000000
 50
-34.692131
 51
20.419371
  0
LINE
  8
0
  6
CONTINUOUS
 10
411.179993
 20
100.854988
 11
411.179993
 21
55.854992
  0
LINE
  8
0
  6
CONTINUOUS
 10
408.179993
 20
101.855003
 11
410.179993
 21
101.855003
  0
LINE
  8
0
  6
CONTINUOUS
 10
408.179993
 20
54.854996
 11
410.179993
 21
54.854996
  0
ARC
  8
0
  6
CONTINUOUS
 10
408.179993
 20
103.855003
 40
2.000000
 50
180.000000
 51
270.000000
  0
ARC
  8
0
  6
CONTINUOUS
 10
408.179993
 20
52.855007
 40
2.000000
 50
90.000000
 51
180.000000
  0
ARC
  8
0
  6
CONTINUOUS
 10
410.179993
 20
55.854996
 40
1.000000
 50
-90.000000
 51
0.000000
  0
ARC
  8
0
  6
CONTINUOUS
 10
410.179993
 20
100.854988
 40
1.000000
 50
0.000000
 51
90.000000
  0
LINE
  8
0
  6
CONTINUOUS
 10
331.179993
 20
120.355003
 11
331.179993
 21
49.967499
  0
LINE
  8
0
  6
CONTINUOUS
 10
331.179993
 20
6.355000
 11
331.179993
 21
30.855009
  0
LINE
  8
0
  6
CONTINUOUS
 10
321.179993
 20
122.355003
 11
321.179993
 21
87.355003
  0
LINE
  8
0
  6
CONTINUOUS
 10
321.179993
 20
4.355000
 11
321.179993
 21
69.355003
  0
LINE
  8
0
  6
CENTER
 10
315.475403
 20
52.654999
 11
421.184906
 21
52.654999
  0
LINE
  8
0
  6
CONTINUOUS
 10
331.577209
 20
120.872643
 11
331.857788
 21
119.825409
  0
ARC
  8
0
  6
CONTINUOUS
 10
329.179993
 20
120.354988
 40
2.000000
 50
0.000000
 51
90.000000
  0
ARC
  8
0
  6
CONTINUOUS
 10
329.645386
 20
120.354988
 40
2.000000
 50
15.000500
 51
90.000000
  0
ARC
  8
0
  6
CONTINUOUS
 10
333.179993
 20
119.629250
 40
2.000000
 50
180.000000
 51
269.000610
  0
ARC
  8
0
  6
CONTINUOUS
 10
334.755615
 20
120.601898
 40
3.000000
 50
195.000504
 51
269.000610
  0
LINE
  8
0
  6
CONTINUOUS
 10
331.577209
 20
5.837370
 11
331.857605
 21
6.884020
  0
ARC
  8
0
  6
CONTINUOUS
 10
329.179993
 20
6.355000
 40
2.000000
 50
-90.000000
 51
0.000000
  0
ARC
  8
0
  6
CONTINUOUS
 10
329.645386
 20
6.355000
 40
2.000000
 50
270.000000
 51
345.000000
  0
ARC
  8
0
  6
CONTINUOUS
 10
333.179993
 20
7.080220
 40
2.000000
 50
91.000526
 51
180.000000
  0
ARC
  8
0
  6
CONTINUOUS
 10
334.755402
 20
6.107580
 40
3.000000
 50
91.000458
 51
165.000305
  0
LINE
  8
0
  6
CONTINUOUS
 10
295.179993
 20
69.355003
 11
295.179993
 21
87.355003
  0
LINE
  8
0
  6
CONTINUOUS
 10
325.179993
 20
87.355003
 11
295.179993
 21
87.355003
  0
LINE
  8
0
  6
CONTINUOUS
 10
325.179993
 20
69.355003
 11
295.179993
 21
69.355003
  0
LINE
  8
0
  6
CONTINUOUS
 10
325.179993
 20
88.355003
 11
325.179993
 21
68.355003
  0
LINE
  8
0
  6
CONTINUOUS
 10
327.179993
 20
88.355003
 11
325.179993
 21
88.355003
  0
LINE
  8
0
  6
CONTINUOUS
 10
327.179993
 20
68.355003
 11
325.179993
 21
68.355003
  0
ARC
  8
0
  6
CONTINUOUS
 10
319.179993
 20
78.355003
 40
3.000000
 50
-90.000000
 51
90.000000
  0
LINE
  8
0
  6
CONTINUOUS
 10
319.179993
 20
81.355003
 11
295.179993
 21
81.355003
  0
LINE
  8
0
  6
CONTINUOUS
 10
319.179993
 20
75.355003
 11
295.179993
 21
75.355003
  0
LINE
  8
0
  6
CONTINUOUS
 10
443.179993
 20
69.355003
 11
443.179993
 21
87.355003
  0
LINE
  8
0
  6
CONTINUOUS
 10
413.179993
 20
87.355003
 11
443.179993
 21
87.355003
  0
LINE
  8
0
  6
CONTINUOUS
 10
413.179993
 20
69.355003
 11
443.179993
 21
69.355003
  0
LINE
  8
0
  6
CONTINUOUS
 10
413.179993
 20
88.355003
 11
413.179993
 21
68.355003
  0
LINE
  8
0
  6
CONTINUOUS
 10
411.179993
 20
88.355003
 11
413.179993
 21
88.355003
  0
LINE
  8
0
  6
CONTINUOUS
 10
411.179993
 20
68.355003
 11
413.179993
 21
68.355003
  0
ARC
  8
0
  6
CONTINUOUS
 10
419.179993
 20
78.355003
 40
3.000000
 50
90.000000
 51
270.000000
  0
LINE
  8
0
  6
CONTINUOUS
 10
419.179993
 20
81.355003
 11
443.179993
 21
81.355003
  0
LINE
  8
0
  6
CONTINUOUS
 10
419.179993
 20
75.355003
 11
443.179993
 21
75.355003
  0
LINE
  8
0
  6
DASHED
 10
396.214905
 20
97.184799
 11
369.179993
 21
97.656693
  0
ARC
  8
0
  6
DASHED
 10
396.179993
 20
95.185097
 40
2.000000
 50
0.000000
 51
89.000191
  0
LINE
  8
0
  6
DASHED
 10
398.179993
 20
95.185112
 11
398.179993
 21
88.432091
  0
LINE
  8
0
  6
DASHED
 10
342.145111
 20
97.184799
 11
369.179993
 21
97.656693
  0
ARC
  8
0
  6
DASHED
 10
342.179993
 20
95.185097
 40
2.000000
 50
90.999809
 51
180.000000
  0
LINE
  8
0
  6
DASHED
 10
340.179993
 20
95.185112
 11
340.179993
 21
88.432091
  0
ARC
  8
0
  6
DASHED
 10
369.179993
 20
52.654999
 40
45.000000
 50
131.810318
 51
228.189682
  0
LINE
  8
0
  6
DASHED
 10
340.179993
 20
10.655000
 11
340.179993
 21
16.877913
  0
ARC
  8
0
  6
DASHED
 10
343.179993
 20
10.655000
 40
3.000000
 50
180.000000
 51
208.811234
  0
ARC
  8
0
  6
DASHED
 10
395.179993
 20
10.655000
 40
3.000000
 50
-8.438150
 51
0.000000
  0
LINE
  8
0
  6
DASHED
 10
398.179993
 20
10.655000
 11
398.179993
 21
16.877913
  0
ARC
  8
0
  6
DASHED
 10
369.179993
 20
52.654999
 40
45.000000
 50
-48.189686
 51
-34.692131
  0
ARC
  8
0
  6
DASHED
 10
401.179993
 20
88.432091
 40
3.000000
 50
180.000000
 51
228.189682
  0
ARC
  8
0
  6
DASHED
 10
337.179993
 20
88.432091
 40
3.000000
 50
-48.189686
 51
0.000000
  0
ARC
  8
0
  6
DASHED
 10
337.179993
 20
16.877913
 40
3.000000
 50
0.000000
 51
48.189686
  0
ARC
  8
0
  6
DASHED
 10
401.179993
 20
16.877913
 40
3.000000
 50
131.810318
 51
180.000000
  0
ARC
  8
0
  6
DASHED
 10
369.179993
 20
52.654999
 40
45.000000
 50
20.419371
 51
48.189686
  0
LINE
  8
0
  6
DASHED
 10
392.179993
 20
109.655296
 11
392.179993
 21
97.253532
  0
LINE
  8
0
  6
DASHED
 10
346.179993
 20
109.655296
 11
346.179993
 21
97.253532
  0
LINE
  8
0
  6
DASHED
 10
391.679993
 20
109.655296
 11
391.679993
 21
110.655296
  0
LINE
  8
0
  6
DASHED
 10
346.679993
 20
109.655296
 11
346.679993
 21
110.655296
  0
LINE
  8
0
  6
DASHED
 10
346.179993
 20
116.638702
 11
346.179993
 21
110.655296
  0
LINE
  8
0
  6
DASHED
 10
392.179993
 20
116.638702
 11
392.179993
 21
110.655296
  0
ARC
  8
0
  6
CONTINUOUS
 10
389.179993
 20
110.355202
 40
7.000000
 50
73.041977
 51
106.956497
  0
ARC
  8
0
  6
CONTINUOUS
 10
387.429993
 20
116.094498
 40
1.000000
 50
106.956902
 51
143.012054
  0
ARC
  8
0
  6
CONTINUOUS
 10
390.929993
 20
116.094498
 40
1.000000
 50
30.772787
 51
73.041847
  0
LINE
  8
0
  6
CONTINUOUS
 10
385.679993
 20
117.141747
 11
385.679993
 21
116.712746
  0
ARC
  8
0
  6
CONTINUOUS
 10
369.179993
 20
-131.844696
 40
250.000000
 50
84.826019
 51
94.598679
  0
ARC
  8
0
  6
CONTINUOUS
 10
391.679993
 20
116.638702
 40
0.500000
 50
0.000000
 51
84.826019
  0
ARC
  8
0
  6
CONTINUOUS
 10
385.179993
 20
117.141747
 40
0.500000
 50
0.000000
 51
86.323196
  0
LINE
  8
0
  6
DASHED
 10
391.679993
 20
109.655296
 11
392.179993
 21
109.655296
  0
LINE
  8
0
  6
DASHED
 10
391.679993
 20
110.655296
 11
392.179993
 21
110.655296
  0
LINE
  8
0
  6
DASHED
 10
346.679993
 20
109.655296
 11
346.179993
 21
109.655296
  0
LINE
  8
0
  6
DASHED
 10
346.679993
 20
110.655296
 11
346.179993
 21
110.655296
  0
LINE
  8
0
  6
CONTINUOUS
 10
419.179993
 20
81.355003
 11
419.179993
 21
75.355003
  0
LINE
  8
0
  6
CONTINUOUS
 10
319.179993
 20
81.355003
 11
319.179993
 21
75.355003
  0
LINE
  8
0
  6
CONTINUOUS
 10
189.482498
 20
207.773132
 11
192.497498
 21
207.773132
  0
LINE
  8
0
  6
CONTINUOUS
 10
189.997498
 20
209.773132
 11
189.997498
 21
207.773132
  0
LINE
  8
0
  6
CONTINUOUS
 10
26.997499
 20
8.996823
 11
26.997499
 21
13.774558
  0
LINE
  8
0
  6
CONTINUOUS
 10
26.997499
 20
9.155020
 11
25.558290
 21
9.155020
  0
LINE
  8
0
  6
CONTINUOUS
 10
26.297548
 20
9.155020
 11
26.297548
 21
13.792887
  0
ARC
  8
0
  6
CONTINUOUS
 10
31.297548
 20
11.905020
 40
7.000000
 50
163.968933
 51
196.957993
  0
ARC
  8
0
  6
CONTINUOUS
 10
25.558290
 20
10.155020
 40
1.000000
 50
196.958099
 51
270.000000
  0
LINE
  8
0
  6
CONTINUOUS
 10
-0.002479
 20
88.687103
 11
-0.002500
 21
52.654999
  0
LINE
  8
0
  6
CONTINUOUS
 10
-0.002480
 20
16.913900
 11
-0.002500
 21
52.654999
  0
LINE
  8
0
  6
CONTINUOUS
 10
26.997499
 20
64.918556
 11
26.997499
 21
77.029999
  0
LINE
  8
0
  6
CONTINUOUS
 10
26.997499
 20
70.279999
 11
25.558290
 21
70.279999
  0
LINE
  8
0
  6
CONTINUOUS
 10
26.997499
 20
75.779999
 11
25.558290
 21
75.779999
  0
LINE
  8
0
  6
CONTINUOUS
 10
26.297548
 20
70.279999
 11
26.297548
 21
75.779999
  0
ARC
  8
0
  6
CONTINUOUS
 10
31.297548
 20
73.029999
 40
7.000000
 50
163.043503
 51
196.957993
  0
ARC
  8
0
  6
CONTINUOUS
 10
25.558290
 20
74.779999
 40
1.000000
 50
90.000000
 51
163.043106
  0
ARC
  8
0
  6
CONTINUOUS
 10
25.558290
 20
71.279999
 40
1.000000
 50
196.958099
 51
270.000000
  0
LINE
  8
0
  6
CONTINUOUS
 10
26.997499
 20
64.918556
 11
30.997499
 21
64.918556
  0
LINE
  8
0
  6
CONTINUOUS
 10
26.997499
 20
77.029999
 11
30.997499
 21
77.029999
  0
LINE
  8
0
  6
CONTINUOUS
 10
57.997501
 20
7.655000
 11
57.997501
 21
97.654999
  0
LINE
  8
0
  6
CONTINUOUS
 10
43.997501
 20
8.390720
 11
43.997501
 21
18.245710
  0
LINE
  8
0
  6
CONTINUOUS
 10
30.997499
 20
90.681145
 11
30.997499
 21
8.405000
  0
LINE
  8
0
  6
CENTER
 10
40.497501
 20
99.593285
 11
40.497501
 21
120.855782
  0
ARC
  8
0
  6
CONTINUOUS
 10
56.497501
 20
98.654999
 40
1.000000
 50
180.000000
 51
270.000000
  0
LINE
  8
0
  6
CONTINUOUS
 10
57.997501
 20
18.245710
 11
43.997501
 21
18.245710
  0
LINE
  8
0
  6
CONTINUOUS
 10
43.997501
 20
97.154999
 11
43.997501
 21
87.154999
  0
LINE
  8
0
  6
CONTINUOUS
 10
57.997501
 20
87.064301
 11
43.997501
 21
87.064301
  0
LINE
  8
0
  6
CONTINUOUS
 10
57.997501
 20
97.654999
 11
25.497570
 21
97.654999
  0
ARC
  8
0
  6
CONTINUOUS
 10
44.497501
 20
97.154999
 40
0.500000
 50
90.000000
 51
180.000000
  0
LINE
  8
0
  6
CONTINUOUS
 10
25.497847
 20
109.655235
 11
25.497549
 21
97.657745
  0
LINE
  8
0
  6
CONTINUOUS
 10
55.497501
 20
109.655296
 11
55.497501
 21
98.654999
  0
LINE
  8
0
  6
CONTINUOUS
 10
55.497501
 20
110.655296
 11
55.497501
 21
117.233604
  0
LINE
  8
0
  6
CONTINUOUS
 10
11.609930
 20
106.605301
 11
23.497499
 21
106.605301
  0
LINE
  8
0
  6
CONTINUOUS
 10
25.497299
 20
110.655296
 11
25.497299
 21
117.233604
  0
LINE
  8
0
  6
CONTINUOUS
 10
57.497501
 20
115.155296
 11
57.497501
 21
110.655296
  0
LINE
  8
0
  6
CONTINUOUS
 10
23.497499
 20
110.655296
 11
57.497501
 21
110.655296
  0
LINE
  8
0
  6
CONTINUOUS
 10
23.497499
 20
109.655296
 11
57.497501
 21
109.655296
  0
LINE
  8
0
  6
CONTINUOUS
 10
23.497499
 20
115.155296
 11
23.497499
 21
114.405296
  0
LINE
  8
0
  6
CONTINUOUS
 10
23.497499
 20
114.405296
 11
23.497499
 21
110.655296
  0
LINE
  8
0
  6
CONTINUOUS
 10
12.461730
 20
114.305298
 11
23.497499
 21
114.305298
  0
ARC
  8
0
  6
CONTINUOUS
 10
40.497501
 20
-131.844696
 40
250.000000
 50
86.668304
 51
93.331696
  0
LINE
  8
0
  6
CONTINUOUS
 10
55.997501
 20
116.155296
 11
56.497501
 21
116.155296
  0
ARC
  8
0
  6
CONTINUOUS
 10
56.497501
 20
115.155296
 40
1.000000
 50
0.000000
 51
90.000000
  0
ARC
  8
0
  6
CONTINUOUS
 10
55.997501
 20
116.655296
 40
0.500000
 50
180.000000
 51
270.000000
  0
LINE
  8
0
  6
CONTINUOUS
 10
55.997501
 20
104.155296
 11
56.497501
 21
104.155296
  0
ARC
  8
0
  6
CONTINUOUS
 10
56.497501
 20
105.155296
 40
1.000000
 50
-90.000000
 51
0.000000
  0
ARC
  8
0
  6
CONTINUOUS
 10
55.997501
 20
103.655296
 40
0.500000
 50
90.000000
 51
180.000000
  0
LINE
  8
0
  6
CONTINUOUS
 10
24.997499
 20
116.155296
 11
24.497499
 21
116.155296
  0
ARC
  8
0
  6
CONTINUOUS
 10
24.497499
 20
115.155296
 40
1.000000
 50
90.000000
 51
180.000000
  0
ARC
  8
0
  6
CONTINUOUS
 10
24.997499
 20
116.655296
 40
0.500000
 50
-90.000000
 51
0.000000
  0
LINE
  8
0
  6
CONTINUOUS
 10
24.997499
 20
104.155296
 11
24.497499
 21
104.155296
  0
ARC
  8
0
  6
CONTINUOUS
 10
24.497499
 20
105.155296
 40
1.000000
 50
180.000000
 51
270.000000
  0
ARC
  8
0
  6
CONTINUOUS
 10
24.997499
 20
103.655296
 40
0.500000
 50
0.000000
 51
90.000000
  0
LINE
  8
0
  6
CONTINUOUS
 10
56.997501
 20
110.655296
 11
56.997501
 21
109.655296
  0
LINE
  8
0
  6
CONTINUOUS
 10
57.497501
 20
109.655296
 11
57.497501
 21
105.155296
  0
ARC
  8
0
  6
CONTINUOUS
 10
54.997501
 20
117.233604
 40
0.500000
 50
0.000000
 51
86.668304
  0
LINE
  8
0
  6
CONTINUOUS
 10
23.497499
 20
109.655296
 11
23.497499
 21
105.155296
  0
LINE
  8
0
  6
CONTINUOUS
 10
25.997847
 20
110.655296
 11
25.997847
 21
109.655235
  0
LINE
  8
0
  6
CONTINUOUS
 10
49.497501
 20
114.655296
 11
55.247501
 21
114.655296
  0
LINE
  8
0
  6
CONTINUOUS
 10
48.997501
 20
115.155296
 11
48.997501
 21
117.527008
  0
LINE
  8
0
  6
CONTINUOUS
 10
49.747501
 20
114.655296
 11
49.747501
 21
116.094498
  0
LINE
  8
0
  6
CONTINUOUS
 10
55.247501
 20
114.655098
 11
55.247501
 21
116.094498
  0
LINE
  8
0
  6
CONTINUOUS
 10
49.747501
 20
115.355202
 11
55.247501
 21
115.355202
  0
ARC
  8
0
  6
CONTINUOUS
 10
52.497501
 20
110.355202
 40
7.000000
 50
73.043503
 51
106.958000
  0
ARC
  8
0
  6
CONTINUOUS
 10
54.247501
 20
116.094498
 40
1.000000
 50
0.000000
 51
73.043098
  0
ARC
  8
0
  6
CONTINUOUS
 10
50.747501
 20
116.094498
 40
1.000000
 50
106.958199
 51
180.000000
  0
ARC
  8
0
  6
CONTINUOUS
 10
49.497501
 20
115.155296
 40
0.500000
 50
180.000000
 51
270.000000
  0
ARC
  8
0
  6
CONTINUOUS
 10
54.997501
 20
114.155296
 40
0.500000
 50
0.000000
 51
90.000000
  0
ARC
  8
0
  6
CONTINUOUS
 10
48.497501
 20
117.527008
 40
0.500000
 50
0.000000
 51
88.162544
  0
ARC
  8
0
  6
CONTINUOUS
 10
25.997499
 20
117.233604
 40
0.500000
 50
93.331696
 51
180.000000
  0
LINE
  8
0
  6
CONTINUOUS
 10
31.497499
 20
114.655296
 11
25.747499
 21
114.655296
  0
LINE
  8
0
  6
CONTINUOUS
 10
31.997499
 20
115.155296
 11
31.997499
 21
117.527008
  0
LINE
  8
0
  6
CONTINUOUS
 10
31.247499
 20
114.655296
 11
31.247499
 21
116.094498
  0
LINE
  8
0
  6
CONTINUOUS
 10
25.747499
 20
114.655098
 11
25.747499
 21
116.094498
  0
LINE
  8
0
  6
CONTINUOUS
 10
31.247499
 20
115.355202
 11
25.747499
 21
115.355202
  0
ARC
  8
0
  6
CONTINUOUS
 10
28.497499
 20
110.355202
 40
7.000000
 50
73.042000
 51
106.956497
  0
ARC
  8
0
  6
CONTINUOUS
 10
26.747499
 20
116.094498
 40
1.000000
 50
106.956902
 51
180.000000
  0
ARC
  8
0
  6
CONTINUOUS
 10
30.247499
 20
116.094498
 40
1.000000
 50
0.000000
 51
73.041801
  0
ARC
  8
0
  6
CONTINUOUS
 10
31.497499
 20
115.155296
 40
0.500000
 50
-90.000000
 51
0.000000
  0
ARC
  8
0
  6
CONTINUOUS
 10
25.997499
 20
114.155296
 40
0.500000
 50
90.000000
 51
180.000000
  0
ARC
  8
0
  6
CONTINUOUS
 10
32.497501
 20
117.527008
 40
0.500000
 50
91.837456
 51
180.000000
  0
LINE
  8
0
  6
CONTINUOUS
 10
25.497570
 20
93.747635
 11
25.497570
 21
97.654999
  0
LINE
  8
0
  6
CONTINUOUS
 10
32.965485
 20
8.052619
 11
57.997501
 21
7.655000
  0
ARC
  8
0
  6
CONTINUOUS
 10
44.497501
 20
8.390720
 40
0.500000
 50
180.000000
 51
269.000000
  0
LINE
  8
0
  6
CONTINUOUS
 10
31.740515
 20
8.378358
 11
32.997250
 21
8.044173
  0
ARC
  8
0
  6
CONTINUOUS
 10
31.997499
 20
9.344773
 40
1.000000
 50
180.000000
 51
255.108749
  0
LINE
  8
0
  6
CONTINUOUS
 10
32.997250
 20
17.154591
 11
43.997501
 21
17.154591
  0
LINE
  8
0
  6
CONTINUOUS
 10
31.740515
 20
17.488775
 11
32.997250
 21
17.154591
  0
ARC
  8
0
  6
CONTINUOUS
 10
31.997499
 20
18.455191
 40
1.000000
 50
180.000000
 51
255.108749
  0
LINE
  8
0
  6
CONTINUOUS
 10
32.997250
 20
88.155411
 11
43.997501
 21
88.155411
  0
LINE
  8
0
  6
CONTINUOUS
 10
31.740515
 20
87.821228
 11
32.997250
 21
88.155411
  0
ARC
  8
0
  6
CONTINUOUS
 10
31.997499
 20
86.854813
 40
1.000000
 50
104.891251
 51
180.000000
  0
LINE
  8
0
  6
CONTINUOUS
 10
30.023678
 20
91.680801
 11
27.445215
 21
91.748322
  0
ARC
  8
0
  6
CONTINUOUS
 10
27.497570
 20
93.747635
 40
2.000000
 50
180.000000
 51
268.500000
  0
LINE
  8
0
  6
CONTINUOUS
 10
3.800682
 20
91.192825
 11
27.037369
 21
91.801300
  0
ARC
  8
0
  6
CONTINUOUS
 10
29.997499
 20
90.681145
 40
1.000000
 50
0.000000
 51
88.499985
  0
LINE
  8
0
  6
CONTINUOUS
 10
2.239496
 20
90.899529
 11
1.320693
 21
90.569092
  0
ARC
  8
0
  6
CONTINUOUS
 10
1.997522
 20
88.687103
 40
2.000000
 50
109.780319
 51
180.000000
  0
LINE
  8
0
  6
CONTINUOUS
 10
27.484411
 20
8.496994
 11
30.997499
 21
8.405000
  0
LINE
  8
0
  6
CONTINUOUS
 10
3.800682
 20
14.408174
 11
30.997499
 21
13.696000
  0
LINE
  8
0
  6
CONTINUOUS
 10
2.239496
 20
14.701474
 11
1.320693
 21
15.031906
  0
ARC
  8
0
  6
CONTINUOUS
 10
1.997522
 20
16.913900
 40
2.000000
 50
180.000000
 51
250.219681
  0
LINE
  8
0
  6
CONTINUOUS
 10
12.461730
 20
114.305298
 11
11.725930
 21
111.470200
  0
LINE
  8
0
  6
CONTINUOUS
 10
11.725930
 20
111.470200
 11
12.538030
 21
108.995201
  0
LINE
  8
0
  6
CONTINUOUS
 10
12.538030
 20
108.995201
 11
11.609930
 21
106.605301
  0
ARC
  8
0
  6
CONTINUOUS
 10
3.931566
 20
86.194542
 40
5.000000
 50
91.500000
 51
109.780281
  0
ARC
  8
0
  6
CONTINUOUS
 10
3.931566
 20
19.406462
 40
5.000000
 50
250.219727
 51
268.500000
  0
LINE
  8
0
  6
CONTINUOUS
 10
42.997501
 20
89.155403
 11
42.997501
 21
96.155403
  0
LINE
  8
0
  6
CONTINUOUS
 10
43.997501
 20
89.155403
 11
42.018490
 21
89.155403
  0
LINE
  8
0
  6
CONTINUOUS
 10
43.997501
 20
96.155403
 11
42.018490
 21
96.155403
  0
ARC
  8
0
  6
CONTINUOUS
 10
49.397530
 20
92.655403
 40
8.999999
 50
163.398987
 51
196.601517
  0
ARC
  8
0
  6
CONTINUOUS
 10
42.018490
 20
90.455421
 40
1.300000
 50
196.601578
 51
270.000000
  0
ARC
  8
0
  6
CONTINUOUS
 10
42.018490
 20
94.855415
 40
1.300000
 50
90.000000
 51
163.399094
  0
LINE
  8
0
  6
CONTINUOUS
 10
42.997501
 20
9.154590
 11
42.997501
 21
16.154591
  0
LINE
  8
0
  6
CONTINUOUS
 10
43.997501
 20
9.154590
 11
42.018490
 21
9.154590
  0
LINE
  8
0
  6
CONTINUOUS
 10
43.997501
 20
16.154591
 11
42.018490
 21
16.154591
  0
ARC
  8
0
  6
CONTINUOUS
 10
49.397530
 20
12.654590
 40
8.999999
 50
163.398987
 51
196.601517
  0
ARC
  8
0
  6
CONTINUOUS
 10
42.018490
 20
10.454608
 40
1.300000
 50
196.601578
 51
270.000000
  0
ARC
  8
0
  6
CONTINUOUS
 10
42.018490
 20
14.854602
 40
1.300000
 50
90.000000
 51
163.399094
  0
ARC
  8
0
  6
CONTINUOUS
 10
27.497499
 20
8.996823
 40
0.500000
 50
180.000000
 51
268.500000
  0
LINE
  8
0
  6
CONTINUOUS
 10
26.997499
 20
76.003815
 11
-0.002485
 21
75.296799
  0
LINE
  8
0
  6
CONTINUOUS
 10
26.997499
 20
70.056183
 11
-0.002485
 21
70.763199
  0
LINE
  8
0
  6
CONTINUOUS
 10
57.497501
 20
262.656830
 11
57.497501
 21
252.889420
  0
LINE
  8
0
  6
CONTINUOUS
 10
57.997501
 20
212.773132
 11
57.997501
 21
302.773132
  0
LINE
  8
0
  6
CONTINUOUS
 10
30.997499
 20
301.042816
 11
30.997499
 21
280.773132
  0
LINE
  8
0
  6
CONTINUOUS
 10
30.997499
 20
214.503418
 11
30.997499
 21
234.773132
  0
LINE
  8
0
  6
CONTINUOUS
 10
57.997501
 20
286.773132
 11
44.484402
 21
286.419220
  0
LINE
  8
0
  6
CONTINUOUS
 10
44.484402
 20
229.127029
 11
57.997501
 21
228.773132
  0
LINE
  8
0
  6
CONTINUOUS
 10
23.497499
 20
262.656830
 11
23.497499
 21
252.889420
  0
LINE
  8
0
  6
CONTINUOUS
 10
43.997501
 20
229.626923
 11
43.997501
 21
234.773132
  0
ARC
  8
0
  6
CONTINUOUS
 10
44.497501
 20
229.626923
 40
0.500000
 50
180.000000
 51
268.496399
  0
LINE
  8
0
  6
CONTINUOUS
 10
43.997501
 20
285.919312
 11
43.997501
 21
280.773132
  0
ARC
  8
0
  6
CONTINUOUS
 10
44.497501
 20
285.919312
 40
0.500000
 50
91.503601
 51
180.000000
  0
LINE
  8
0
  6
CONTINUOUS
 10
43.997501
 20
230.123123
 11
30.997499
 21
230.463623
  0
LINE
  8
0
  6
CONTINUOUS
 10
43.997501
 20
285.423126
 11
30.997499
 21
285.082642
  0
ARC
  8
0
  6
CONTINUOUS
 10
53.497501
 20
236.790619
 40
2.000000
 50
-90.500061
 51
0.000000
  0
LINE
  8
0
  6
CONTINUOUS
 10
32.962288
 20
213.210159
 11
57.997501
 21
212.773132
  0
LINE
  8
0
  6
CONTINUOUS
 10
31.739100
 20
213.537323
 11
32.962288
 21
213.210159
  0
ARC
  8
0
  6
CONTINUOUS
 10
31.997499
 20
214.503418
 40
1.000000
 50
180.000000
 51
255.023895
  0
LINE
  8
0
  6
CONTINUOUS
 10
32.962299
 20
302.336090
 11
57.997501
 21
302.773132
  0
LINE
  8
0
  6
CONTINUOUS
 10
31.739100
 20
302.008820
 11
32.962299
 21
302.336090
  0
ARC
  8
0
  6
CONTINUOUS
 10
31.997499
 20
301.042816
 40
1.000000
 50
104.976097
 51
180.000000
  0
LINE
  8
0
  6
CONTINUOUS
 10
25.497400
 20
236.773132
 11
25.497400
 21
278.773132
  0
LINE
  8
0
  6
CENTER
 10
40.497501
 20
289.583130
 11
40.497501
 21
226.048126
  0
LINE
  8
0
  6
CONTINUOUS
 10
55.497501
 20
278.773132
 11
55.497501
 21
236.773132
  0
LINE
  8
0
  6
CONTINUOUS
 10
57.497501
 20
262.773132
 11
57.497501
 21
252.773132
  0
LINE
  8
0
  6
CONTINUOUS
 10
23.497499
 20
262.773132
 11
23.497499
 21
252.773132
  0
ARC
  8
0
  6
CONTINUOUS
 10
28.497499
 20
237.773132
 40
3.500000
 50
0.000000
 51
90.000000
  0
LINE
  8
0
  6
CONTINUOUS
 10
26.497400
 20
241.273132
 11
28.497499
 21
241.273132
  0
LINE
  8
0
  6
CONTINUOUS
 10
31.997499
 20
235.773132
 11
31.997499
 21
237.773132
  0
ARC
  8
0
  6
CONTINUOUS
 10
26.497400
 20
242.273132
 40
1.000000
 50
180.000000
 51
270.000000
  0
ARC
  8
0
  6
CONTINUOUS
 10
52.497501
 20
237.773132
 40
3.500000
 50
90.000000
 51
180.000000
  0
LINE
  8
0
  6
CONTINUOUS
 10
48.997501
 20
235.773132
 11
48.997501
 21
237.773132
  0
LINE
  8
0
  6
CONTINUOUS
 10
54.497601
 20
241.273132
 11
52.497501
 21
241.273132
  0
ARC
  8
0
  6
CONTINUOUS
 10
54.497601
 20
242.273132
 40
1.000000
 50
-90.000000
 51
0.000000
  0
LINE
  8
0
  6
CONTINUOUS
 10
53.497501
 20
234.773132
 11
27.497400
 21
234.773132
  0
ARC
  8
0
  6
CONTINUOUS
 10
47.997501
 20
235.773132
 40
1.000000
 50
-90.000000
 51
0.000000
  0
ARC
  8
0
  6
CONTINUOUS
 10
32.997501
 20
235.773132
 40
1.000000
 50
180.000000
 51
270.000000
  0
ARC
  8
0
  6
CONTINUOUS
 10
27.497400
 20
236.773132
 40
2.000000
 50
180.000000
 51
270.000000
  0
ARC
  8
0
  6
CONTINUOUS
 10
53.497501
 20
236.773132
 40
2.000000
 50
-90.000000
 51
0.000000
  0
ARC
  8
0
  6
CONTINUOUS
 10
28.497499
 20
277.773132
 40
3.500000
 50
-90.000000
 51
0.000000
  0
LINE
  8
0
  6
CONTINUOUS
 10
26.497400
 20
274.273132
 11
28.497499
 21
274.273132
  0
LINE
  8
0
  6
CONTINUOUS
 10
31.997499
 20
279.773132
 11
31.997499
 21
277.773132
  0
ARC
  8
0
  6
CONTINUOUS
 10
26.497400
 20
273.273132
 40
1.000000
 50
90.000000
 51
180.000000
  0
ARC
  8
0
  6
CONTINUOUS
 10
52.497501
 20
277.773132
 40
3.500000
 50
180.000000
 51
270.000000
  0
LINE
  8
0
  6
CONTINUOUS
 10
48.997501
 20
279.773132
 11
48.997501
 21
277.773132
  0
LINE
  8
0
  6
CONTINUOUS
 10
54.497601
 20
274.273132
 11
52.497501
 21
274.273132
  0
ARC
  8
0
  6
CONTINUOUS
 10
54.497601
 20
273.273132
 40
1.000000
 50
0.000000
 51
90.000000
  0
LINE
  8
0
  6
CONTINUOUS
 10
53.497501
 20
280.773132
 11
27.497400
 21
280.773132
  0
ARC
  8
0
  6
CONTINUOUS
 10
47.997501
 20
279.773132
 40
1.000000
 50
0.000000
 51
90.000000
  0
ARC
  8
0
  6
CONTINUOUS
 10
32.997501
 20
279.773132
 40
1.000000
 50
90.000000
 51
180.000000
  0
ARC
  8
0
  6
CONTINUOUS
 10
27.497400
 20
278.773132
 40
2.000000
 50
90.000000
 51
180.000000
  0
ARC
  8
0
  6
CONTINUOUS
 10
53.497501
 20
278.773132
 40
2.000000
 50
0.000000
 51
90.000000
  0
LINE
  8
0
  6
CONTINUOUS
 10
24.997499
 20
263.773132
 11
24.497499
 21
263.773132
  0
ARC
  8
0
  6
CONTINUOUS
 10
24.497499
 20
262.773132
 40
1.000000
 50
90.000000
 51
180.000000
  0
ARC
  8
0
  6
CONTINUOUS
 10
24.997499
 20
264.273132
 40
0.500000
 50
-90.000000
 51
0.000000
  0
LINE
  8
0
  6
CONTINUOUS
 10
24.997499
 20
251.773132
 11
24.497499
 21
251.773132
  0
ARC
  8
0
  6
CONTINUOUS
 10
24.497499
 20
252.773132
 40
1.000000
 50
180.000000
 51
270.000000
  0
ARC
  8
0
  6
CONTINUOUS
 10
24.997499
 20
251.273132
 40
0.500000
 50
0.000000
 51
90.000000
  0
LINE
  8
0
  6
CONTINUOUS
 10
55.997501
 20
263.773132
 11
56.497501
 21
263.773132
  0
ARC
  8
0
  6
CONTINUOUS
 10
56.497501
 20
262.773132
 40
1.000000
 50
0.000000
 51
90.000000
  0
ARC
  8
0
  6
CONTINUOUS
 10
55.997501
 20
264.273132
 40
0.500000
 50
180.000000
 51
270.000000
  0
LINE
  8
0
  6
CONTINUOUS
 10
55.997501
 20
251.773132
 11
56.497501
 21
251.773132
  0
ARC
  8
0
  6
CONTINUOUS
 10
56.497501
 20
252.773132
 40
1.000000
 50
-90.000000
 51
0.000000
  0
ARC
  8
0
  6
CONTINUOUS
 10
55.997501
 20
251.273132
 40
0.500000
 50
90.000000
 51
180.000000
  0
LINE
  8
0
  6
CONTINUOUS
 10
30.247499
 20
238.173126
 11
30.247499
 21
237.373108
  0
LINE
  8
0
  6
CONTINUOUS
 10
28.097475
 20
239.523132
 11
28.897493
 21
239.523132
  0
LINE
  8
0
  6
CONTINUOUS
 10
28.097475
 20
236.023132
 11
28.897493
 21
236.023132
  0
LINE
  8
0
  6
CONTINUOUS
 10
26.747499
 20
238.173126
 11
26.747499
 21
237.373108
  0
CIRCLE
  8
0
  6
CONTINUOUS
 10
28.497499
 20
237.773132
 40
2.750000
  0
ARC
  8
0
  6
CONTINUOUS
 10
26.747499
 20
239.523132
 40
1.350000
 50
-90.000000
 51
0.000000
  0
ARC
  8
0
  6
CONTINUOUS
 10
26.747499
 20
236.023132
 40
1.350000
 50
0.000000
 51
90.000000
  0
ARC
  8
0
  6
CONTINUOUS
 10
30.247499
 20
239.523132
 40
1.350000
 50
180.000000
 51
270.000000
  0
ARC
  8
0
  6
CONTINUOUS
 10
30.247499
 20
236.023132
 40
1.350000
 50
90.000000
 51
180.000000
  0
LINE
  8
0
  6
CONTINUOUS
 10
54.247501
 20
238.173126
 11
54.247501
 21
237.373108
  0
LINE
  8
0
  6
CONTINUOUS
 10
52.097477
 20
239.523132
 11
52.897495
 21
239.523132
  0
LINE
  8
0
  6
CONTINUOUS
 10
52.097477
 20
236.023132
 11
52.897495
 21
236.023132
  0
LINE
  8
0
  6
CONTINUOUS
 10
50.747501
 20
238.173126
 11
50.747501
 21
237.373108
  0
CIRCLE
  8
0
  6
CONTINUOUS
 10
52.497501
 20
237.773132
 40
2.750000
  0
ARC
  8
0
  6
CONTINUOUS
 10
50.747501
 20
239.523132
 40
1.350000
 50
-90.000000
 51
0.000000
  0
ARC
  8
0
  6
CONTINUOUS
 10
50.747501
 20
236.023132
 40
1.350000
 50
0.000000
 51
90.000000
  0
ARC
  8
0
  6
CONTINUOUS
 10
54.247501
 20
239.523132
 40
1.350000
 50
180.000000
 51
270.000000
  0
ARC
  8
0
  6
CONTINUOUS
 10
54.247501
 20
236.023132
 40
1.350000
 50
90.000000
 51
180.000000
  0
LINE
  8
0
  6
CONTINUOUS
 10
54.247501
 20
278.173126
 11
54.247501
 21
277.373108
  0
LINE
  8
0
  6
CONTINUOUS
 10
52.097477
 20
279.523132
 11
52.897495
 21
279.523132
  0
LINE
  8
0
  6
CONTINUOUS
 10
52.097477
 20
276.023132
 11
52.897495
 21
276.023132
  0
LINE
  8
0
  6
CONTINUOUS
 10
50.747501
 20
278.173126
 11
50.747501
 21
277.373108
  0
CIRCLE
  8
0
  6
CONTINUOUS
 10
52.497501
 20
277.773132
 40
2.750000
  0
ARC
  8
0
  6
CONTINUOUS
 10
50.747501
 20
279.523132
 40
1.350000
 50
-90.000000
 51
0.000000
  0
ARC
  8
0
  6
CONTINUOUS
 10
50.747501
 20
276.023132
 40
1.350000
 50
0.000000
 51
90.000000
  0
ARC
  8
0
  6
CONTINUOUS
 10
54.247501
 20
279.523132
 40
1.350000
 50
180.000000
 51
270.000000
  0
ARC
  8
0
  6
CONTINUOUS
 10
54.247501
 20
276.023132
 40
1.350000
 50
90.000000
 51
180.000000
  0
LINE
  8
0
  6
CONTINUOUS
 10
30.247499
 20
278.173126
 11
30.247499
 21
277.373108
  0
LINE
  8
0
  6
CONTINUOUS
 10
28.097475
 20
279.523132
 11
28.897493
 21
279.523132
  0
LINE
  8
0
  6
CONTINUOUS
 10
28.097475
 20
276.023132
 11
28.897493
 21
276.023132
  0
LINE
  8
0
  6
CONTINUOUS
 10
26.747499
 20
278.173126
 11
26.747499
 21
277.373108
  0
CIRCLE
  8
0
  6
CONTINUOUS
 10
28.497499
 20
277.773132
 40
2.750000
  0
ARC
  8
0
  6
CONTINUOUS
 10
26.747499
 20
279.523132
 40
1.350000
 50
-90.000000
 51
0.000000
  0
ARC
  8
0
  6
CONTINUOUS
 10
26.747499
 20
276.023132
 40
1.350000
 50
0.000000
 51
90.000000
  0
ARC
  8
0
  6
CONTINUOUS
 10
30.247499
 20
279.523132
 40
1.350000
 50
180.000000
 51
270.000000
  0
ARC
  8
0
  6
CONTINUOUS
 10
30.247499
 20
276.023132
 40
1.350000
 50
90.000000
 51
180.000000
  0
LINE
  8
0
  6
CONTINUOUS
 10
8.348820
 20
253.923126
 11
23.497620
 21
253.923126
  0
LINE
  8
0
  6
CONTINUOUS
 10
9.200620
 20
261.623138
 11
8.464820
 21
258.788025
  0
LINE
  8
0
  6
CONTINUOUS
 10
8.464820
 20
258.788025
 11
9.276920
 21
256.313019
  0
LINE
  8
0
  6
CONTINUOUS
 10
9.276920
 20
256.313019
 11
8.348820
 21
253.923126
  0
LINE
  8
0
  6
CONTINUOUS
 10
9.200620
 20
261.623138
 11
23.497620
 21
261.623138
  0
LINE
  8
0
  6
CONTINUOUS
 10
42.997501
 20
280.773132
 11
42.997501
 21
285.273132
  0
LINE
  8
0
  6
CONTINUOUS
 10
43.997501
 20
285.273132
 11
42.018490
 21
285.273132
  0
ARC
  8
0
  6
CONTINUOUS
 10
49.397530
 20
281.773132
 40
8.999999
 50
163.398987
 51
186.379364
  0
ARC
  8
0
  6
CONTINUOUS
 10
42.018490
 20
283.973145
 40
1.300000
 50
90.000000
 51
163.399094
  0
LINE
  8
0
  6
CONTINUOUS
 10
42.997501
 20
234.773132
 11
42.997501
 21
230.273132
  0
LINE
  8
0
  6
CONTINUOUS
 10
43.997501
 20
230.273132
 11
42.018490
 21
230.273132
  0
ARC
  8
0
  6
CONTINUOUS
 10
49.397530
 20
233.773132
 40
8.999999
 50
173.620636
 51
196.601013
  0
ARC
  8
0
  6
CONTINUOUS
 10
42.018490
 20
231.573120
 40
1.300000
 50
196.600906
 51
270.000000
  0
LINE
  8
0
  6
CONTINUOUS
 10
3.741598
 20
296.309418
 11
30.997499
 21
297.023132
  0
LINE
  8
0
  6
CONTINUOUS
 10
-0.002500
 20
293.848389
 11
-0.002500
 21
221.697845
  0
LINE
  8
0
  6
CONTINUOUS
 10
2.291344
 20
296.054535
 11
1.365044
 21
295.745758
  0
ARC
  8
0
  6
CONTINUOUS
 10
1.997500
 20
293.848389
 40
2.000000
 50
108.434952
 51
180.000000
  0
ARC
  8
0
  6
CONTINUOUS
 10
3.872483
 20
291.311127
 40
5.000000
 50
91.500000
 51
108.434952
  0
LINE
  8
0
  6
CONTINUOUS
 10
27.484411
 20
218.620712
 11
30.997499
 21
218.528732
  0
LINE
  8
0
  6
CONTINUOUS
 10
26.997499
 20
219.120544
 11
26.997499
 21
228.243256
  0
LINE
  8
0
  6
CONTINUOUS
 10
3.741598
 20
219.236847
 11
30.997499
 21
218.523132
  0
LINE
  8
0
  6
CONTINUOUS
 10
2.291344
 20
219.491714
 11
1.365044
 21
219.800476
  0
ARC
  8
0
  6
CONTINUOUS
 10
1.997500
 20
221.697845
 40
2.000000
 50
180.000000
 51
251.565048
  0
ARC
  8
0
  6
CONTINUOUS
 10
3.872483
 20
224.235138
 40
5.000000
 50
251.565048
 51
268.500000
  0
LINE
  8
0
  6
CONTINUOUS
 10
26.997499
 20
219.732727
 11
25.558290
 21
219.732727
  0
LINE
  8
0
  6
CONTINUOUS
 10
26.997499
 20
225.232727
 11
25.558290
 21
225.232727
  0
LINE
  8
0
  6
CONTINUOUS
 10
26.297548
 20
219.732727
 11
26.297548
 21
225.232727
  0
ARC
  8
0
  6
CONTINUOUS
 10
31.297548
 20
222.482727
 40
7.000000
 50
163.043503
 51
196.957993
  0
ARC
  8
0
  6
CONTINUOUS
 10
25.558290
 20
224.232727
 40
1.000000
 50
90.000000
 51
163.043106
  0
ARC
  8
0
  6
CONTINUOUS
 10
25.558290
 20
220.732727
 40
1.000000
 50
196.958099
 51
270.000000
  0
LINE
  8
0
  6
CONTINUOUS
 10
26.997499
 20
228.243256
 11
30.997499
 21
228.243256
  0
LINE
  8
0
  6
CONTINUOUS
 10
0.006752
 20
226.452271
 11
-0.002500
 21
226.452515
  0
ARC
  8
0
  6
CONTINUOUS
 10
27.497499
 20
219.120544
 40
0.500000
 50
180.000000
 51
268.500000
  0
LINE
  8
0
  6
CONTINUOUS
 10
27.484411
 20
296.925537
 11
30.997499
 21
297.017517
  0
LINE
  8
0
  6
CONTINUOUS
 10
26.997499
 20
296.425690
 11
26.997499
 21
287.302979
  0
LINE
  8
0
  6
CONTINUOUS
 10
26.997499
 20
295.813538
 11
25.558290
 21
295.813538
  0
LINE
  8
0
  6
CONTINUOUS
 10
26.997499
 20
290.313538
 11
25.558290
 21
290.313538
  0
LINE
  8
0
  6
CONTINUOUS
 10
26.297548
 20
295.813538
 11
26.297548
 21
290.313538
  0
ARC
  8
0
  6
CONTINUOUS
 10
31.297548
 20
293.063538
 40
7.000000
 50
163.042007
 51
196.956497
  0
ARC
  8
0
  6
CONTINUOUS
 10
25.558290
 20
291.313538
 40
1.000000
 50
196.956894
 51
270.000000
  0
ARC
  8
0
  6
CONTINUOUS
 10
25.558290
 20
294.813538
 40
1.000000
 50
90.000000
 51
163.041901
  0
LINE
  8
0
  6
CONTINUOUS
 10
26.997499
 20
287.302979
 11
30.997499
 21
287.302979
  0
ARC
  8
0
  6
CONTINUOUS
 10
27.497499
 20
296.425690
 40
0.500000
 50
91.500000
 51
180.000000
  0
LINE
  8
0
  6
CONTINUOUS
 10
24.304070
 20
222.180664
 11
-0.002500
 21
222.817154
  0
LINE
  8
0
  6
CONTINUOUS
 10
26.997499
 20
226.091309
 11
-0.002500
 21
225.384277
  0
LINE
  8
0
  6
CONTINUOUS
 10
24.304070
 20
293.365570
 11
-0.002500
 21
292.729095
  0
LINE
  8
0
  6
CONTINUOUS
 10
26.997499
 20
289.454956
 11
-0.002500
 21
290.161987
  0
ARC
  8
0
  6
DASHED
 10
346.679993
 20
116.638702
 40
0.500000
 50
95.173981
 51
180.000000
  0
ARC
  8
0
  6
CONTINUOUS
 10
353.179993
 20
117.141747
 40
0.500000
 50
93.676804
 51
162.961609
  0
ARC
  8
0
  6
DASHED
 10
369.179993
 20
-131.844696
 40
250.000000
 50
94.598679
 51
95.173981
  0
LINE
  8
0
  6
CONTINUOUS
 10
321.179993
 20
106.071121
 11
328.617493
 21
105.092499
  0
LINE
  8
0
  6
CONTINUOUS
 10
328.617493
 20
105.092499
 11
333.617493
 21
101.842499
  0
LINE
  8
0
  6
CONTINUOUS
 10
333.617493
 20
101.842499
 11
334.367493
 21
97.404999
  0
LINE
  8
0
  6
CONTINUOUS
 10
334.367493
 20
97.404999
 11
336.531586
 21
92.427498
  0
LINE
  8
0
  6
CONTINUOUS
 10
336.531586
 20
92.427498
 11
337.992493
 21
91.467499
  0
LINE
  8
0
  6
CONTINUOUS
 10
337.992493
 20
91.467499
 11
337.492493
 21
85.467499
  0
LINE
  8
0
  6
CONTINUOUS
 10
337.492493
 20
85.467499
 11
335.492493
 21
81.967499
  0
LINE
  8
0
  6
CONTINUOUS
 10
335.492493
 20
81.967499
 11
337.367493
 21
76.467499
  0
LINE
  8
0
  6
CONTINUOUS
 10
337.367493
 20
76.467499
 11
336.742493
 21
70.717499
  0
LINE
  8
0
  6
CONTINUOUS
 10
336.742493
 20
70.717499
 11
336.117493
 21
64.467499
  0
LINE
  8
0
  6
CONTINUOUS
 10
336.117493
 20
64.467499
 11
337.242493
 21
59.842499
  0
LINE
  8
0
  6
CONTINUOUS
 10
337.242493
 20
59.842499
 11
336.117493
 21
55.592499
  0
LINE
  8
0
  6
CONTINUOUS
 10
336.117493
 20
55.592499
 11
332.867493
 21
50.717499
  0
LINE
  8
0
  6
CONTINUOUS
 10
332.867493
 20
50.717499
 11
328.367493
 21
48.717499
  0
LINE
  8
0
  6
CONTINUOUS
 10
328.367493
 20
48.717499
 11
324.117493
 21
46.092499
  0
LINE
  8
0
  6
CONTINUOUS
 10
324.117493
 20
46.092499
 11
321.179993
 21
45.695541
  0
TEXT
  8
0
 10
-12.000000
 20
-5.000000
 40
4.000000
 41
1.000000
  1
HFV-18T-10~240-T90
 50
0.000000
  0
ENDSEC
  0
EOF
