  0
SECTION
  2
HEADER
  9
$CLAYER
  8
1
  9
$LTSCALE
 40
3.0
  0
ENDSEC
  0
SECTION
  2
TABLES
  0
TABLE
  2
LTYPE
 70
     4
  0
LTYPE
  2
CONTINUOUS
  3
solid line
 70
    64
 72
    65
 73
     0
 40
0.0
  0
LTYPE
  2
DASHED
  3
__ __ __ __ __ __ __ __ __ __ __ __ __ __ __
 70
    64
 72
    65
 73
     2
 40
0.75
 49
0.5
 49
-0.25
  0
LTYPE
  2
CENTER
  3
____ _ ____ _ ____ _ ____ _ ____ _ ____ _ ____
 70
    64
 72
    65
 73
     4
 40
2.0
 49
1.25
 49
-0.25
 49
0.25
 49
-0.25
  0
LTYPE
  2
PHANTOM
  3
_____ _ _ _____ _ _ _____ _ _ _____ _ _ ____
 70
    64
 72
    65
 73
     6
 40
2.5
 49
1.25
 49
-0.25
 49
0.25
 49
-0.25
 49
0.25
 49
-0.25
  0
ENDTAB
  0
TABLE
  2
LAYER
 70
     1
  0
LAYER
  2
0
 70
    64
 62
     7
  6
CONTINUOUS
  0
ENDTAB
  0
TABLE
  2
STYLE
 70
     1
  0
STYLE
  2
STANDARD
 70
     0
 40
0.000000
 41
1.000000
 50
0.000000
 71
     0
 42
3.000000
  3
txt
  4
BIGFONT
  0
ENDTAB
  0
ENDSEC
  0
SECTION
  2
BLOCKS
  0
ENDSEC
  0
SECTION
  2
ENTITIES
  0
LINE
  8
0
  6
CENTER
 10
360.292511
 20
51.889065
 11
239.764999
 21
51.889065
  0
LINE
  8
0
  6
CONTINUOUS
 10
328.489990
 20
89.889061
 11
255.570007
 21
89.889061
  0
LINE
  8
0
  6
CONTINUOUS
 10
257.989990
 20
13.889063
 11
328.489990
 21
13.889063
  0
LINE
  8
0
  6
CONTINUOUS
 10
245.490005
 20
10.189063
 11
181.490005
 21
10.189063
  0
LINE
  8
0
  6
CONTINUOUS
 10
245.490005
 20
112.189064
 11
181.490005
 21
112.189064
  0
LINE
  8
0
  6
CONTINUOUS
 10
255.990005
 20
86.889061
 11
255.990005
 21
21.889072
  0
LINE
  8
0
  6
CENTER
 10
213.490005
 20
124.576561
 11
213.490005
 21
0.951563
  0
LINE
  8
0
  6
CENTER
 10
181.490005
 20
24.326563
 11
181.490005
 21
12.826563
  0
LINE
  8
0
  6
CENTER
 10
187.333694
 20
18.189062
 11
175.083694
 21
18.189062
  0
CIRCLE
  8
0
  6
CONTINUOUS
 10
181.490005
 20
18.189062
 40
3.250000
  0
LINE
  8
0
  6
CENTER
 10
181.490005
 20
98.051559
 11
181.490005
 21
109.551559
  0
CIRCLE
  8
0
  6
CONTINUOUS
 10
181.490005
 20
104.189064
 40
3.250000
  0
LINE
  8
0
  6
CENTER
 10
245.490005
 20
98.051559
 11
245.490005
 21
109.551559
  0
LINE
  8
0
  6
CENTER
 10
239.646301
 20
104.189064
 11
251.896301
 21
104.189064
  0
CIRCLE
  8
0
  6
CONTINUOUS
 10
245.490005
 20
104.189064
 40
3.250000
  0
LINE
  8
0
  6
CENTER
 10
245.490005
 20
24.326563
 11
245.490005
 21
12.826563
  0
LINE
  8
0
  6
CENTER
 10
239.646301
 20
18.189062
 11
251.896301
 21
18.189062
  0
CIRCLE
  8
0
  6
CONTINUOUS
 10
245.490005
 20
18.189062
 40
3.250000
  0
LINE
  8
0
  6
CONTINUOUS
 10
170.990005
 20
86.889061
 11
170.990005
 21
35.489075
  0
LINE
  8
0
  6
CONTINUOUS
 10
173.567307
 20
105.298225
 11
170.990005
 21
86.889061
  0
LINE
  8
0
  6
CONTINUOUS
 10
173.567307
 20
17.079943
 11
170.990005
 21
35.489075
  0
LINE
  8
0
  6
CONTINUOUS
 10
253.412704
 20
17.079863
 11
254.574097
 21
25.375362
  0
LINE
  8
0
  6
CONTINUOUS
 10
253.412704
 20
105.298210
 11
255.990005
 21
86.889061
  0
LINE
  8
0
  6
CENTER
 10
247.639999
 20
74.189064
 11
179.873749
 21
74.189064
  0
LINE
  8
0
  6
CONTINUOUS
 10
203.990005
 20
76.689064
 11
203.990005
 21
71.689064
  0
LINE
  8
0
  6
CONTINUOUS
 10
208.990005
 20
71.689064
 11
208.990005
 21
76.689064
  0
LINE
  8
0
  6
CONTINUOUS
 10
208.990005
 20
76.689064
 11
203.990005
 21
76.689064
  0
LINE
  8
0
  6
CONTINUOUS
 10
208.990005
 20
71.689064
 11
203.990005
 21
71.689064
  0
ARC
  8
0
  6
CONTINUOUS
 10
213.490005
 20
74.189064
 40
7.500000
 50
-160.528793
 51
160.528793
  0
ARC
  8
0
  6
CONTINUOUS
 10
181.490005
 20
104.189064
 40
8.000000
 50
90.000000
 51
172.030304
  0
ARC
  8
0
  6
CONTINUOUS
 10
245.490005
 20
104.189064
 40
8.000000
 50
7.969498
 51
90.000000
  0
ARC
  8
0
  6
CONTINUOUS
 10
245.490005
 20
18.189062
 40
8.000000
 50
-90.000000
 51
-7.969604
  0
ARC
  8
0
  6
CONTINUOUS
 10
181.490005
 20
18.189062
 40
8.000000
 50
-172.030304
 51
-90.000000
  0
LINE
  8
0
  6
CONTINUOUS
 10
255.990005
 20
15.889063
 11
255.990005
 21
21.889072
  0
ARC
  8
0
  6
CONTINUOUS
 10
257.989990
 20
15.889063
 40
2.000000
 50
180.000000
 51
270.000000
  0
ARC
  8
0
  6
CONTINUOUS
 10
250.990005
 20
21.889084
 40
5.000000
 50
0.000000
 51
90.000000
  0
LINE
  8
0
  6
CONTINUOUS
 10
328.489990
 20
82.138031
 11
256.739990
 21
82.138031
  0
LINE
  8
0
  6
CONTINUOUS
 10
328.489990
 20
21.640102
 11
256.489990
 21
21.640102
  0
LINE
  8
0
  6
CONTINUOUS
 10
200.069504
 20
106.189064
 11
226.910507
 21
106.189064
  0
LINE
  8
0
  6
CONTINUOUS
 10
226.910507
 20
16.189062
 11
200.069504
 21
16.189062
  0
LINE
  8
0
  6
CONTINUOUS
 10
229.782806
 20
105.281723
 11
255.990005
 21
86.889061
  0
LINE
  8
0
  6
CONTINUOUS
 10
197.197205
 20
105.281723
 11
170.990005
 21
86.889061
  0
LINE
  8
0
  6
CONTINUOUS
 10
197.197205
 20
17.096403
 11
170.990005
 21
35.489075
  0
LINE
  8
0
  6
CONTINUOUS
 10
242.443298
 20
25.981724
 11
229.782806
 21
17.096403
  0
LINE
  8
0
  6
CONTINUOUS
 10
245.315598
 20
26.889063
 11
250.990005
 21
26.889063
  0
ARC
  8
0
  6
CONTINUOUS
 10
226.910599
 20
101.189064
 40
5.000000
 50
54.938221
 51
90.000000
  0
ARC
  8
0
  6
CONTINUOUS
 10
200.069504
 20
101.189072
 40
5.000000
 50
90.000000
 51
125.062103
  0
ARC
  8
0
  6
CONTINUOUS
 10
200.069504
 20
21.189062
 40
5.000000
 50
234.938095
 51
270.000000
  0
ARC
  8
0
  6
CONTINUOUS
 10
226.910507
 20
21.189062
 40
5.000000
 50
270.000000
 51
305.061890
  0
ARC
  8
0
  6
CONTINUOUS
 10
245.315598
 20
21.889072
 40
5.000000
 50
90.000000
 51
125.062103
  0
CIRCLE
  8
0
  6
CONTINUOUS
 10
213.490005
 20
74.189064
 40
20.000000
  0
LINE
  8
0
  6
CENTER
 10
176.177505
 20
104.189064
 11
186.865005
 21
104.189064
  0
LINE
  8
0
  6
CONTINUOUS
 10
205.123795
 20
38.189064
 11
201.658203
 21
38.189064
  0
LINE
  8
0
  6
CONTINUOUS
 10
207.036697
 20
43.994022
 11
207.036697
 21
38.189064
  0
LINE
  8
0
  6
CONTINUOUS
 10
210.368698
 20
46.102558
 11
210.368698
 21
48.185047
  0
LINE
  8
0
  6
CONTINUOUS
 10
217.032700
 20
46.102558
 11
217.032700
 21
48.185047
  0
LINE
  8
0
  6
CONTINUOUS
 10
213.049896
 20
46.961582
 11
213.049896
 21
39.282372
  0
LINE
  8
0
  6
CONTINUOUS
 10
214.299393
 20
46.961582
 11
214.299393
 21
39.282372
  0
LINE
  8
0
  6
CONTINUOUS
 10
220.859299
 20
46.961582
 11
220.859299
 21
39.230305
  0
LINE
  8
0
  6
CONTINUOUS
 10
222.004700
 20
42.861671
 11
222.004700
 21
39.230305
  0
LINE
  8
0
  6
CONTINUOUS
 10
205.455597
 20
46.857456
 11
202.244507
 21
46.857456
  0
LINE
  8
0
  6
CONTINUOUS
 10
202.741592
 20
39.360462
 11
202.256500
 21
39.360462
  0
LINE
  8
0
  6
CONTINUOUS
 10
202.244507
 20
46.857456
 11
201.492096
 21
45.924503
  0
LINE
  8
0
  6
CONTINUOUS
 10
201.582596
 20
48.185047
 11
200.372696
 21
46.635883
  0
LINE
  8
0
  6
CONTINUOUS
 10
201.492096
 20
40.165684
 11
202.256500
 21
39.360462
  0
LINE
  8
0
  6
CONTINUOUS
 10
200.372696
 20
39.486164
 11
201.658203
 21
38.189064
  0
LINE
  8
0
  6
CONTINUOUS
 10
200.372696
 20
46.635883
 11
200.372696
 21
39.486164
  0
LINE
  8
0
  6
CONTINUOUS
 10
201.492096
 20
45.924503
 11
201.492096
 21
40.165684
  0
LINE
  8
0
  6
CONTINUOUS
 10
206.073593
 20
46.260120
 11
205.442993
 21
46.857456
  0
LINE
  8
0
  6
CONTINUOUS
 10
206.063599
 20
48.185047
 11
207.036697
 21
47.105080
  0
LINE
  8
0
  6
CONTINUOUS
 10
206.073593
 20
46.102558
 11
207.036697
 21
46.102558
  0
LINE
  8
0
  6
CONTINUOUS
 10
201.582596
 20
48.185047
 11
206.063599
 21
48.185047
  0
LINE
  8
0
  6
CONTINUOUS
 10
204.329498
 20
43.994022
 11
207.036697
 21
43.994022
  0
LINE
  8
0
  6
CONTINUOUS
 10
206.073593
 20
42.900719
 11
204.329498
 21
42.900719
  0
LINE
  8
0
  6
CONTINUOUS
 10
203.574600
 20
39.360462
 11
202.741592
 21
39.360462
  0
LINE
  8
0
  6
CONTINUOUS
 10
206.073593
 20
41.859474
 11
206.073593
 21
42.692467
  0
LINE
  8
0
  6
CONTINUOUS
 10
203.991104
 20
39.360462
 11
203.574600
 21
39.360462
  0
LINE
  8
0
  6
CONTINUOUS
 10
206.073593
 20
41.442974
 11
206.073593
 21
41.859474
  0
LINE
  8
0
  6
CONTINUOUS
 10
206.073593
 20
41.387653
 11
206.073593
 21
41.442974
  0
ARC
  8
0
  6
CONTINUOUS
 10
203.991104
 20
41.442974
 40
2.082500
 50
-89.999786
 51
0.000109
  0
LINE
  8
0
  6
CONTINUOUS
 10
206.073593
 20
38.985893
 11
206.073593
 21
38.189064
  0
LINE
  8
0
  6
CONTINUOUS
 10
207.036697
 20
47.105080
 11
207.036697
 21
46.102558
  0
LINE
  8
0
  6
CONTINUOUS
 10
206.073593
 20
42.900719
 11
206.073593
 21
41.442974
  0
LINE
  8
0
  6
CONTINUOUS
 10
204.329498
 20
43.994022
 11
204.329498
 21
42.900719
  0
LINE
  8
0
  6
CONTINUOUS
 10
206.073593
 20
42.692467
 11
206.073593
 21
42.900719
  0
LINE
  8
0
  6
CONTINUOUS
 10
206.073593
 20
38.189064
 11
207.036697
 21
38.189064
  0
LINE
  8
0
  6
CONTINUOUS
 10
206.073593
 20
38.985893
 11
205.123795
 21
38.189064
  0
LINE
  8
0
  6
CONTINUOUS
 10
214.299393
 20
39.282372
 11
214.715897
 21
39.282372
  0
LINE
  8
0
  6
CONTINUOUS
 10
212.555298
 20
39.282372
 11
212.555298
 21
38.189064
  0
LINE
  8
0
  6
CONTINUOUS
 10
214.715897
 20
39.282372
 11
214.715897
 21
38.189064
  0
LINE
  8
0
  6
CONTINUOUS
 10
216.337601
 20
46.102558
 11
217.032700
 21
46.102558
  0
LINE
  8
0
  6
CONTINUOUS
 10
210.368698
 20
46.102558
 11
211.108398
 21
46.102558
  0
LINE
  8
0
  6
CONTINUOUS
 10
210.368698
 20
48.185047
 11
217.032700
 21
48.185047
  0
LINE
  8
0
  6
CONTINUOUS
 10
212.555298
 20
38.189064
 11
214.715897
 21
38.189064
  0
LINE
  8
0
  6
CONTINUOUS
 10
212.555298
 20
39.282372
 11
213.049896
 21
39.282372
  0
ARC
  8
0
  6
CONTINUOUS
 10
224.360504
 20
45.516853
 40
2.668203
 50
-73.981873
 51
90.003510
  0
ARC
  8
0
  6
CONTINUOUS
 10
224.360504
 20
45.516853
 40
1.627786
 50
-82.585274
 51
62.411850
  0
LINE
  8
0
  6
CONTINUOUS
 10
220.364700
 20
48.185047
 11
224.360504
 21
48.185047
  0
LINE
  8
0
  6
CONTINUOUS
 10
224.570602
 20
43.902672
 11
222.004700
 21
43.902672
  0
LINE
  8
0
  6
CONTINUOUS
 10
220.364700
 20
48.185047
 11
220.364700
 21
46.961582
  0
LINE
  8
0
  6
CONTINUOUS
 10
222.004700
 20
46.961582
 11
222.004700
 21
43.902672
  0
LINE
  8
0
  6
CONTINUOUS
 10
225.096802
 20
42.952248
 11
226.748199
 21
39.230305
  0
LINE
  8
0
  6
CONTINUOUS
 10
224.137604
 20
42.861671
 11
225.700500
 21
39.230305
  0
LINE
  8
0
  6
CONTINUOUS
 10
220.364700
 20
39.230305
 11
220.859299
 21
39.230305
  0
LINE
  8
0
  6
CONTINUOUS
 10
222.004700
 20
39.230305
 11
222.460205
 21
39.230305
  0
LINE
  8
0
  6
CONTINUOUS
 10
222.460205
 20
38.189064
 11
220.364700
 21
38.189064
  0
LINE
  8
0
  6
CONTINUOUS
 10
225.492905
 20
39.230305
 11
225.700500
 21
39.230305
  0
LINE
  8
0
  6
CONTINUOUS
 10
226.748199
 20
39.230305
 11
227.028702
 21
39.230305
  0
LINE
  8
0
  6
CONTINUOUS
 10
225.492905
 20
38.189064
 11
227.028702
 21
38.189064
  0
LINE
  8
0
  6
CONTINUOUS
 10
227.028702
 20
39.230305
 11
227.028702
 21
38.189064
  0
LINE
  8
0
  6
CONTINUOUS
 10
225.492905
 20
39.230305
 11
225.492905
 21
38.189064
  0
LINE
  8
0
  6
CONTINUOUS
 10
222.460205
 20
39.230305
 11
222.460205
 21
38.189064
  0
LINE
  8
0
  6
CONTINUOUS
 10
220.364700
 20
39.230305
 11
220.364700
 21
38.189064
  0
LINE
  8
0
  6
CONTINUOUS
 10
211.466400
 20
46.961582
 11
211.108398
 21
46.102558
  0
LINE
  8
0
  6
CONTINUOUS
 10
216.035797
 20
46.961582
 11
216.337601
 21
46.102558
  0
LINE
  8
0
  6
CONTINUOUS
 10
214.299393
 20
46.961582
 11
216.035797
 21
46.961582
  0
LINE
  8
0
  6
CONTINUOUS
 10
213.049896
 20
46.961582
 11
211.466400
 21
46.961582
  0
LINE
  8
0
  6
CONTINUOUS
 10
222.004700
 20
42.861671
 11
224.137604
 21
42.861671
  0
LINE
  8
0
  6
CONTINUOUS
 10
220.364700
 20
46.961582
 11
220.859299
 21
46.961582
  0
LINE
  8
0
  6
CONTINUOUS
 10
222.004700
 20
46.961582
 11
225.114395
 21
46.959572
  0
LINE
  8
0
  6
CONTINUOUS
 10
206.073593
 20
46.260120
 11
206.073593
 21
46.102558
  0
LINE
  8
0
  6
CENTER
 10
213.490005
 20
159.802505
 11
213.490005
 21
280.097504
  0
LINE
  8
0
  6
CENTER
 10
382.864380
 20
228.302505
 11
164.990005
 21
228.302505
  0
LINE
  8
0
  6
CONTINUOUS
 10
174.797516
 20
197.302505
 11
254.041687
 21
197.302505
  0
LINE
  8
0
  6
CONTINUOUS
 10
258.121613
 20
190.302505
 11
328.489990
 21
190.302505
  0
LINE
  8
0
  6
CONTINUOUS
 10
328.489990
 20
205.302505
 11
252.570312
 21
205.302505
  0
LINE
  8
0
  6
CONTINUOUS
 10
255.199142
 20
259.302490
 11
172.199829
 21
259.302490
  0
LINE
  8
0
  6
CONTINUOUS
 10
257.503601
 20
266.302490
 11
328.489990
 21
266.302490
  0
LINE
  8
0
  6
CONTINUOUS
 10
328.489990
 20
251.302505
 11
256.435150
 21
251.302505
  0
LINE
  8
0
  6
CONTINUOUS
 10
233.490005
 20
194.302505
 11
233.490005
 21
197.302505
  0
LINE
  8
0
  6
CONTINUOUS
 10
193.490005
 20
194.302505
 11
193.490005
 21
197.302505
  0
LINE
  8
0
  6
CONTINUOUS
 10
194.490005
 20
193.302505
 11
232.490005
 21
193.302505
  0
ARC
  8
0
  6
CONTINUOUS
 10
232.490005
 20
194.302505
 40
1.000000
 50
-90.000000
 51
0.000000
  0
ARC
  8
0
  6
CONTINUOUS
 10
194.489990
 20
194.302505
 40
1.000000
 50
180.000000
 51
270.000000
  0
LINE
  8
0
  6
CONTINUOUS
 10
220.990005
 20
164.302505
 11
220.990005
 21
191.302505
  0
LINE
  8
0
  6
CONTINUOUS
 10
220.990005
 20
164.302505
 11
203.990005
 21
164.302505
  0
LINE
  8
0
  6
CONTINUOUS
 10
221.990005
 20
191.302505
 11
204.990005
 21
191.302505
  0
LINE
  8
0
  6
CONTINUOUS
 10
221.990005
 20
191.302505
 11
221.990005
 21
193.302505
  0
LINE
  8
0
  6
CONTINUOUS
 10
204.990005
 20
191.302505
 11
204.990005
 21
193.302505
  0
LINE
  8
0
  6
CONTINUOUS
 10
203.990005
 20
185.802505
 11
203.990005
 21
164.302505
  0
LINE
  8
0
  6
CONTINUOUS
 10
206.419006
 20
185.802505
 11
206.419006
 21
164.302505
  0
LINE
  8
0
  6
CONTINUOUS
 10
206.419006
 20
185.802505
 11
203.990005
 21
185.802505
  0
LINE
  8
0
  6
CONTINUOUS
 10
205.990005
 20
185.802505
 11
205.990005
 21
191.302505
  0
LINE
  8
0
  6
CONTINUOUS
 10
198.490005
 20
258.302490
 11
198.490005
 21
199.267593
  0
LINE
  8
0
  6
CONTINUOUS
 10
228.490005
 20
258.302490
 11
228.490005
 21
199.267593
  0
LINE
  8
0
  6
CONTINUOUS
 10
256.199402
 20
205.299759
 11
256.041016
 21
199.250153
  0
LINE
  8
0
  6
CONTINUOUS
 10
251.715393
 20
258.121246
 11
251.715393
 21
207.302231
  0
LINE
  8
0
  6
CONTINUOUS
 10
255.990005
 20
268.302490
 11
170.990005
 21
268.302490
  0
LINE
  8
0
  6
CONTINUOUS
 10
172.798203
 20
199.250153
 11
170.990005
 21
268.302490
  0
ARC
  8
0
  6
CONTINUOUS
 10
174.797516
 20
199.302505
 40
2.000000
 50
181.500000
 51
270.000000
  0
LINE
  8
0
  6
CONTINUOUS
 10
257.037445
 20
228.302505
 11
255.990005
 21
268.302490
  0
LINE
  8
0
  6
CONTINUOUS
 10
173.567307
 20
268.302490
 11
173.567307
 21
260.612823
  0
LINE
  8
0
  6
CONTINUOUS
 10
253.412704
 20
268.302490
 11
253.412704
 21
260.612823
  0
ARC
  8
0
  6
CONTINUOUS
 10
229.490005
 20
258.302490
 40
1.000000
 50
90.000000
 51
180.000000
  0
ARC
  8
0
  6
CONTINUOUS
 10
197.490005
 20
258.302490
 40
1.000000
 50
0.000000
 51
90.000000
  0
LINE
  8
0
  6
CONTINUOUS
 10
228.490005
 20
257.982513
 11
198.490005
 21
257.982513
  0
ARC
  8
0
  6
CONTINUOUS
 10
172.199829
 20
260.302490
 40
1.000000
 50
181.500000
 51
270.000000
  0
LINE
  8
0
  6
CONTINUOUS
 10
256.122314
 20
192.250153
 11
256.041016
 21
195.354858
  0
ARC
  8
0
  6
CONTINUOUS
 10
255.199142
 20
260.302490
 40
1.000000
 50
-90.000000
 51
1.499999
  0
ARC
  8
0
  6
CONTINUOUS
 10
257.503601
 20
267.802490
 40
1.500000
 50
181.500000
 51
270.000000
  0
ARC
  8
0
  6
CONTINUOUS
 10
258.121613
 20
192.302505
 40
2.000000
 50
181.500000
 51
270.000000
  0
ARC
  8
0
  6
CONTINUOUS
 10
254.041687
 20
195.302505
 40
2.000000
 50
1.500000
 51
90.000000
  0
ARC
  8
0
  6
CONTINUOUS
 10
254.041687
 20
199.302505
 40
2.000000
 50
270.000000
 51
358.500000
  0
LINE
  8
0
  6
CENTER
 10
181.490005
 20
272.192657
 11
181.490005
 21
255.051880
  0
LINE
  8
0
  6
DASHED
 10
178.240005
 20
259.302490
 11
178.240005
 21
268.302490
  0
LINE
  8
0
  6
DASHED
 10
184.740005
 20
259.302490
 11
184.740005
 21
268.302490
  0
LINE
  8
0
  6
CENTER
 10
245.490005
 20
272.192657
 11
245.490005
 21
255.051880
  0
LINE
  8
0
  6
DASHED
 10
248.740005
 20
259.302490
 11
248.740005
 21
268.302490
  0
LINE
  8
0
  6
DASHED
 10
242.240005
 20
259.302490
 11
242.240005
 21
268.302490
  0
LINE
  8
0
  6
CENTER
 10
49.431664
 20
2.201565
 11
49.431664
 21
116.701561
  0
LINE
  8
0
  6
CONTINUOUS
 10
80.431664
 20
18.136993
 11
80.431664
 21
104.223663
  0
LINE
  8
0
  6
CONTINUOUS
 10
84.431664
 20
55.189060
 11
84.431664
 21
93.189064
  0
LINE
  8
0
  6
CENTER
 10
-0.108125
 20
74.189064
 11
117.337502
 21
74.189064
  0
LINE
  8
0
  6
CONTINUOUS
 10
83.431664
 20
94.189064
 11
82.431664
 21
94.189064
  0
LINE
  8
0
  6
CONTINUOUS
 10
83.431664
 20
54.189060
 11
82.431664
 21
54.189060
  0
LINE
  8
0
  6
CONTINUOUS
 10
78.466560
 20
106.223366
 11
20.396765
 21
107.236740
  0
LINE
  8
0
  6
CONTINUOUS
 10
78.466560
 20
16.137295
 11
20.396765
 21
15.123474
  0
ARC
  8
0
  6
CONTINUOUS
 10
78.431664
 20
104.223656
 40
2.000000
 50
0.000000
 51
89.000359
  0
ARC
  8
0
  6
CONTINUOUS
 10
78.431664
 20
18.136984
 40
2.000000
 50
-88.999634
 51
0.000000
  0
ARC
  8
0
  6
CONTINUOUS
 10
83.431664
 20
93.189064
 40
1.000000
 50
0.000000
 51
90.000000
  0
ARC
  8
0
  6
CONTINUOUS
 10
83.431664
 20
55.189060
 40
1.000000
 50
-90.000000
 51
0.000000
  0
LINE
  8
0
  6
CONTINUOUS
 10
18.431664
 20
32.489082
 11
18.431664
 21
11.689064
  0
LINE
  8
0
  6
CONTINUOUS
 10
9.431664
 20
112.189064
 11
17.280664
 21
112.189064
  0
LINE
  8
0
  6
CONTINUOUS
 10
16.896963
 20
10.189064
 11
9.431664
 21
10.189064
  0
LINE
  8
0
  6
CONTINUOUS
 10
21.932665
 20
86.889061
 11
78.462959
 21
86.889061
  0
LINE
  8
0
  6
CONTINUOUS
 10
21.431664
 20
35.489063
 11
78.994164
 21
35.489063
  0
ARC
  8
0
  6
CONTINUOUS
 10
16.931664
 20
11.689064
 40
1.500000
 50
-90.000000
 51
0.000000
  0
LINE
  8
0
  6
CONTINUOUS
 10
18.729565
 20
111.077286
 11
19.169365
 21
109.435921
  0
ARC
  8
0
  6
CONTINUOUS
 10
22.064764
 20
110.208099
 40
3.000000
 50
194.932602
 51
269.000610
  0
ARC
  8
0
  6
CONTINUOUS
 10
17.280664
 20
110.689064
 40
1.500000
 50
15.000070
 51
90.000000
  0
ARC
  8
0
  6
CONTINUOUS
 10
21.431664
 20
32.489082
 40
3.000000
 50
90.000000
 51
180.000000
  0
ARC
  8
0
  6
CONTINUOUS
 10
82.431664
 20
96.189064
 40
2.000000
 50
180.000000
 51
270.000000
  0
ARC
  8
0
  6
CONTINUOUS
 10
82.431664
 20
52.189072
 40
2.000000
 50
90.000000
 51
180.000000
  0
LINE
  8
0
  6
CONTINUOUS
 10
86.431664
 20
81.689064
 11
113.431664
 21
81.689064
  0
LINE
  8
0
  6
CONTINUOUS
 10
86.431664
 20
66.689064
 11
113.431664
 21
66.689064
  0
LINE
  8
0
  6
CONTINUOUS
 10
113.431664
 20
66.689064
 11
113.431664
 21
81.689064
  0
LINE
  8
0
  6
CONTINUOUS
 10
91.931664
 20
71.689064
 11
113.431664
 21
71.689064
  0
LINE
  8
0
  6
CONTINUOUS
 10
91.931664
 20
76.689064
 11
113.431664
 21
76.689064
  0
ARC
  8
0
  6
CONTINUOUS
 10
91.931664
 20
74.189072
 40
2.500000
 50
90.000000
 51
180.000000
  0
ARC
  8
0
  6
CONTINUOUS
 10
91.931664
 20
74.189064
 40
2.500000
 50
180.000000
 51
270.000000
  0
LINE
  8
0
  6
CENTER
 10
5.712965
 20
104.189064
 11
21.962963
 21
104.189064
  0
LINE
  8
0
  6
CENTER
 10
6.712965
 20
18.189064
 11
21.712963
 21
18.189064
  0
LINE
  8
0
  6
DASHED
 10
9.431664
 20
21.439064
 11
18.431664
 21
21.439064
  0
LINE
  8
0
  6
DASHED
 10
9.431664
 20
14.939064
 11
18.431664
 21
14.939064
  0
LINE
  8
0
  6
DASHED
 10
9.431664
 20
107.439064
 11
18.431664
 21
107.439064
  0
LINE
  8
0
  6
DASHED
 10
9.431664
 20
100.939064
 11
18.431664
 21
100.939064
  0
LINE
  8
0
  6
CONTINUOUS
 10
28.431664
 20
13.889064
 11
70.431664
 21
13.889064
  0
ARC
  8
0
  6
CONTINUOUS
 10
70.431664
 20
15.889064
 40
2.000000
 50
-90.000000
 51
0.000000
  0
ARC
  8
0
  6
CONTINUOUS
 10
28.431664
 20
15.889064
 40
2.000000
 50
199.216690
 51
270.000000
  0
LINE
  8
0
  6
CONTINUOUS
 10
72.431664
 20
15.889064
 11
72.431664
 21
16.031933
  0
LINE
  8
0
  6
CONTINUOUS
 10
9.431664
 20
10.189064
 11
9.431664
 21
112.189064
  0
LINE
  8
0
  6
CONTINUOUS
 10
86.431664
 20
82.689064
 11
86.431664
 21
65.689064
  0
LINE
  8
0
  6
CENTER
 10
3.045965
 20
51.889065
 11
91.169159
 21
51.889065
  0
LINE
  8
0
  6
CONTINUOUS
 10
18.431664
 20
111.650940
 11
18.431664
 21
32.489082
  0
LINE
  8
0
  6
CONTINUOUS
 10
84.431664
 20
82.689064
 11
86.431664
 21
82.689064
  0
LINE
  8
0
  6
CONTINUOUS
 10
84.431664
 20
65.689064
 11
86.431664
 21
65.689064
  0
ARC
  8
0
  6
CONTINUOUS
 10
20.431664
 20
109.236443
 40
2.000000
 50
180.000000
 51
269.000610
  0
ARC
  8
0
  6
CONTINUOUS
 10
20.431664
 20
13.123794
 40
2.000000
 50
91.000641
 51
180.000000
  0
LINE
  8
0
  6
CONTINUOUS
 10
18.828863
 20
11.671424
 11
19.165665
 21
12.928554
  0
ARC
  8
0
  6
CONTINUOUS
 10
16.896963
 20
12.189064
 40
2.000000
 50
270.000000
 51
345.000092
  0
ARC
  8
0
  6
CONTINUOUS
 10
22.063463
 20
12.152134
 40
3.000000
 50
91.000488
 51
165.000397
  0
LINE
  8
0
  6
DASHED
 10
70.466560
 20
89.521904
 11
49.431664
 21
89.889053
  0
ARC
  8
0
  6
DASHED
 10
70.431664
 20
87.522194
 40
2.000000
 50
0.000000
 51
89.000137
  0
LINE
  8
0
  6
DASHED
 10
26.431664
 20
87.522194
 11
26.431664
 21
83.590797
  0
LINE
  8
0
  6
DASHED
 10
28.396763
 20
89.521904
 11
49.431664
 21
89.889053
  0
ARC
  8
0
  6
DASHED
 10
28.431664
 20
87.522194
 40
2.000000
 50
90.999863
 51
180.000000
  0
LINE
  8
0
  6
DASHED
 10
26.431664
 20
15.889064
 11
26.431664
 21
20.187328
  0
ARC
  8
0
  6
DASHED
 10
28.431664
 20
15.889064
 40
2.000000
 50
180.000000
 51
199.216690
  0
ARC
  8
0
  6
DASHED
 10
49.431664
 20
51.889065
 40
38.000000
 50
129.356705
 51
230.643295
  0
ARC
  8
0
  6
CONTINUOUS
 10
49.431664
 20
51.889065
 40
38.000000
 50
-35.334499
 51
21.294262
  0
LINE
  8
0
  6
DASHED
 10
72.431664
 20
16.031933
 11
72.431664
 21
20.187328
  0
ARC
  8
0
  6
DASHED
 10
49.431664
 20
51.889065
 40
38.000000
 50
-50.643299
 51
-35.334499
  0
ARC
  8
0
  6
DASHED
 10
49.431664
 20
51.889065
 40
38.000000
 50
21.294262
 51
50.643299
  0
LINE
  8
0
  6
DASHED
 10
72.431664
 20
87.522194
 11
72.431664
 21
83.590797
  0
ARC
  8
0
  6
DASHED
 10
23.431664
 20
83.590797
 40
3.000000
 50
-50.643299
 51
0.000000
  0
ARC
  8
0
  6
DASHED
 10
75.431664
 20
83.590797
 40
3.000000
 50
180.000000
 51
230.643295
  0
ARC
  8
0
  6
DASHED
 10
75.431664
 20
20.187328
 40
3.000000
 50
129.356705
 51
180.000000
  0
ARC
  8
0
  6
DASHED
 10
23.431664
 20
20.187328
 40
3.000000
 50
0.000000
 51
50.643299
  0
LINE
  8
0
  6
CONTINUOUS
 10
26.431664
 20
106.889061
 11
26.431664
 21
109.372482
  0
LINE
  8
0
  6
CONTINUOUS
 10
72.181664
 20
107.389061
 11
72.181664
 21
108.828262
  0
LINE
  8
0
  6
CONTINUOUS
 10
66.681664
 20
107.388863
 11
66.681664
 21
108.828262
  0
LINE
  8
0
  6
CONTINUOUS
 10
72.181664
 20
108.089066
 11
66.681664
 21
108.089066
  0
ARC
  8
0
  6
CONTINUOUS
 10
69.431664
 20
103.089066
 40
7.000000
 50
73.041977
 51
106.956497
  0
ARC
  8
0
  6
CONTINUOUS
 10
67.681664
 20
108.828262
 40
1.000000
 50
106.956902
 51
180.000000
  0
ARC
  8
0
  6
CONTINUOUS
 10
71.181664
 20
108.828262
 40
1.000000
 50
0.000000
 51
73.041847
  0
LINE
  8
0
  6
DASHED
 10
71.931664
 20
102.389061
 11
71.931664
 21
103.389061
  0
LINE
  8
0
  6
CONTINUOUS
 10
72.431664
 20
106.328674
 11
72.431664
 21
109.372482
  0
LINE
  8
0
  6
CONTINUOUS
 10
72.181664
 20
107.389061
 11
66.431664
 21
107.389061
  0
LINE
  8
0
  6
DASHED
 10
26.931664
 20
102.389061
 11
26.931664
 21
103.389061
  0
ARC
  8
0
  6
CONTINUOUS
 10
49.431664
 20
102.889061
 40
6.000000
 50
38.797073
 51
139.203384
  0
LINE
  8
0
  6
CONTINUOUS
 10
65.931664
 20
109.875526
 11
65.931664
 21
107.889061
  0
ARC
  8
0
  6
CONTINUOUS
 10
49.431664
 20
-139.110916
 40
250.000000
 50
84.826019
 51
95.173981
  0
ARC
  8
0
  6
CONTINUOUS
 10
71.931664
 20
109.372482
 40
0.500000
 50
0.000000
 51
84.826019
  0
ARC
  8
0
  6
CONTINUOUS
 10
65.431664
 20
109.875526
 40
0.500000
 50
0.000000
 51
86.323196
  0
ARC
  8
0
  6
CONTINUOUS
 10
71.931664
 20
106.889061
 40
0.500000
 50
0.000000
 51
90.000000
  0
ARC
  8
0
  6
CONTINUOUS
 10
66.431664
 20
107.889061
 40
0.500000
 50
180.000000
 51
270.000000
  0
LINE
  8
0
  6
CONTINUOUS
 10
26.681664
 20
107.389061
 11
26.681664
 21
108.828262
  0
LINE
  8
0
  6
CONTINUOUS
 10
32.181664
 20
107.388863
 11
32.181664
 21
108.828262
  0
LINE
  8
0
  6
CONTINUOUS
 10
26.681664
 20
108.089066
 11
32.181664
 21
108.089066
  0
ARC
  8
0
  6
CONTINUOUS
 10
29.431664
 20
103.089066
 40
7.000000
 50
73.043503
 51
106.958023
  0
ARC
  8
0
  6
CONTINUOUS
 10
31.181664
 20
108.828262
 40
1.000000
 50
0.000000
 51
73.043098
  0
ARC
  8
0
  6
CONTINUOUS
 10
27.681664
 20
108.828262
 40
1.000000
 50
106.958153
 51
180.000000
  0
LINE
  8
0
  6
CONTINUOUS
 10
26.681664
 20
107.389061
 11
32.431664
 21
107.389061
  0
LINE
  8
0
  6
CONTINUOUS
 10
32.931664
 20
109.875526
 11
32.931664
 21
107.889061
  0
ARC
  8
0
  6
CONTINUOUS
 10
26.931664
 20
109.372482
 40
0.500000
 50
95.173981
 51
180.000000
  0
ARC
  8
0
  6
CONTINUOUS
 10
33.431664
 20
109.875526
 40
0.500000
 50
93.676804
 51
180.000000
  0
ARC
  8
0
  6
CONTINUOUS
 10
26.931664
 20
106.889061
 40
0.500000
 50
90.000000
 51
180.000000
  0
ARC
  8
0
  6
CONTINUOUS
 10
32.431664
 20
107.889061
 40
0.500000
 50
-90.000000
 51
0.000000
  0
LINE
  8
0
  6
DASHED
 10
72.431664
 20
102.389061
 11
72.431664
 21
87.522194
  0
LINE
  8
0
  6
DASHED
 10
26.431664
 20
102.389061
 11
26.431664
 21
87.522194
  0
LINE
  8
0
  6
DASHED
 10
71.931664
 20
103.389061
 11
72.431664
 21
103.389061
  0
LINE
  8
0
  6
DASHED
 10
71.931664
 20
102.389061
 11
72.431664
 21
102.389061
  0
LINE
  8
0
  6
DASHED
 10
26.931664
 20
103.389061
 11
26.431664
 21
103.389061
  0
LINE
  8
0
  6
DASHED
 10
26.931664
 20
102.389061
 11
26.431664
 21
102.389061
  0
LINE
  8
0
  6
DASHED
 10
72.431664
 20
106.328674
 11
72.431664
 21
103.389061
  0
LINE
  8
0
  6
DASHED
 10
26.431664
 20
106.889061
 11
26.431664
 21
103.389061
  0
LINE
  8
0
  6
CONTINUOUS
 10
91.931664
 20
76.689064
 11
91.931664
 21
71.689064
  0
LINE
  8
0
  6
CONTINUOUS
 10
353.489990
 20
15.593105
 11
353.489990
 21
20.639153
  0
LINE
  8
0
  6
CONTINUOUS
 10
353.489990
 20
82.216805
 11
353.489990
 21
20.639153
  0
LINE
  8
0
  6
CONTINUOUS
 10
330.016205
 20
89.929047
 11
328.489990
 21
89.889061
  0
ARC
  8
0
  6
CONTINUOUS
 10
329.989990
 20
90.928673
 40
1.000000
 50
-88.499901
 51
0.000000
  0
LINE
  8
0
  6
CONTINUOUS
 10
351.490295
 20
22.389063
 11
343.489990
 21
22.389063
  0
LINE
  8
0
  6
CONTINUOUS
 10
360.989868
 20
90.389061
 11
343.489990
 21
90.389061
  0
LINE
  8
0
  6
CONTINUOUS
 10
342.489990
 20
21.389063
 11
342.489990
 21
14.742653
  0
ARC
  8
0
  6
CONTINUOUS
 10
343.489990
 20
21.389063
 40
1.000000
 50
90.000000
 51
180.000000
  0
LINE
  8
0
  6
CONTINUOUS
 10
342.489990
 20
81.889061
 11
342.489990
 21
89.389061
  0
ARC
  8
0
  6
CONTINUOUS
 10
343.489990
 20
89.389061
 40
1.000000
 50
90.000000
 51
180.000000
  0
LINE
  8
0
  6
CONTINUOUS
 10
343.489990
 20
82.389061
 11
343.489990
 21
89.389061
  0
LINE
  8
0
  6
CONTINUOUS
 10
342.489990
 20
82.389061
 11
344.468994
 21
82.389061
  0
LINE
  8
0
  6
CONTINUOUS
 10
342.489990
 20
89.389061
 11
344.468994
 21
89.389061
  0
ARC
  8
0
  6
CONTINUOUS
 10
337.089996
 20
85.889061
 40
8.999999
 50
-16.601500
 51
16.601000
  0
ARC
  8
0
  6
CONTINUOUS
 10
344.468994
 20
83.689079
 40
1.300000
 50
-90.000000
 51
-16.601601
  0
ARC
  8
0
  6
CONTINUOUS
 10
344.468994
 20
88.089073
 40
1.300000
 50
16.600901
 51
90.000000
  0
LINE
  8
0
  6
CONTINUOUS
 10
342.489990
 20
21.507133
 11
342.489990
 21
14.389063
  0
LINE
  8
0
  6
CONTINUOUS
 10
343.489990
 20
21.389063
 11
343.489990
 21
14.389063
  0
LINE
  8
0
  6
CONTINUOUS
 10
342.489990
 20
21.389063
 11
344.468994
 21
21.389063
  0
LINE
  8
0
  6
CONTINUOUS
 10
342.489990
 20
14.389063
 11
344.468994
 21
14.389063
  0
ARC
  8
0
  6
CONTINUOUS
 10
337.089996
 20
17.889063
 40
8.999999
 50
-16.601000
 51
16.601500
  0
ARC
  8
0
  6
CONTINUOUS
 10
344.468994
 20
20.089043
 40
1.300000
 50
16.601601
 51
90.000000
  0
ARC
  8
0
  6
CONTINUOUS
 10
344.468994
 20
15.689053
 40
1.300000
 50
270.000000
 51
343.399109
  0
LINE
  8
0
  6
CONTINUOUS
 10
328.489990
 20
13.889083
 11
328.489990
 21
89.889061
  0
LINE
  8
0
  6
CONTINUOUS
 10
328.489990
 20
82.138031
 11
342.489990
 21
82.138031
  0
LINE
  8
0
  6
CONTINUOUS
 10
328.489990
 20
21.640093
 11
342.489990
 21
21.640093
  0
LINE
  8
0
  6
CONTINUOUS
 10
330.989868
 20
90.928673
 11
330.989868
 21
102.389061
  0
LINE
  8
0
  6
CONTINUOUS
 10
378.138672
 20
99.339066
 11
362.989868
 21
99.339066
  0
LINE
  8
0
  6
CONTINUOUS
 10
377.286865
 20
107.039062
 11
378.022675
 21
104.203964
  0
LINE
  8
0
  6
CONTINUOUS
 10
378.022675
 20
104.203964
 11
377.210571
 21
101.728966
  0
LINE
  8
0
  6
CONTINUOUS
 10
377.210571
 20
101.728966
 11
378.138672
 21
99.339066
  0
LINE
  8
0
  6
CONTINUOUS
 10
328.989868
 20
107.889061
 11
328.989868
 21
103.389061
  0
LINE
  8
0
  6
CONTINUOUS
 10
362.989868
 20
103.389061
 11
328.989868
 21
103.389061
  0
LINE
  8
0
  6
CONTINUOUS
 10
362.989868
 20
102.389061
 11
328.989868
 21
102.389061
  0
LINE
  8
0
  6
CONTINUOUS
 10
362.989868
 20
107.889061
 11
362.989868
 21
103.389061
  0
LINE
  8
0
  6
CONTINUOUS
 10
377.286865
 20
107.039062
 11
362.989868
 21
107.039062
  0
ARC
  8
0
  6
CONTINUOUS
 10
345.989868
 20
-139.110916
 40
250.000000
 50
86.668304
 51
93.331696
  0
LINE
  8
0
  6
CONTINUOUS
 10
330.489868
 20
108.889061
 11
329.989868
 21
108.889061
  0
ARC
  8
0
  6
CONTINUOUS
 10
329.989868
 20
107.889061
 40
1.000000
 50
90.000000
 51
180.000000
  0
ARC
  8
0
  6
CONTINUOUS
 10
330.489868
 20
109.389061
 40
0.500000
 50
-90.000000
 51
0.000000
  0
LINE
  8
0
  6
CONTINUOUS
 10
361.489868
 20
108.889061
 11
361.989868
 21
108.889061
  0
ARC
  8
0
  6
CONTINUOUS
 10
361.989868
 20
107.889061
 40
1.000000
 50
0.000000
 51
90.000000
  0
ARC
  8
0
  6
CONTINUOUS
 10
361.489868
 20
109.389061
 40
0.500000
 50
180.000000
 51
270.000000
  0
LINE
  8
0
  6
CONTINUOUS
 10
360.989868
 20
85.335678
 11
360.989868
 21
102.389061
  0
LINE
  8
0
  6
CENTER
 10
345.989990
 20
113.914581
 11
345.989868
 21
96.115761
  0
ARC
  8
0
  6
CONTINUOUS
 10
331.489868
 20
109.967384
 40
0.500000
 50
93.331696
 51
180.000000
  0
ARC
  8
0
  6
CONTINUOUS
 10
360.489868
 20
109.967384
 40
0.500000
 50
0.000000
 51
86.668304
  0
LINE
  8
0
  6
CONTINUOUS
 10
329.489868
 20
103.389061
 11
329.489868
 21
102.389061
  0
LINE
  8
0
  6
CONTINUOUS
 10
328.989868
 20
102.389061
 11
328.989868
 21
98.423264
  0
LINE
  8
0
  6
CONTINUOUS
 10
330.989868
 20
103.389061
 11
330.989868
 21
109.967384
  0
LINE
  8
0
  6
CONTINUOUS
 10
360.489868
 20
103.389061
 11
360.489868
 21
102.389061
  0
LINE
  8
0
  6
CONTINUOUS
 10
360.989868
 20
103.389061
 11
360.989868
 21
109.967384
  0
LINE
  8
0
  6
CONTINUOUS
 10
362.989868
 20
102.389061
 11
362.989868
 21
98.423264
  0
LINE
  8
0
  6
CONTINUOUS
 10
336.989868
 20
107.389061
 11
331.489868
 21
107.389061
  0
LINE
  8
0
  6
CONTINUOUS
 10
337.489868
 20
107.889061
 11
337.489868
 21
110.260796
  0
ARC
  8
0
  6
CONTINUOUS
 10
336.989868
 20
107.889061
 40
0.500000
 50
-90.000000
 51
0.000000
  0
ARC
  8
0
  6
CONTINUOUS
 10
331.489868
 20
106.889061
 40
0.500000
 50
90.000000
 51
180.000000
  0
ARC
  8
0
  6
CONTINUOUS
 10
337.989868
 20
110.260796
 40
0.500000
 50
91.837456
 51
180.000000
  0
LINE
  8
0
  6
CONTINUOUS
 10
354.990112
 20
107.389061
 11
360.490112
 21
107.389061
  0
ARC
  8
0
  6
CONTINUOUS
 10
354.990112
 20
107.889061
 40
0.500000
 50
180.000000
 51
270.000000
  0
ARC
  8
0
  6
CONTINUOUS
 10
360.490112
 20
106.889061
 40
0.500000
 50
0.000000
 51
90.000000
  0
LINE
  8
0
  6
CONTINUOUS
 10
354.490112
 20
107.889061
 11
354.490112
 21
110.260796
  0
ARC
  8
0
  6
CONTINUOUS
 10
353.990112
 20
110.260796
 40
0.500000
 50
0.000000
 51
88.162544
  0
LINE
  8
0
  6
CONTINUOUS
 10
336.739868
 20
107.389061
 11
336.739868
 21
108.828262
  0
LINE
  8
0
  6
CONTINUOUS
 10
331.239868
 20
107.388863
 11
331.239868
 21
108.828262
  0
LINE
  8
0
  6
CONTINUOUS
 10
336.739868
 20
108.089066
 11
331.239868
 21
108.089066
  0
ARC
  8
0
  6
CONTINUOUS
 10
333.989868
 20
103.089066
 40
7.000000
 50
73.042000
 51
106.956512
  0
ARC
  8
0
  6
CONTINUOUS
 10
332.239868
 20
108.828262
 40
1.000000
 50
106.956902
 51
180.000000
  0
ARC
  8
0
  6
CONTINUOUS
 10
335.739868
 20
108.828262
 40
1.000000
 50
0.000000
 51
73.041801
  0
LINE
  8
0
  6
CONTINUOUS
 10
360.739868
 20
107.389061
 11
360.739868
 21
108.828262
  0
LINE
  8
0
  6
CONTINUOUS
 10
355.239868
 20
107.388863
 11
355.239868
 21
108.828262
  0
LINE
  8
0
  6
CONTINUOUS
 10
360.739868
 20
108.089066
 11
355.239868
 21
108.089066
  0
ARC
  8
0
  6
CONTINUOUS
 10
357.989868
 20
103.089066
 40
7.000000
 50
73.042000
 51
106.956512
  0
ARC
  8
0
  6
CONTINUOUS
 10
356.239868
 20
108.828262
 40
1.000000
 50
106.956902
 51
180.000000
  0
ARC
  8
0
  6
CONTINUOUS
 10
359.739868
 20
108.828262
 40
1.000000
 50
0.000000
 51
73.041801
  0
LINE
  8
0
  6
CONTINUOUS
 10
351.490295
 20
14.290535
 11
328.489990
 21
13.889063
  0
ARC
  8
0
  6
CONTINUOUS
 10
341.989990
 20
14.624783
 40
0.500000
 50
-89.000000
 51
0.000000
  0
LINE
  8
0
  6
CONTINUOUS
 10
342.989990
 20
81.389061
 11
351.490295
 21
81.389061
  0
ARC
  8
0
  6
CONTINUOUS
 10
342.989990
 20
81.889061
 40
0.500000
 50
180.000000
 51
270.000000
  0
LINE
  8
0
  6
CONTINUOUS
 10
352.748413
 20
22.725597
 11
351.490295
 21
22.389063
  0
ARC
  8
0
  6
CONTINUOUS
 10
352.489990
 20
23.691633
 40
1.000000
 50
-75.024384
 51
0.000000
  0
LINE
  8
0
  6
CONTINUOUS
 10
352.748413
 20
14.627069
 11
351.490295
 21
14.290535
  0
ARC
  8
0
  6
CONTINUOUS
 10
352.489990
 20
15.593105
 40
1.000000
 50
-75.024384
 51
0.000000
  0
LINE
  8
0
  6
CONTINUOUS
 10
352.748413
 20
81.052528
 11
351.490295
 21
81.389061
  0
ARC
  8
0
  6
CONTINUOUS
 10
352.489990
 20
80.086494
 40
1.000000
 50
0.000000
 51
75.024384
  0
LINE
  8
0
  6
CONTINUOUS
 10
361.490204
 20
97.423264
 11
361.989990
 21
97.423264
  0
ARC
  8
0
  6
CONTINUOUS
 10
361.989990
 20
98.423264
 40
1.000000
 50
-90.000000
 51
0.000000
  0
ARC
  8
0
  6
CONTINUOUS
 10
361.490204
 20
96.923264
 40
0.500000
 50
90.000000
 51
180.000000
  0
LINE
  8
0
  6
CONTINUOUS
 10
330.489807
 20
97.423264
 11
329.989990
 21
97.423264
  0
ARC
  8
0
  6
CONTINUOUS
 10
329.989990
 20
98.423264
 40
1.000000
 50
180.000000
 51
270.000000
  0
ARC
  8
0
  6
CONTINUOUS
 10
330.489807
 20
96.923264
 40
0.500000
 50
0.000000
 51
90.000000
  0
LINE
  8
0
  6
CONTINUOUS
 10
354.290009
 20
16.739168
 11
354.290009
 21
82.438957
  0
LINE
  8
0
  6
CONTINUOUS
 10
353.960999
 20
16.269321
 11
353.819000
 21
16.217630
  0
ARC
  8
0
  6
CONTINUOUS
 10
353.790009
 20
16.739168
 40
0.500000
 50
-70.000000
 51
0.000000
  0
ARC
  8
0
  6
CONTINUOUS
 10
353.989990
 20
15.747784
 40
0.500000
 50
110.000000
 51
180.000000
  0
LINE
  8
0
  6
CONTINUOUS
 10
353.960999
 20
82.908806
 11
353.820770
 21
82.959854
  0
ARC
  8
0
  6
CONTINUOUS
 10
353.790009
 20
82.438957
 40
0.500000
 50
0.000000
 51
70.000000
  0
LINE
  8
0
  6
CONTINUOUS
 10
359.042542
 20
83.336365
 11
354.463837
 21
83.216461
  0
ARC
  8
0
  6
CONTINUOUS
 10
358.990204
 20
85.335678
 40
2.000000
 50
-88.500000
 51
0.000000
  0
ARC
  8
0
  6
CONTINUOUS
 10
354.489990
 20
82.216805
 40
1.000000
 50
91.500000
 51
180.000000
  0
LINE
  8
0
  6
CENTER
 10
345.989990
 20
198.821869
 11
345.989990
 21
255.839005
  0
LINE
  8
0
  6
CONTINUOUS
 10
328.489990
 20
266.302490
 11
328.489990
 21
190.302505
  0
LINE
  8
0
  6
CONTINUOUS
 10
353.489990
 20
192.006607
 11
353.489990
 21
205.302505
  0
LINE
  8
0
  6
CONTINUOUS
 10
353.489990
 20
264.598389
 11
353.489990
 21
251.302505
  0
LINE
  8
0
  6
CONTINUOUS
 10
351.490295
 20
265.901001
 11
328.489990
 21
266.302490
  0
LINE
  8
0
  6
CONTINUOUS
 10
352.748413
 20
265.564392
 11
351.490295
 21
265.901001
  0
ARC
  8
0
  6
CONTINUOUS
 10
352.489990
 20
264.598389
 40
1.000000
 50
0.000000
 51
75.025597
  0
LINE
  8
0
  6
CONTINUOUS
 10
351.490295
 20
190.704102
 11
328.489990
 21
190.302505
  0
LINE
  8
0
  6
CONTINUOUS
 10
352.748413
 20
191.040604
 11
351.490295
 21
190.704102
  0
ARC
  8
0
  6
CONTINUOUS
 10
352.489990
 20
192.006607
 40
1.000000
 50
-75.025597
 51
0.000000
  0
LINE
  8
0
  6
CONTINUOUS
 10
354.290009
 20
260.008362
 11
354.290009
 21
251.302505
  0
LINE
  8
0
  6
CONTINUOUS
 10
353.960999
 20
260.478210
 11
353.819000
 21
260.529907
  0
ARC
  8
0
  6
CONTINUOUS
 10
353.989990
 20
260.999756
 40
0.500000
 50
180.000000
 51
250.000000
  0
LINE
  8
0
  6
CONTINUOUS
 10
354.290009
 20
196.596619
 11
354.290009
 21
205.302505
  0
LINE
  8
0
  6
CONTINUOUS
 10
353.960999
 20
196.126770
 11
353.819000
 21
196.075089
  0
ARC
  8
0
  6
CONTINUOUS
 10
353.989990
 20
195.605240
 40
0.500000
 50
110.000000
 51
180.000000
  0
LINE
  8
0
  6
CONTINUOUS
 10
360.990112
 20
249.302505
 11
360.990112
 21
207.302505
  0
LINE
  8
0
  6
CONTINUOUS
 10
330.989990
 20
207.302505
 11
330.989990
 21
249.302505
  0
LINE
  8
0
  6
CONTINUOUS
 10
328.989990
 20
223.302505
 11
328.989990
 21
233.302505
  0
LINE
  8
0
  6
CONTINUOUS
 10
362.989990
 20
223.302505
 11
362.989990
 21
233.302505
  0
ARC
  8
0
  6
CONTINUOUS
 10
357.989990
 20
248.302505
 40
3.500000
 50
180.000000
 51
270.000000
  0
LINE
  8
0
  6
CONTINUOUS
 10
359.990112
 20
244.802505
 11
357.989990
 21
244.802505
  0
LINE
  8
0
  6
CONTINUOUS
 10
354.489990
 20
250.302505
 11
354.489990
 21
248.302505
  0
ARC
  8
0
  6
CONTINUOUS
 10
359.990112
 20
243.802505
 40
1.000000
 50
0.000000
 51
90.000000
  0
ARC
  8
0
  6
CONTINUOUS
 10
333.989990
 20
248.302505
 40
3.500000
 50
-90.000000
 51
0.000000
  0
LINE
  8
0
  6
CONTINUOUS
 10
337.489990
 20
250.302505
 11
337.489990
 21
248.302505
  0
LINE
  8
0
  6
CONTINUOUS
 10
331.989899
 20
244.802505
 11
333.989990
 21
244.802505
  0
ARC
  8
0
  6
CONTINUOUS
 10
331.989899
 20
243.802505
 40
1.000000
 50
90.000000
 51
180.000000
  0
LINE
  8
0
  6
CONTINUOUS
 10
332.989990
 20
251.302505
 11
358.990112
 21
251.302505
  0
ARC
  8
0
  6
CONTINUOUS
 10
338.489990
 20
250.302505
 40
1.000000
 50
90.000000
 51
180.000000
  0
ARC
  8
0
  6
CONTINUOUS
 10
353.489990
 20
250.302505
 40
1.000000
 50
0.000000
 51
90.000000
  0
ARC
  8
0
  6
CONTINUOUS
 10
358.990112
 20
249.302505
 40
2.000000
 50
0.000000
 51
90.000000
  0
ARC
  8
0
  6
CONTINUOUS
 10
332.989990
 20
249.302505
 40
2.000000
 50
90.000000
 51
180.000000
  0
ARC
  8
0
  6
CONTINUOUS
 10
357.989990
 20
208.302505
 40
3.500000
 50
90.000000
 51
180.000000
  0
LINE
  8
0
  6
CONTINUOUS
 10
359.990112
 20
211.802505
 11
357.989990
 21
211.802505
  0
LINE
  8
0
  6
CONTINUOUS
 10
354.489990
 20
206.302505
 11
354.489990
 21
208.302505
  0
ARC
  8
0
  6
CONTINUOUS
 10
359.990112
 20
212.802505
 40
1.000000
 50
-90.000000
 51
0.000000
  0
ARC
  8
0
  6
CONTINUOUS
 10
333.989990
 20
208.302505
 40
3.500000
 50
0.000000
 51
90.000000
  0
LINE
  8
0
  6
CONTINUOUS
 10
337.489990
 20
206.302505
 11
337.489990
 21
208.302505
  0
LINE
  8
0
  6
CONTINUOUS
 10
331.989899
 20
211.802505
 11
333.989990
 21
211.802505
  0
ARC
  8
0
  6
CONTINUOUS
 10
331.989899
 20
212.802505
 40
1.000000
 50
180.000000
 51
270.000000
  0
LINE
  8
0
  6
CONTINUOUS
 10
332.989990
 20
205.302505
 11
358.990112
 21
205.302505
  0
ARC
  8
0
  6
CONTINUOUS
 10
338.489990
 20
206.302505
 40
1.000000
 50
180.000000
 51
270.000000
  0
ARC
  8
0
  6
CONTINUOUS
 10
353.489990
 20
206.302505
 40
1.000000
 50
-90.000000
 51
0.000000
  0
ARC
  8
0
  6
CONTINUOUS
 10
358.990112
 20
207.302505
 40
2.000000
 50
-90.000000
 51
0.000000
  0
ARC
  8
0
  6
CONTINUOUS
 10
332.989990
 20
207.302505
 40
2.000000
 50
180.000000
 51
270.000000
  0
LINE
  8
0
  6
CONTINUOUS
 10
361.489990
 20
222.302505
 11
361.989990
 21
222.302505
  0
ARC
  8
0
  6
CONTINUOUS
 10
361.989990
 20
223.302505
 40
1.000000
 50
-90.000000
 51
0.000000
  0
ARC
  8
0
  6
CONTINUOUS
 10
361.489990
 20
221.802505
 40
0.500000
 50
90.000000
 51
180.000000
  0
LINE
  8
0
  6
CONTINUOUS
 10
361.489990
 20
234.302505
 11
361.989990
 21
234.302505
  0
ARC
  8
0
  6
CONTINUOUS
 10
361.989990
 20
233.302505
 40
1.000000
 50
0.000000
 51
90.000000
  0
ARC
  8
0
  6
CONTINUOUS
 10
361.489990
 20
234.802505
 40
0.500000
 50
180.000000
 51
270.000000
  0
LINE
  8
0
  6
CONTINUOUS
 10
330.489990
 20
222.302505
 11
329.989990
 21
222.302505
  0
ARC
  8
0
  6
CONTINUOUS
 10
329.989990
 20
223.302505
 40
1.000000
 50
180.000000
 51
270.000000
  0
ARC
  8
0
  6
CONTINUOUS
 10
330.489990
 20
221.802505
 40
0.500000
 50
0.000000
 51
90.000000
  0
LINE
  8
0
  6
CONTINUOUS
 10
330.489990
 20
234.302505
 11
329.989990
 21
234.302505
  0
ARC
  8
0
  6
CONTINUOUS
 10
329.989990
 20
233.302505
 40
1.000000
 50
90.000000
 51
180.000000
  0
ARC
  8
0
  6
CONTINUOUS
 10
330.489990
 20
234.802505
 40
0.500000
 50
-90.000000
 51
0.000000
  0
LINE
  8
0
  6
CONTINUOUS
 10
332.612305
 20
205.338486
 11
328.489990
 21
205.302505
  0
LINE
  8
0
  6
CONTINUOUS
 10
332.612305
 20
251.266510
 11
328.489990
 21
251.302505
  0
LINE
  8
0
  6
CONTINUOUS
 10
356.239990
 20
247.902512
 11
356.239990
 21
248.702530
  0
LINE
  8
0
  6
CONTINUOUS
 10
358.390015
 20
246.552505
 11
357.589996
 21
246.552505
  0
LINE
  8
0
  6
CONTINUOUS
 10
358.390015
 20
250.052505
 11
357.589996
 21
250.052505
  0
LINE
  8
0
  6
CONTINUOUS
 10
359.739990
 20
247.902512
 11
359.739990
 21
248.702530
  0
CIRCLE
  8
0
  6
CONTINUOUS
 10
357.989990
 20
248.302505
 40
2.750000
  0
ARC
  8
0
  6
CONTINUOUS
 10
359.739990
 20
246.552505
 40
1.350000
 50
90.000000
 51
180.000000
  0
ARC
  8
0
  6
CONTINUOUS
 10
359.739990
 20
250.052505
 40
1.350000
 50
180.000000
 51
270.000000
  0
ARC
  8
0
  6
CONTINUOUS
 10
356.239990
 20
246.552505
 40
1.350000
 50
0.000000
 51
90.000000
  0
ARC
  8
0
  6
CONTINUOUS
 10
356.239990
 20
250.052505
 40
1.350000
 50
-90.000000
 51
0.000000
  0
LINE
  8
0
  6
CONTINUOUS
 10
332.239990
 20
247.902512
 11
332.239990
 21
248.702530
  0
LINE
  8
0
  6
CONTINUOUS
 10
334.390015
 20
246.552505
 11
333.589996
 21
246.552505
  0
LINE
  8
0
  6
CONTINUOUS
 10
334.390015
 20
250.052505
 11
333.589996
 21
250.052505
  0
LINE
  8
0
  6
CONTINUOUS
 10
335.739990
 20
247.902512
 11
335.739990
 21
248.702530
  0
CIRCLE
  8
0
  6
CONTINUOUS
 10
333.989990
 20
248.302505
 40
2.750000
  0
ARC
  8
0
  6
CONTINUOUS
 10
335.739990
 20
246.552505
 40
1.350000
 50
90.000000
 51
180.000000
  0
ARC
  8
0
  6
CONTINUOUS
 10
335.739990
 20
250.052505
 40
1.350000
 50
180.000000
 51
270.000000
  0
ARC
  8
0
  6
CONTINUOUS
 10
332.239990
 20
246.552505
 40
1.350000
 50
0.000000
 51
90.000000
  0
ARC
  8
0
  6
CONTINUOUS
 10
332.239990
 20
250.052505
 40
1.350000
 50
-90.000000
 51
0.000000
  0
LINE
  8
0
  6
CONTINUOUS
 10
332.239990
 20
207.902512
 11
332.239990
 21
208.702530
  0
LINE
  8
0
  6
CONTINUOUS
 10
334.390015
 20
206.552505
 11
333.589996
 21
206.552505
  0
LINE
  8
0
  6
CONTINUOUS
 10
334.390015
 20
210.052505
 11
333.589996
 21
210.052505
  0
LINE
  8
0
  6
CONTINUOUS
 10
335.739990
 20
207.902512
 11
335.739990
 21
208.702530
  0
CIRCLE
  8
0
  6
CONTINUOUS
 10
333.989990
 20
208.302505
 40
2.750000
  0
ARC
  8
0
  6
CONTINUOUS
 10
335.739990
 20
206.552505
 40
1.350000
 50
90.000000
 51
180.000000
  0
ARC
  8
0
  6
CONTINUOUS
 10
335.739990
 20
210.052505
 40
1.350000
 50
180.000000
 51
270.000000
  0
ARC
  8
0
  6
CONTINUOUS
 10
332.239990
 20
206.552505
 40
1.350000
 50
0.000000
 51
90.000000
  0
ARC
  8
0
  6
CONTINUOUS
 10
332.239990
 20
210.052505
 40
1.350000
 50
-90.000000
 51
0.000000
  0
LINE
  8
0
  6
CONTINUOUS
 10
356.239990
 20
207.902512
 11
356.239990
 21
208.702530
  0
LINE
  8
0
  6
CONTINUOUS
 10
358.390015
 20
206.552505
 11
357.589996
 21
206.552505
  0
LINE
  8
0
  6
CONTINUOUS
 10
358.390015
 20
210.052505
 11
357.589996
 21
210.052505
  0
LINE
  8
0
  6
CONTINUOUS
 10
359.739990
 20
207.902512
 11
359.739990
 21
208.702530
  0
CIRCLE
  8
0
  6
CONTINUOUS
 10
357.989990
 20
208.302505
 40
2.750000
  0
ARC
  8
0
  6
CONTINUOUS
 10
359.739990
 20
206.552505
 40
1.350000
 50
90.000000
 51
180.000000
  0
ARC
  8
0
  6
CONTINUOUS
 10
359.739990
 20
210.052505
 40
1.350000
 50
180.000000
 51
270.000000
  0
ARC
  8
0
  6
CONTINUOUS
 10
356.239990
 20
206.552505
 40
1.350000
 50
0.000000
 51
90.000000
  0
ARC
  8
0
  6
CONTINUOUS
 10
356.239990
 20
210.052505
 40
1.350000
 50
-90.000000
 51
0.000000
  0
LINE
  8
0
  6
CONTINUOUS
 10
378.138672
 20
232.152496
 11
362.989868
 21
232.152496
  0
LINE
  8
0
  6
CONTINUOUS
 10
377.286865
 20
224.452499
 11
378.022675
 21
227.287598
  0
LINE
  8
0
  6
CONTINUOUS
 10
378.022675
 20
227.287598
 11
377.210571
 21
229.762604
  0
LINE
  8
0
  6
CONTINUOUS
 10
377.210571
 20
229.762604
 11
378.138672
 21
232.152496
  0
LINE
  8
0
  6
CONTINUOUS
 10
377.286865
 20
224.452499
 11
362.989868
 21
224.452499
  0
ARC
  8
0
  6
CONTINUOUS
 10
353.790009
 20
260.008362
 40
0.500000
 50
0.000000
 51
69.999962
  0
ARC
  8
0
  6
CONTINUOUS
 10
353.790009
 20
196.596619
 40
0.500000
 50
-69.999962
 51
0.000000
  0
TEXT
  8
0
 10
-25.000000
 20
0.000000
 40
4.000000
 41
1.000000
  1
HFW-15L-10~240-S15
 50
0.000000
  0
ENDSEC
  0
EOF
