  0
SECTION
  2
HEADER
  9
$ACADVER
  1
AC1014
  9
$ACADMAINTVER
 70
     9
  9
$DWGCODEPAGE
  3
ANSI_932
  9
$INSBASE
 10
0.0
 20
0.0
 30
0.0
  9
$EXTMIN
 10
62.51986103391601
 20
40.37486314556389
 30
0.0
  9
$EXTMAX
 10
463.5281727667709
 20
330.7360802739689
 30
0.0
  9
$LIMMIN
 10
0.0
 20
0.0
  9
$LIMMAX
 10
297.0
 20
210.0
  9
$ORTHOMODE
 70
     1
  9
$REGENMODE
 70
     1
  9
$FILLMODE
 70
     1
  9
$QTEXTMODE
 70
     0
  9
$MIRRTEXT
 70
     0
  9
$DRAGMODE
 70
     2
  9
$LTSCALE
 40
2.0
  9
$OSMODE
 70
    37
  9
$ATTMODE
 70
     1
  9
$TEXTSIZE
 40
2.0
  9
$TRACEWID
 40
1.0
  9
$TEXTSTYLE
  7
STANDARD
  9
$CLAYER
  8
0
  9
$CELTYPE
  6
BYLAYER
  9
$CECOLOR
 62
   256
  9
$CELTSCALE
 40
1.0
  9
$DELOBJ
 70
     1
  9
$DISPSILH
 70
     0
  9
$DIMSCALE
 40
2.0
  9
$DIMASZ
 40
1.8
  9
$DIMEXO
 40
0.625
  9
$DIMDLI
 40
3.75
  9
$DIMRND
 40
0.0
  9
$DIMDLE
 40
0.0
  9
$DIMEXE
 40
0.8
  9
$DIMTP
 40
0.0
  9
$DIMTM
 40
0.0
  9
$DIMTXT
 40
1.8
  9
$DIMCEN
 40
2.5
  9
$DIMTSZ
 40
0.0
  9
$DIMTOL
 70
     0
  9
$DIMLIM
 70
     0
  9
$DIMTIH
 70
     0
  9
$DIMTOH
 70
     0
  9
$DIMSE1
 70
     0
  9
$DIMSE2
 70
     0
  9
$DIMTAD
 70
     1
  9
$DIMZIN
 70
     8
  9
$DIMBLK
  1

  9
$DIMASO
 70
     1
  9
$DIMSHO
 70
     1
  9
$DIMPOST
  1

  9
$DIMAPOST
  1

  9
$DIMALT
 70
     0
  9
$DIMALTD
 70
     4
  9
$DIMALTF
 40
0.0394
  9
$DIMLFAC
 40
1.0
  9
$DIMTOFL
 70
     1
  9
$DIMTVP
 40
0.0
  9
$DIMTIX
 70
     0
  9
$DIMSOXD
 70
     0
  9
$DIMSAH
 70
     0
  9
$DIMBLK1
  1

  9
$DIMBLK2
  1

  9
$DIMSTYLE
  2
STANDARD
  9
$DIMCLRD
 70
     0
  9
$DIMCLRE
 70
     0
  9
$DIMCLRT
 70
     0
  9
$DIMTFAC
 40
1.0
  9
$DIMGAP
 40
0.75
  9
$DIMJUST
 70
     0
  9
$DIMSD1
 70
     0
  9
$DIMSD2
 70
     0
  9
$DIMTOLJ
 70
     1
  9
$DIMTZIN
 70
     0
  9
$DIMALTZ
 70
     0
  9
$DIMALTTZ
 70
     0
  9
$DIMFIT
 70
     3
  9
$DIMUPT
 70
     0
  9
$DIMUNIT
 70
     8
  9
$DIMDEC
 70
     2
  9
$DIMTDEC
 70
     2
  9
$DIMALTU
 70
     8
  9
$DIMALTTD
 70
     4
  9
$DIMTXSTY
  7
STANDARD
  9
$DIMAUNIT
 70
     0
  9
$LUNITS
 70
     2
  9
$LUPREC
 70
     3
  9
$SKETCHINC
 40
1.0
  9
$FILLETRAD
 40
10.0
  9
$AUNITS
 70
     0
  9
$AUPREC
 70
     2
  9
$MENU
  1
.
  9
$ELEVATION
 40
0.0
  9
$PELEVATION
 40
0.0
  9
$THICKNESS
 40
0.0
  9
$LIMCHECK
 70
     0
  9
$BLIPMODE
 70
     0
  9
$CHAMFERA
 40
0.0
  9
$CHAMFERB
 40
0.0
  9
$CHAMFERC
 40
20.0
  9
$CHAMFERD
 40
0.0
  9
$SKPOLY
 70
     0
  9
$TDCREATE
 40
2453761.562837268
  9
$TDUPDATE
 40
2454399.564843924
  9
$TDINDWG
 40
0.0396706829
  9
$TDUSRTIMER
 40
0.0396706829
  9
$USRTIMER
 70
     1
  9
$ANGBASE
 50
0.0
  9
$ANGDIR
 70
     0
  9
$PDMODE
 70
     0
  9
$PDSIZE
 40
-10.0
  9
$PLINEWID
 40
0.0
  9
$COORDS
 70
     1
  9
$SPLFRAME
 70
     0
  9
$SPLINETYPE
 70
     6
  9
$SPLINESEGS
 70
     8
  9
$ATTDIA
 70
     0
  9
$ATTREQ
 70
     1
  9
$HANDLING
 70
-16383
  9
$HANDSEED
  5
1132
  9
$SURFTAB1
 70
     6
  9
$SURFTAB2
 70
     6
  9
$SURFTYPE
 70
     6
  9
$SURFU
 70
     6
  9
$SURFV
 70
     6
  9
$UCSNAME
  2

  9
$UCSORG
 10
0.0
 20
0.0
 30
0.0
  9
$UCSXDIR
 10
1.0
 20
0.0
 30
0.0
  9
$UCSYDIR
 10
0.0
 20
1.0
 30
0.0
  9
$PUCSNAME
  2

  9
$PUCSORG
 10
0.0
 20
0.0
 30
0.0
  9
$PUCSXDIR
 10
1.0
 20
0.0
 30
0.0
  9
$PUCSYDIR
 10
0.0
 20
1.0
 30
0.0
  9
$USERI1
 70
     0
  9
$USERI2
 70
     0
  9
$USERI3
 70
     0
  9
$USERI4
 70
     0
  9
$USERI5
 70
     0
  9
$USERR1
 40
0.0
  9
$USERR2
 40
0.0
  9
$USERR3
 40
0.0
  9
$USERR4
 40
0.0
  9
$USERR5
 40
0.0
  9
$WORLDVIEW
 70
     1
  9
$SHADEDGE
 70
     3
  9
$SHADEDIF
 70
    70
  9
$TILEMODE
 70
     1
  9
$MAXACTVP
 70
    48
  9
$PINSBASE
 10
0.0
 20
0.0
 30
0.0
  9
$PLIMCHECK
 70
     0
  9
$PEXTMIN
 10
0.0
 20
0.0
 30
0.0
  9
$PEXTMAX
 10
0.0
 20
0.0
 30
0.0
  9
$PLIMMIN
 10
0.0
 20
0.0
  9
$PLIMMAX
 10
12.0
 20
9.0
  9
$UNITMODE
 70
     0
  9
$VISRETAIN
 70
     1
  9
$PLINEGEN
 70
     0
  9
$PSLTSCALE
 70
     1
  9
$TREEDEPTH
 70
  3020
  9
$PICKSTYLE
 70
     1
  9
$CMLSTYLE
  2
STANDARD
  9
$CMLJUST
 70
     0
  9
$CMLSCALE
 40
1.0
  9
$PROXYGRAPHICS
 70
     1
  9
$MEASUREMENT
 70
     0
  0
ENDSEC
  0
SECTION
  2
CLASSES
  0
CLASS
  1
DICTIONARYVAR
  2
AcDbDictionaryVar
  3
AutoCAD 2000
 90
        0
280
     0
281
     0
  0
CLASS
  1
ACDBDICTIONARYWDFLT
  2
AcDbDictionaryWithDefault
  3
AutoCAD 2000
 90
        0
280
     0
281
     0
  0
CLASS
  1
ACDBPLACEHOLDER
  2
AcDbPlaceHolder
  3
AutoCAD 2000
 90
        0
280
     0
281
     0
  0
CLASS
  1
LAYOUT
  2
AcDbLayout
  3
AutoCAD 2000
 90
        0
280
     0
281
     0
  0
CLASS
  1
LONG_TRANSACTION
  2
AcDbLongTransaction
  3
AutoCAD 2000
 90
        0
280
     0
281
     0
  0
CLASS
  1
LWPOLYLINE
  2
AcDbPolyline
  3
AutoCAD 2000
 90
        0
280
     0
281
     1
  0
CLASS
  1
HATCH
  2
AcDbHatch
  3
AutoCAD 2000
 90
        0
280
     0
281
     1
  0
CLASS
  1
XRECORD
  2
AcDbXrecord
  3
AutoCAD 2000
 90
        0
280
     0
281
     0
  0
ENDSEC
  0
SECTION
  2
TABLES
  0
TABLE
  2
VPORT
  5
6E
330
0
100
AcDbSymbolTable
 70
     2
  0
VPORT
  5
110C
330
6E
100
AcDbSymbolTableRecord
100
AcDbViewportTableRecord
  2
*ACTIVE
 70
     0
 10
0.0
 20
0.0
 11
1.0
 21
1.0
 12
243.2221508286541
 22
173.7919618309771
 13
0.0
 23
0.0
 14
10.0
 24
10.0
 15
10.0
 25
10.0
 16
0.0
 26
0.0
 36
1.0
 17
0.0
 27
0.0
 37
0.0
 40
316.3146842054994
 41
1.540920716112531
 42
50.0
 43
0.0
 44
0.0
 50
0.0
 51
0.0
 71
     0
 72
   100
 73
     1
 74
     3
 75
     0
 76
     0
 77
     0
 78
     0
  0
ENDTAB
  0
TABLE
  2
LTYPE
  5
69
330
0
100
AcDbSymbolTable
 70
     4
  0
LTYPE
  5
6A
330
69
100
AcDbSymbolTableRecord
100
AcDbLinetypeTableRecord
  2
BYBLOCK
 70
     0
  3

 72
    65
 73
     0
 40
0.0
  0
LTYPE
  5
6B
330
69
100
AcDbSymbolTableRecord
100
AcDbLinetypeTableRecord
  2
BYLAYER
 70
     0
  3

 72
    65
 73
     0
 40
0.0
  0
LTYPE
  5
8
330
69
100
AcDbSymbolTableRecord
100
AcDbLinetypeTableRecord
  2
CONTINUOUS
 70
     0
  3
Solid line
 72
    65
 73
     0
 40
0.0
  0
LTYPE
  5
27C
330
69
100
AcDbSymbolTableRecord
100
AcDbLinetypeTableRecord
  2
SEKKEI_A2_
 70
     0
  3
center(A2)  ____ _ ____ _ ____ _ ____ _ ____ _ 
 72
    65
 73
     4
 40
14.28749999999999
 49
9.525
 74
     0
 49
-1.587499999999999
 74
     0
 49
1.587499999999999
 74
     0
 49
-1.587499999999999
 74
     0
  0
LTYPE
  5
2B4
330
69
100
AcDbSymbolTableRecord
100
AcDbLinetypeTableRecord
  2
HIDDEN2
 70
     0
  3
Hidden (.5x) _ _ _ _ _ _ _ _ _ _ _ _ _ _ _ _ _
 72
    65
 73
     2
 40
4.762499999999999
 49
3.174999999999999
 74
     0
 49
-1.587499999999999
 74
     0
  0
LTYPE
  5
48F
330
69
100
AcDbSymbolTableRecord
100
AcDbLinetypeTableRecord
  2
SEKKEI_H
 70
     0
  3
Hidden-S _ _ _ _ _ _ _ _ _ _ _ _ _ _ _ _ _
 72
    65
 73
     2
 40
2.381249999999999
 49
1.587499999999999
 74
     0
 49
-0.79375
 74
     0
  0
ENDTAB
  0
TABLE
  2
LAYER
  5
66
330
0
100
AcDbSymbolTable
 70
     9
  0
LAYER
  5
5E
330
66
100
AcDbSymbolTableRecord
100
AcDbLayerTableRecord
  2
0
 70
     0
 62
     7
  6
CONTINUOUS
  0
LAYER
  5
3E
330
66
100
AcDbSymbolTableRecord
100
AcDbLayerTableRecord
  2
CENTER
 70
     0
 62
     3
  6
SEKKEI_A2_
  0
LAYER
  5
2B5
330
66
100
AcDbSymbolTableRecord
100
AcDbLayerTableRecord
  2
HIDS
 70
     0
 62
     1
  6
HIDDEN2
  0
LAYER
  5
2BA
330
66
100
AcDbSymbolTableRecord
100
AcDbLayerTableRecord
  2
HOJO
 70
     0
 62
     4
  6
CONTINUOUS
  0
LAYER
  5
3FA
330
66
100
AcDbSymbolTableRecord
100
AcDbLayerTableRecord
  2
TITLE
 70
     0
 62
     4
  6
CONTINUOUS
  0
ENDTAB
  0
TABLE
  2
STYLE
  5
67
330
0
100
AcDbSymbolTable
 70
     1
  0
STYLE
  5
16
330
67
100
AcDbSymbolTableRecord
100
AcDbTextStyleTableRecord
  2
STANDARD
 70
     0
 40
0.0
 41
1.0
 50
0.0
 71
     0
 42
2.0
  3
simplex.shx
  4
extfont.shx
  0
ENDTAB
  0
TABLE
  2
VIEW
  5
6C
330
0
100
AcDbSymbolTable
 70
     0
  0
ENDTAB
  0
TABLE
  2
UCS
  5
6D
330
0
100
AcDbSymbolTable
 70
     0
  0
ENDTAB
  0
TABLE
  2
APPID
  5
70
330
0
100
AcDbSymbolTable
 70
     1
  0
APPID
  5
71
330
70
100
AcDbSymbolTableRecord
100
AcDbRegAppTableRecord
  2
ACAD
 70
     0
  0
ENDTAB
  0
TABLE
  2
DIMSTYLE
  5
72
330
0
100
AcDbSymbolTable
 70
     1
  0
DIMSTYLE
105
73
102
{ACAD_REACTORS
330
83E
330
914
102
}
330
72
100
AcDbSymbolTableRecord
100
AcDbDimStyleTableRecord
  2
STANDARD
 70
     0
  3

  4

  5

  6

  7

 40
2.0
 41
1.8
 42
0.625
 43
3.75
 44
0.8
 45
0.0
 46
0.0
 47
0.0
 48
0.0
140
1.8
141
2.5
142
0.0
143
0.0394
144
1.0
145
0.0
146
1.0
147
0.75
 71
     0
 72
     0
 73
     0
 74
     0
 75
     0
 76
     0
 77
     1
 78
     8
170
     0
171
     4
172
     1
173
     0
174
     0
175
     0
176
     0
177
     0
178
     0
270
     8
271
     2
272
     2
273
     8
274
     4
340
16
275
     0
280
     0
281
     0
282
     0
283
     1
284
     0
285
     0
286
     0
287
     3
288
     0
  0
ENDTAB
  0
TABLE
  2
BLOCK_RECORD
  5
1
330
0
100
AcDbSymbolTable
 70
    50
  0
BLOCK_RECORD
  5
2
102
{ACAD_XDICTIONARY
360
112E
102
}
330
1
100
AcDbSymbolTableRecord
100
AcDbBlockTableRecord
  2
*MODEL_SPACE
  0
BLOCK_RECORD
  5
1107
102
{ACAD_XDICTIONARY
360
1130
102
}
330
1
100
AcDbSymbolTableRecord
100
AcDbBlockTableRecord
  2
*PAPER_SPACE
  0
ENDTAB
  0
ENDSEC
  0
SECTION
  2
BLOCKS
  0
BLOCK
  5
5D
330
2
100
AcDbEntity
  8
0
100
AcDbBlockBegin
  2
*MODEL_SPACE
 70
     0
 10
0.0
 20
0.0
 30
0.0
  3
*MODEL_SPACE
  1

  0
ENDBLK
  5
5F
330
2
100
AcDbEntity
  8
0
100
AcDbBlockEnd
  0
BLOCK
  5
1109
330
1107
100
AcDbEntity
 67
     1
  8
0
100
AcDbBlockBegin
  2
*PAPER_SPACE
 70
     0
 10
0.0
 20
0.0
 30
0.0
  3
*PAPER_SPACE
  1

  0
ENDBLK
  5
110A
330
1107
100
AcDbEntity
 67
     1
  8
0
100
AcDbBlockEnd
  0
ENDSEC
  0
SECTION
  2
ENTITIES
  0
LWPOLYLINE
  5
82C
330
2
100
AcDbEntity
  8
HOJO
100
AcDbPolyline
 90
       14
 70
     0
 43
0.0
 10
378.5281727667709
 20
134.584560145564
 10
384.4187667667709
 20
133.3717611455639
 10
389.6687667667709
 20
130.1217611455639
 10
390.1687667667708
 20
124.9967611455639
 10
391.9187667667709
 20
123.1217611455639
 10
392.2937667667708
 20
119.496761145564
 10
392.6687667667708
 20
113.8717611455639
 10
393.4187667667708
 20
108.6217611455639
 10
391.4187667667708
 20
102.2467611455639
 10
392.0437667667708
 20
95.746761145564
 10
390.5437667667709
 20
89.99676114556399
 10
386.4187667667708
 20
86.87177314556407
 10
381.5437667667708
 20
86.24677314556407
 10
378.5281727667709
 20
85.01818514556402
  0
LINE
  5
82D
330
2
100
AcDbEntity
  8
0
100
AcDbLine
 10
453.5281727667709
 20
92.37486314556401
 30
0.0
 11
453.5281727667709
 21
130.3748661455639
 31
0.0
  0
LINE
  5
82E
330
2
100
AcDbEntity
  8
HIDS
100
AcDbLine
 10
441.5281727667709
 20
139.574863145564
 30
0.0
 11
441.5281727667709
 21
124.708065145564
 31
0.0
  0
LINE
  5
82F
330
2
100
AcDbEntity
  8
HIDS
100
AcDbLine
 10
395.5281727667709
 20
139.574863145564
 30
0.0
 11
395.5281727667709
 21
124.708065145564
 31
0.0
  0
LINE
  5
830
330
2
100
AcDbEntity
  8
CENTER
100
AcDbLine
 10
418.5281727667709
 20
44.07489314556409
 30
0.0
 11
418.5281727667709
 21
155.074917145564
 31
0.0
  0
LINE
  5
831
330
2
100
AcDbEntity
  8
0
100
AcDbLine
 10
449.5281727667709
 20
55.32283314556406
 30
0.0
 11
449.5281727667709
 21
141.409466145564
 31
0.0
  0
LINE
  5
832
330
2
100
AcDbEntity
  8
0
100
AcDbLine
 10
383.5281727667709
 20
92.37486314556401
 30
0.0
 11
383.5281727667709
 21
130.3748661455639
 31
0.0
  0
LINE
  5
833
330
2
100
AcDbEntity
  8
0
100
AcDbLine
 10
378.5281727667709
 20
149.374866145564
 30
0.0
 11
378.5281727667709
 21
118.8748661455639
 31
0.0
  0
LINE
  5
834
330
2
100
AcDbEntity
  8
0
100
AcDbLine
 10
271.3446299980662
 20
130.045361145564
 30
0.0
 11
273.7438309980664
 21
112.908291145564
 31
0.0
  0
LINE
  5
835
330
2
100
AcDbEntity
  8
0
100
AcDbLine
 10
273.6422219980663
 20
142.4840201455639
 30
0.0
 11
276.2195239980662
 21
124.074863145564
 31
0.0
  0
LINE
  5
836
330
2
100
AcDbEntity
  8
0
100
AcDbLine
 10
387.5281727667709
 20
148.836765145564
 30
0.0
 11
387.5281727667709
 21
87.71226114556402
 31
0.0
  0
LINE
  5
837
330
2
100
AcDbEntity
  8
0
100
AcDbLine
 10
196.0944009980664
 20
130.045353145564
 30
0.0
 11
193.6361879980663
 21
112.4865461455639
 31
0.0
  0
LINE
  5
838
330
2
100
AcDbEntity
  8
0
100
AcDbLine
 10
193.7967859980665
 20
142.4840131455639
 30
0.0
 11
191.2195309980663
 21
124.074863145564
 31
0.0
  0
LINE
  5
839
330
2
100
AcDbEntity
  8
CENTER
100
AcDbLine
 10
233.7195239980662
 20
156.3748661455638
 30
0.0
 11
233.7195239980662
 21
40.37486314556389
 31
0.0
  0
LINE
  5
83A
330
2
100
AcDbEntity
  8
0
100
AcDbLine
 10
116.2196489980663
 20
128.1144751455639
 30
0.0
 11
116.2196489980663
 21
139.574863145564
 31
0.0
  0
LINE
  5
83B
330
2
100
AcDbEntity
  8
0
100
AcDbLine
 10
86.21964899806631
 20
122.521481145564
 30
0.0
 11
86.21964899806631
 21
139.574863145564
 31
0.0
  0
ARC
  5
83C
330
2
100
AcDbEntity
  8
0
100
AcDbCircle
 10
233.7195239980662
 20
98.374863145564
 30
0.0
 40
42.5
100
AcDbArc
 50
19.74990099999923
 51
160.2501069999981
  0
CIRCLE
  5
83D
330
2
100
AcDbEntity
  8
0
100
AcDbCircle
 10
233.7195239980662
 20
111.3748661455639
 30
0.0
 40
20.0
  0
LINE
  5
842
330
2
100
AcDbEntity
  8
CENTER
100
AcDbLine
 10
85.91952899806642
 20
89.07486314556406
 30
0.0
 11
209.0195269980663
 21
89.07486314556406
 31
0.0
  0
LINE
  5
843
330
2
100
AcDbEntity
  8
0
100
AcDbLine
 10
118.7195269980663
 20
127.074863145564
 30
0.0
 11
191.6395219980663
 21
127.074863145564
 31
0.0
  0
LINE
  5
844
330
2
100
AcDbEntity
  8
0
100
AcDbLine
 10
189.2195309980663
 20
51.07486314556405
 30
0.0
 11
118.7195269980663
 21
51.07486314556405
 31
0.0
  0
LINE
  5
845
330
2
100
AcDbEntity
  8
0
100
AcDbLine
 10
118.7195269980663
 20
119.323833145564
 30
0.0
 11
190.4695309980663
 21
119.323833145564
 31
0.0
  0
LINE
  5
846
330
2
100
AcDbEntity
  8
0
100
AcDbLine
 10
118.7195269980663
 20
58.82590314556404
 30
0.0
 11
190.7195309980663
 21
58.82590314556404
 31
0.0
  0
LINE
  5
847
330
2
100
AcDbEntity
  8
0
100
AcDbLine
 10
118.7195269980663
 20
119.323833145564
 30
0.0
 11
104.7195289980663
 21
119.323833145564
 31
0.0
  0
LINE
  5
848
330
2
100
AcDbEntity
  8
0
100
AcDbLine
 10
118.7195269980663
 20
58.82589314556406
 30
0.0
 11
104.7195289980663
 21
58.82589314556406
 31
0.0
  0
LINE
  5
849
330
2
100
AcDbEntity
  8
0
100
AcDbLine
 10
95.71922399806636
 20
51.47633514556407
 30
0.0
 11
118.7195269980663
 21
51.07486314556405
 31
0.0
  0
LINE
  5
84A
330
2
100
AcDbEntity
  8
0
100
AcDbLine
 10
93.71952899806638
 20
119.4026071455639
 30
0.0
 11
93.71952899806638
 21
52.77890514556401
 31
0.0
  0
LINE
  5
84B
330
2
100
AcDbEntity
  8
0
100
AcDbLine
 10
92.91952899806643
 20
53.92496814556404
 30
0.0
 11
92.91952899806643
 21
119.624760145564
 31
0.0
  0
ARC
  5
84C
330
2
100
AcDbEntity
  8
0
100
AcDbCircle
 10
94.71952899806638
 20
60.87743414556399
 30
0.0
 40
1.0
100
AcDbArc
 50
180.0
 51
255.0243839999991
  0
ARC
  5
84D
330
2
100
AcDbEntity
  8
0
100
AcDbCircle
 10
94.71952899806638
 20
52.77890514556401
 30
0.0
 40
1.0
100
AcDbArc
 50
180.0
 51
255.0243839999991
  0
ARC
  5
84E
330
2
100
AcDbEntity
  8
0
100
AcDbCircle
 10
93.21952899806637
 20
52.933584145564
 30
0.0
 40
0.5
100
AcDbArc
 50
0.0
 51
69.99999999999914
  0
LINE
  5
84F
330
2
100
AcDbEntity
  8
0
100
AcDbLine
 10
93.2485189980664
 20
53.45512114556408
 30
0.0
 11
93.39053899806641
 21
53.40343014556407
 31
0.0
  0
ARC
  5
850
330
2
100
AcDbEntity
  8
0
100
AcDbCircle
 10
93.41952899806642
 20
53.92496814556404
 30
0.0
 40
0.5
100
AcDbArc
 50
180.0
 51
249.9999999999991
  0
ARC
  5
851
330
2
100
AcDbEntity
  8
0
100
AcDbCircle
 10
105.2195289980663
 20
51.81058314556406
 30
0.0
 40
0.5
100
AcDbArc
 50
180.0
 51
268.9999999999998
  0
LINE
  5
852
330
2
100
AcDbEntity
  8
0
100
AcDbLine
 10
104.7195289980663
 20
58.57486314556405
 30
0.0
 11
104.7195289980663
 21
51.92845314556399
 31
0.0
  0
LINE
  5
853
330
2
100
AcDbEntity
  8
0
100
AcDbLine
 10
104.7195289980663
 20
58.69293314556404
 30
0.0
 11
104.7195289980663
 21
51.57486314556405
 31
0.0
  0
LINE
  5
854
330
2
100
AcDbEntity
  8
0
100
AcDbLine
 10
94.46112099806645
 20
59.91139814556408
 30
0.0
 11
95.71922399806636
 21
59.57486314556405
 31
0.0
  0
LINE
  5
855
330
2
100
AcDbEntity
  8
0
100
AcDbLine
 10
95.71922399806636
 20
59.57486314556405
 30
0.0
 11
103.7195289980663
 21
59.57486314556405
 31
0.0
  0
ARC
  5
856
330
2
100
AcDbEntity
  8
0
100
AcDbCircle
 10
110.1195189980664
 20
55.07486314556405
 30
0.0
 40
8.999999
100
AcDbArc
 50
163.3984990000014
 51
196.6009979999981
  0
ARC
  5
857
330
2
100
AcDbEntity
  8
0
100
AcDbCircle
 10
102.7405249980663
 20
52.87485314556403
 30
0.0
 40
1.3
100
AcDbArc
 50
196.6009059999969
 51
270.0
  0
LINE
  5
858
330
2
100
AcDbEntity
  8
0
100
AcDbLine
 10
94.46112099806645
 20
51.81286914556398
 30
0.0
 11
95.71922399806636
 21
51.47633514556407
 31
0.0
  0
LINE
  5
859
330
2
100
AcDbEntity
  8
0
100
AcDbLine
 10
103.7195289980663
 20
58.57486314556405
 30
0.0
 11
103.7195289980663
 21
51.57486314556405
 31
0.0
  0
ARC
  5
85A
330
2
100
AcDbEntity
  8
0
100
AcDbCircle
 10
102.7405249980663
 20
57.27484314556403
 30
0.0
 40
1.3
100
AcDbArc
 50
90.0
 51
163.3984070000009
  0
ARC
  5
85B
330
2
100
AcDbEntity
  8
0
100
AcDbCircle
 10
103.7195289980663
 20
58.57486314556405
 30
0.0
 40
1.0
100
AcDbArc
 50
0.0
 51
90.0
  0
LINE
  5
85C
330
2
100
AcDbEntity
  8
0
100
AcDbLine
 10
104.7195289980663
 20
51.57486314556405
 30
0.0
 11
102.7405249980663
 21
51.57486314556405
 31
0.0
  0
LINE
  5
85D
330
2
100
AcDbEntity
  8
0
100
AcDbLine
 10
104.7195289980663
 20
58.57486314556405
 30
0.0
 11
102.7405249980663
 21
58.57486314556405
 31
0.0
  0
ARC
  5
85E
330
2
100
AcDbEntity
  8
0
100
AcDbCircle
 10
94.71952899806638
 20
117.272289145564
 30
0.0
 40
1.0
100
AcDbArc
 50
104.975616
 51
180.0
  0
LINE
  5
85F
330
2
100
AcDbEntity
  8
0
100
AcDbLine
 10
86.21964899806631
 20
127.574863145564
 30
0.0
 11
103.7195289980663
 21
127.574863145564
 31
0.0
  0
LINE
  5
860
330
2
100
AcDbEntity
  8
0
100
AcDbLine
 10
93.2485189980664
 20
120.094608145564
 30
0.0
 11
93.38876899806633
 21
120.145657145564
 31
0.0
  0
ARC
  5
861
330
2
100
AcDbEntity
  8
0
100
AcDbCircle
 10
93.41952899806642
 20
119.624760145564
 30
0.0
 40
0.5
100
AcDbArc
 50
110.0000000000008
 51
180.0
  0
ARC
  5
862
330
2
100
AcDbEntity
  8
0
100
AcDbCircle
 10
92.71952899806638
 20
119.4026071455639
 30
0.0
 40
1.0
100
AcDbArc
 50
0.0
 51
88.50000000000054
  0
ARC
  5
863
330
2
100
AcDbEntity
  8
0
100
AcDbCircle
 10
88.21932899806643
 20
122.521481145564
 30
0.0
 40
2.0
100
AcDbArc
 50
180.0
 51
268.5000000000005
  0
LINE
  5
864
330
2
100
AcDbEntity
  8
0
100
AcDbLine
 10
88.16697499806627
 20
120.5221601455639
 30
0.0
 11
92.74570599806635
 21
120.402264145564
 31
0.0
  0
ARC
  5
865
330
2
100
AcDbEntity
  8
0
100
AcDbCircle
 10
104.2195289980663
 20
119.074863145564
 30
0.0
 40
0.5
100
AcDbArc
 50
270.0
 51
0.0
  0
LINE
  5
866
330
2
100
AcDbEntity
  8
0
100
AcDbLine
 10
104.7195289980663
 20
119.074863145564
 30
0.0
 11
104.7195289980663
 21
126.574863145564
 31
0.0
  0
ARC
  5
867
330
2
100
AcDbEntity
  8
0
100
AcDbCircle
 10
102.7405249980663
 20
125.274876145564
 30
0.0
 40
1.3
100
AcDbArc
 50
90.0
 51
163.399094000003
  0
ARC
  5
868
330
2
100
AcDbEntity
  8
0
100
AcDbCircle
 10
102.7405249980663
 20
120.874882145564
 30
0.0
 40
1.3
100
AcDbArc
 50
196.601592999999
 51
270.0
  0
LINE
  5
869
330
2
100
AcDbEntity
  8
0
100
AcDbLine
 10
94.46112099806645
 20
118.238331145564
 30
0.0
 11
95.71922399806636
 21
118.574863145564
 31
0.0
  0
LINE
  5
86A
330
2
100
AcDbEntity
  8
0
100
AcDbLine
 10
103.7195289980663
 20
119.574863145564
 30
0.0
 11
103.7195289980663
 21
126.574863145564
 31
0.0
  0
ARC
  5
86B
330
2
100
AcDbEntity
  8
0
100
AcDbCircle
 10
110.1195189980664
 20
123.074863145564
 30
0.0
 40
8.999999
100
AcDbArc
 50
163.3990020000018
 51
196.6015009999986
  0
ARC
  5
86C
330
2
100
AcDbEntity
  8
0
100
AcDbCircle
 10
103.7195289980663
 20
126.574863145564
 30
0.0
 40
1.0
100
AcDbArc
 50
0.0
 51
90.0
  0
LINE
  5
86D
330
2
100
AcDbEntity
  8
0
100
AcDbLine
 10
104.7195289980663
 20
119.574863145564
 30
0.0
 11
102.7405249980663
 21
119.574863145564
 31
0.0
  0
LINE
  5
86E
330
2
100
AcDbEntity
  8
0
100
AcDbLine
 10
104.7195289980663
 20
126.574863145564
 30
0.0
 11
102.7405249980663
 21
126.574863145564
 31
0.0
  0
LINE
  5
86F
330
2
100
AcDbEntity
  8
0
100
AcDbLine
 10
104.2195289980663
 20
118.574863145564
 30
0.0
 11
95.71922399806636
 21
118.574863145564
 31
0.0
  0
LINE
  5
871
330
2
100
AcDbEntity
  8
0
100
AcDbLine
 10
118.7195269980663
 20
51.074883145564
 30
0.0
 11
118.7195269980663
 21
127.074863145564
 31
0.0
  0
LINE
  5
872
330
2
100
AcDbEntity
  8
0
100
AcDbLine
 10
117.1933179980662
 20
127.114841145564
 30
0.0
 11
118.7195269980663
 21
127.074863145564
 31
0.0
  0
ARC
  5
873
330
2
100
AcDbEntity
  8
0
100
AcDbCircle
 10
117.2195289980663
 20
128.1144751455639
 30
0.0
 40
1.0
100
AcDbArc
 50
180.0
 51
268.4999080000003
  0
ARC
  5
876
330
2
100
AcDbEntity
  8
0
100
AcDbCircle
 10
233.7195239980662
 20
111.3748661455639
 30
0.0
 40
7.5
100
AcDbArc
 50
19.47120100000065
 51
340.5288089999991
  0
LINE
  5
877
330
2
100
AcDbEntity
  8
0
100
AcDbLine
 10
201.7195309980663
 20
47.37486314556401
 30
0.0
 11
265.7195239980662
 21
47.37486314556401
 31
0.0
  0
ARC
  5
878
330
2
100
AcDbEntity
  8
0
100
AcDbCircle
 10
233.7195239980662
 20
98.374863145564
 30
0.0
 40
42.5
100
AcDbArc
 50
199.7498930000018
 51
340.2500920000017
  0
LINE
  5
879
330
2
100
AcDbEntity
  8
CENTER
100
AcDbLine
 10
206.7195239980662
 20
111.3748661455639
 30
0.0
 11
260.7195239980662
 21
111.3748661455639
 31
0.0
  0
LINE
  5
87A
330
2
100
AcDbEntity
  8
0
100
AcDbLine
 10
213.7195239980662
 20
51.37486314556401
 30
0.0
 11
253.7195239980662
 21
51.37486314556401
 31
0.0
  0
LINE
  5
87B
330
2
100
AcDbEntity
  8
0
100
AcDbLine
 10
222.0403239980662
 20
75.26578314556406
 30
0.0
 11
222.7716319980663
 21
74.49547414556406
 31
0.0
  0
ARC
  5
87C
330
2
100
AcDbEntity
  8
0
100
AcDbCircle
 10
224.4309339980663
 20
76.48765214556402
 30
0.0
 40
1.992186999999999
100
AcDbArc
 50
270.000213999999
 51
0.0001090000031536
  0
LINE
  5
87D
330
2
100
AcDbEntity
  8
0
100
AcDbLine
 10
227.3445239980663
 20
78.92809314556399
 30
0.0
 11
227.3445239980663
 21
73.374863145564
 31
0.0
  0
LINE
  5
87E
330
2
100
AcDbEntity
  8
0
100
AcDbLine
 10
220.9695239980662
 20
81.45536414556403
 30
0.0
 11
220.9695239980662
 21
74.615723145564
 31
0.0
  0
LINE
  5
87F
330
2
100
AcDbEntity
  8
0
100
AcDbLine
 10
193.7700609980663
 20
83.30694214556405
 30
0.0
 11
196.0944009980664
 21
66.70437214556404
 31
0.0
  0
LINE
  5
880
330
2
100
AcDbEntity
  8
0
100
AcDbLine
 10
191.2195309980663
 20
124.074863145564
 30
0.0
 11
191.2195309980663
 21
72.67486414556407
 31
0.0
  0
LINE
  5
881
330
2
100
AcDbEntity
  8
CENTER
100
AcDbLine
 10
195.8758199980661
 20
55.37486414556378
 30
0.0
 11
207.5632279980664
 21
55.37486414556378
 31
0.0
  0
ARC
  5
882
330
2
100
AcDbEntity
  8
0
100
AcDbCircle
 10
200.0557279980664
 20
67.258963145564
 30
0.0
 40
4.0
100
AcDbArc
 50
187.9696960000021
 51
277.9697569999993
  0
CIRCLE
  5
883
330
2
100
AcDbEntity
  8
0
100
AcDbCircle
 10
201.7195309980663
 20
55.374863145564
 30
0.0
 40
3.25
  0
ARC
  5
884
330
2
100
AcDbEntity
  8
0
100
AcDbCircle
 10
201.7195309980663
 20
55.374863145564
 30
0.0
 40
8.0
100
AcDbArc
 50
187.9696039999989
 51
270.0
  0
ARC
  5
885
330
2
100
AcDbEntity
  8
0
100
AcDbCircle
 10
189.2195309980663
 20
53.07486314556405
 30
0.0
 40
2.0
100
AcDbArc
 50
270.0
 51
0.0
  0
LINE
  5
886
330
2
100
AcDbEntity
  8
0
100
AcDbLine
 10
191.2195309980663
 20
53.07486314556405
 30
0.0
 11
191.2195309980663
 21
59.07487314556402
 31
0.0
  0
LINE
  5
887
330
2
100
AcDbEntity
  8
0
100
AcDbLine
 10
193.7968019980664
 20
54.26566314556402
 30
0.0
 11
191.2195309980663
 21
72.67486414556407
 31
0.0
  0
ARC
  5
888
330
2
100
AcDbEntity
  8
0
100
AcDbCircle
 10
196.2195459980664
 20
59.074883145564
 30
0.0
 40
5.0
100
AcDbArc
 50
135.7928010000007
 51
180.0
  0
LINE
  5
889
330
2
100
AcDbEntity
  8
CENTER
100
AcDbLine
 10
201.7195239980662
 20
49.53116014556366
 30
0.0
 11
201.7195239980662
 21
61.21856814556389
 31
0.0
  0
ARC
  5
88A
330
2
100
AcDbEntity
  8
0
100
AcDbCircle
 10
213.7195239980662
 20
55.374863145564
 30
0.0
 40
4.0
100
AcDbArc
 50
180.0
 51
270.0
  0
ARC
  5
88B
330
2
100
AcDbEntity
  8
0
100
AcDbCircle
 10
201.7195309980663
 20
55.374863145564
 30
0.0
 40
8.0
100
AcDbArc
 50
0.0
 51
97.96981800000077
  0
LINE
  5
88C
330
2
100
AcDbEntity
  8
0
100
AcDbLine
 10
224.4309339980663
 20
74.49547414556406
 30
0.0
 11
222.7716319980663
 21
74.49547414556406
 31
0.0
  0
LINE
  5
88D
330
2
100
AcDbEntity
  8
0
100
AcDbLine
 10
226.4231219980663
 20
73.374863145564
 30
0.0
 11
227.3445239980663
 21
73.374863145564
 31
0.0
  0
LINE
  5
88E
330
2
100
AcDbEntity
  8
0
100
AcDbLine
 10
222.1993359980663
 20
73.374863145564
 30
0.0
 11
225.5146279980665
 21
73.374863145564
 31
0.0
  0
LINE
  5
88F
330
2
100
AcDbEntity
  8
0
100
AcDbLine
 10
226.4231219980663
 20
74.13712314556409
 30
0.0
 11
226.4231219980663
 21
73.374863145564
 31
0.0
  0
LINE
  5
890
330
2
100
AcDbEntity
  8
0
100
AcDbLine
 10
226.4231219980663
 20
74.13712314556409
 30
0.0
 11
225.5146279980665
 21
73.374863145564
 31
0.0
  0
LINE
  5
891
330
2
100
AcDbEntity
  8
0
100
AcDbLine
 10
220.9695239980662
 20
74.615723145564
 30
0.0
 11
222.1993359980663
 21
73.374863145564
 31
0.0
  0
LINE
  5
892
330
2
100
AcDbEntity
  8
0
100
AcDbLine
 10
193.7195309980663
 20
112.736134145564
 30
0.0
 11
193.7195309980663
 21
84.01332514556401
 31
0.0
  0
LINE
  5
894
330
2
100
AcDbEntity
  8
0
100
AcDbLine
 10
226.4231219980663
 20
81.09589814556404
 30
0.0
 11
225.8199259980663
 21
81.66734714556406
 31
0.0
  0
LINE
  5
895
330
2
100
AcDbEntity
  8
0
100
AcDbLine
 10
226.4135239980662
 20
82.93736614556399
 30
0.0
 11
227.3445239980663
 21
81.90422414556399
 31
0.0
  0
LINE
  5
896
330
2
100
AcDbEntity
  8
0
100
AcDbLine
 10
226.4231219980663
 20
80.94517914556405
 30
0.0
 11
227.3445239980663
 21
80.94517914556405
 31
0.0
  0
LINE
  5
897
330
2
100
AcDbEntity
  8
0
100
AcDbLine
 10
227.3445239980663
 20
81.90422414556399
 30
0.0
 11
227.3445239980663
 21
80.94517914556405
 31
0.0
  0
LINE
  5
898
330
2
100
AcDbEntity
  8
0
100
AcDbLine
 10
226.4231219980663
 20
81.09589814556404
 30
0.0
 11
226.4231219980663
 21
80.94517914556405
 31
0.0
  0
LINE
  5
899
330
2
100
AcDbEntity
  8
0
100
AcDbLine
 10
222.7601269980664
 20
81.66734714556406
 30
0.0
 11
222.0403239980662
 21
80.77483714556406
 31
0.0
  0
LINE
  5
89A
330
2
100
AcDbEntity
  8
0
100
AcDbLine
 10
225.8320269980663
 20
81.66734714556406
 30
0.0
 11
222.7601269980664
 21
81.66734714556406
 31
0.0
  0
LINE
  5
89B
330
2
100
AcDbEntity
  8
0
100
AcDbLine
 10
222.1269329980664
 20
82.93736614556399
 30
0.0
 11
226.4135239980662
 21
82.93736614556399
 31
0.0
  0
LINE
  5
89C
330
2
100
AcDbEntity
  8
0
100
AcDbLine
 10
226.4231219980663
 20
76.88609314556408
 30
0.0
 11
226.4231219980663
 21
77.68297214556406
 31
0.0
  0
LINE
  5
89D
330
2
100
AcDbEntity
  8
0
100
AcDbLine
 10
226.4231219980663
 20
77.88219514556402
 30
0.0
 11
226.4231219980663
 21
76.48765214556402
 31
0.0
  0
LINE
  5
89E
330
2
100
AcDbEntity
  8
0
100
AcDbLine
 10
224.7547259980663
 20
78.92809314556399
 30
0.0
 11
224.7547259980663
 21
77.88219514556402
 31
0.0
  0
LINE
  5
89F
330
2
100
AcDbEntity
  8
0
100
AcDbLine
 10
226.4231219980663
 20
77.88219514556402
 30
0.0
 11
224.7547259980663
 21
77.88219514556402
 31
0.0
  0
LINE
  5
8A0
330
2
100
AcDbEntity
  8
0
100
AcDbLine
 10
224.7547259980663
 20
78.92809314556399
 30
0.0
 11
227.3445239980663
 21
78.92809314556399
 31
0.0
  0
LINE
  5
8A1
330
2
100
AcDbEntity
  8
0
100
AcDbLine
 10
222.0403239980662
 20
80.77483714556406
 30
0.0
 11
222.0403239980662
 21
75.26578314556406
 31
0.0
  0
LINE
  5
8A2
330
2
100
AcDbEntity
  8
0
100
AcDbLine
 10
222.1269329980664
 20
82.93736614556399
 30
0.0
 11
220.9695239980662
 21
81.45536414556403
 31
0.0
  0
LINE
  5
8A3
330
2
100
AcDbEntity
  8
0
100
AcDbLine
 10
273.7219339980663
 20
83.68459714556406
 30
0.0
 11
271.3446299980662
 21
66.70436314556406
 31
0.0
  0
LINE
  5
8A4
330
2
100
AcDbEntity
  8
0
100
AcDbLine
 10
276.2195239980662
 20
124.074863145564
 30
0.0
 11
276.2195239980662
 21
72.67487314556404
 31
0.0
  0
LINE
  5
8A5
330
2
100
AcDbEntity
  8
0
100
AcDbLine
 10
244.6213329980664
 20
77.93148414556407
 30
0.0
 11
246.2012279980665
 21
74.37096214556408
 31
0.0
  0
LINE
  5
8A6
330
2
100
AcDbEntity
  8
0
100
AcDbLine
 10
243.7038219980663
 20
77.844833145564
 30
0.0
 11
245.1988329980663
 21
74.37096214556408
 31
0.0
  0
LINE
  5
8A7
330
2
100
AcDbEntity
  8
0
100
AcDbLine
 10
241.6633249980664
 20
77.844833145564
 30
0.0
 11
241.6633249980664
 21
74.37096214556408
 31
0.0
  0
LINE
  5
8A8
330
2
100
AcDbEntity
  8
0
100
AcDbLine
 10
240.5676219980664
 20
81.76695614556406
 30
0.0
 11
240.5676219980664
 21
74.37096214556408
 31
0.0
  0
LINE
  5
8A9
330
2
100
AcDbEntity
  8
0
100
AcDbLine
 10
233.0969339980663
 20
81.76695614556406
 30
0.0
 11
233.0969339980663
 21
74.42076314556408
 31
0.0
  0
LINE
  5
8AA
330
2
100
AcDbEntity
  8
0
100
AcDbLine
 10
234.2923229980663
 20
81.76695614556406
 30
0.0
 11
234.2923229980663
 21
74.42076314556408
 31
0.0
  0
ARC
  5
8AB
330
2
100
AcDbEntity
  8
0
100
AcDbCircle
 10
265.7195239980662
 20
55.374863145564
 30
0.0
 40
8.0
100
AcDbArc
 50
82.03035000000118
 51
180.0
  0
LINE
  5
8AC
330
2
100
AcDbEntity
  8
0
100
AcDbLine
 10
240.0945239980663
 20
74.37096214556408
 30
0.0
 11
240.5676219980664
 21
74.37096214556408
 31
0.0
  0
LINE
  5
8AD
330
2
100
AcDbEntity
  8
0
100
AcDbLine
 10
241.6633249980664
 20
74.37096214556408
 30
0.0
 11
242.0991319980664
 21
74.37096214556408
 31
0.0
  0
LINE
  5
8AE
330
2
100
AcDbEntity
  8
0
100
AcDbLine
 10
242.0991319980664
 20
73.374863145564
 30
0.0
 11
240.0945239980663
 21
73.374863145564
 31
0.0
  0
LINE
  5
8AF
330
2
100
AcDbEntity
  8
0
100
AcDbLine
 10
242.0991319980664
 20
74.37096214556408
 30
0.0
 11
242.0991319980664
 21
73.374863145564
 31
0.0
  0
LINE
  5
8B0
330
2
100
AcDbEntity
  8
0
100
AcDbLine
 10
240.0945239980663
 20
74.37096214556408
 30
0.0
 11
240.0945239980663
 21
73.374863145564
 31
0.0
  0
LINE
  5
8B1
330
2
100
AcDbEntity
  8
0
100
AcDbLine
 10
234.2923229980663
 20
74.42076314556408
 30
0.0
 11
234.6907299980664
 21
74.42076314556408
 31
0.0
  0
LINE
  5
8B2
330
2
100
AcDbEntity
  8
0
100
AcDbLine
 10
232.6238359980663
 20
74.42076314556408
 30
0.0
 11
233.0969339980663
 21
74.42076314556408
 31
0.0
  0
LINE
  5
8B3
330
2
100
AcDbEntity
  8
0
100
AcDbLine
 10
232.6238359980663
 20
73.374863145564
 30
0.0
 11
234.6907299980664
 21
73.374863145564
 31
0.0
  0
LINE
  5
8B4
330
2
100
AcDbEntity
  8
0
100
AcDbLine
 10
232.6238359980663
 20
74.42076314556408
 30
0.0
 11
232.6238359980663
 21
73.374863145564
 31
0.0
  0
LINE
  5
8B5
330
2
100
AcDbEntity
  8
0
100
AcDbLine
 10
234.6907299980664
 20
74.42076314556408
 30
0.0
 11
234.6907299980664
 21
73.374863145564
 31
0.0
  0
ARC
  5
8B6
330
2
100
AcDbEntity
  8
0
100
AcDbCircle
 10
253.7195239980662
 20
55.374863145564
 30
0.0
 40
4.0
100
AcDbArc
 50
270.0
 51
0.0
  0
LINE
  5
8B7
330
2
100
AcDbEntity
  8
0
100
AcDbLine
 10
245.0003309980663
 20
74.37096214556408
 30
0.0
 11
245.1988329980663
 21
74.37096214556408
 31
0.0
  0
LINE
  5
8B8
330
2
100
AcDbEntity
  8
0
100
AcDbLine
 10
246.2012279980665
 20
74.37096214556408
 30
0.0
 11
246.4695239980662
 21
74.37096214556408
 31
0.0
  0
LINE
  5
8B9
330
2
100
AcDbEntity
  8
0
100
AcDbLine
 10
245.0003309980663
 20
73.374863145564
 30
0.0
 11
246.4695239980662
 21
73.374863145564
 31
0.0
  0
LINE
  5
8BA
330
2
100
AcDbEntity
  8
0
100
AcDbLine
 10
246.4695239980662
 20
74.37096214556408
 30
0.0
 11
246.4695239980662
 21
73.374863145564
 31
0.0
  0
LINE
  5
8BB
330
2
100
AcDbEntity
  8
0
100
AcDbLine
 10
245.0003309980663
 20
74.37096214556408
 30
0.0
 11
245.0003309980663
 21
73.374863145564
 31
0.0
  0
ARC
  5
8BC
330
2
100
AcDbEntity
  8
0
100
AcDbCircle
 10
265.7195239980662
 20
55.374863145564
 30
0.0
 40
8.0
100
AcDbArc
 50
270.0
 51
352.0303039999978
  0
LINE
  5
8BD
330
2
100
AcDbEntity
  8
0
100
AcDbLine
 10
273.6422219980663
 20
54.26574314556404
 30
0.0
 11
276.2195239980662
 21
72.67487314556404
 31
0.0
  0
LINE
  5
8BE
330
2
100
AcDbEntity
  8
CENTER
100
AcDbLine
 10
259.8758199980661
 20
55.37486414556378
 30
0.0
 11
271.5632279980663
 21
55.37486414556378
 31
0.0
  0
LINE
  5
8BF
330
2
100
AcDbEntity
  8
CENTER
100
AcDbLine
 10
265.7195239980662
 20
49.53116014556366
 30
0.0
 11
265.7195239980662
 21
61.21856814556389
 31
0.0
  0
ARC
  5
8C0
330
2
100
AcDbEntity
  8
0
100
AcDbCircle
 10
267.3833269980664
 20
67.258963145564
 30
0.0
 40
4.0
100
AcDbArc
 50
262.0302430000005
 51
352.030298999998
  0
CIRCLE
  5
8C1
330
2
100
AcDbEntity
  8
0
100
AcDbCircle
 10
265.7195239980662
 20
55.374863145564
 30
0.0
 40
3.25
  0
LINE
  5
8C2
330
2
100
AcDbEntity
  8
0
100
AcDbLine
 10
241.6633249980664
 20
81.76695614556406
 30
0.0
 11
244.6382249980663
 21
81.76501114556407
 31
0.0
  0
LINE
  5
8C3
330
2
100
AcDbEntity
  8
0
100
AcDbLine
 10
241.6633249980664
 20
78.84070214556408
 30
0.0
 11
244.1180219980663
 21
78.84070214556408
 31
0.0
  0
ARC
  5
8C4
330
2
100
AcDbEntity
  8
0
100
AcDbCircle
 10
243.9170329980663
 20
80.38487614556407
 30
0.0
 40
2.55249
100
AcDbArc
 50
286.0181270000005
 51
90.00351000000046
  0
LINE
  5
8C5
330
2
100
AcDbEntity
  8
0
100
AcDbLine
 10
240.0945239980663
 20
82.93736614556399
 30
0.0
 11
240.0945239980663
 21
81.76695614556406
 31
0.0
  0
LINE
  5
8C6
330
2
100
AcDbEntity
  8
0
100
AcDbLine
 10
240.0945239980663
 20
81.76695614556406
 30
0.0
 11
240.5676219980664
 21
81.76695614556406
 31
0.0
  0
LINE
  5
8C7
330
2
100
AcDbEntity
  8
0
100
AcDbLine
 10
236.9070239980662
 20
80.94517914556405
 30
0.0
 11
236.9070239980662
 21
82.93736614556399
 31
0.0
  0
LINE
  5
8C8
330
2
100
AcDbEntity
  8
0
100
AcDbLine
 10
236.2420299980665
 20
80.94517914556405
 30
0.0
 11
236.9070239980662
 21
80.94517914556405
 31
0.0
  0
LINE
  5
8C9
330
2
100
AcDbEntity
  8
0
100
AcDbLine
 10
240.0945239980663
 20
82.93736614556399
 30
0.0
 11
243.9170329980663
 21
82.93736614556399
 31
0.0
  0
LINE
  5
8CA
330
2
100
AcDbEntity
  8
0
100
AcDbLine
 10
241.6633249980664
 20
77.844833145564
 30
0.0
 11
243.7038219980663
 21
77.844833145564
 31
0.0
  0
LINE
  5
8CB
330
2
100
AcDbEntity
  8
0
100
AcDbLine
 10
241.6633249980664
 20
81.76695614556406
 30
0.0
 11
241.6633249980664
 21
78.84070214556408
 31
0.0
  0
LINE
  5
8CC
330
2
100
AcDbEntity
  8
0
100
AcDbLine
 10
234.2923229980663
 20
81.76695614556406
 30
0.0
 11
235.9533339980664
 21
81.76695614556406
 31
0.0
  0
LINE
  5
8CD
330
2
100
AcDbEntity
  8
0
100
AcDbLine
 10
230.5320239980662
 20
80.94517914556405
 30
0.0
 11
230.5320239980662
 21
82.93736614556399
 31
0.0
  0
LINE
  5
8CE
330
2
100
AcDbEntity
  8
0
100
AcDbLine
 10
230.5320239980662
 20
80.94517914556405
 30
0.0
 11
231.2396349980665
 21
80.94517914556405
 31
0.0
  0
LINE
  5
8CF
330
2
100
AcDbEntity
  8
0
100
AcDbLine
 10
231.5820269980663
 20
81.76695614556406
 30
0.0
 11
231.2396349980665
 21
80.94517914556405
 31
0.0
  0
LINE
  5
8D0
330
2
100
AcDbEntity
  8
0
100
AcDbLine
 10
233.0969339980663
 20
81.76695614556406
 30
0.0
 11
231.5820269980663
 21
81.76695614556406
 31
0.0
  0
LINE
  5
8D1
330
2
100
AcDbEntity
  8
0
100
AcDbLine
 10
230.5320239980662
 20
82.93736614556399
 30
0.0
 11
236.9070239980662
 21
82.93736614556399
 31
0.0
  0
LINE
  5
8D2
330
2
100
AcDbEntity
  8
0
100
AcDbLine
 10
235.9533339980664
 20
81.76695614556406
 30
0.0
 11
236.2420299980665
 21
80.94517914556405
 31
0.0
  0
ARC
  5
8D3
330
2
100
AcDbEntity
  8
0
100
AcDbCircle
 10
243.9170329980663
 20
80.38487614556407
 30
0.0
 40
1.557193
100
AcDbArc
 50
277.4147260000004
 51
62.41184999999696
  0
LINE
  5
8D4
330
2
100
AcDbEntity
  8
0
100
AcDbLine
 10
238.2195239980662
 20
113.8748661455639
 30
0.0
 11
243.2195239980663
 21
113.8748661455639
 31
0.0
  0
LINE
  5
8D5
330
2
100
AcDbEntity
  8
0
100
AcDbLine
 10
238.2195239980662
 20
108.874866145564
 30
0.0
 11
243.2195239980663
 21
108.874866145564
 31
0.0
  0
LINE
  5
8D6
330
2
100
AcDbEntity
  8
0
100
AcDbLine
 10
243.2195239980663
 20
113.8748661455639
 30
0.0
 11
243.2195239980663
 21
108.874866145564
 31
0.0
  0
LINE
  5
8D7
330
2
100
AcDbEntity
  8
0
100
AcDbLine
 10
238.2195239980662
 20
108.874866145564
 30
0.0
 11
238.2195239980662
 21
113.8748661455639
 31
0.0
  0
LINE
  5
8D8
330
2
100
AcDbEntity
  8
0
100
AcDbLine
 10
273.7195239980662
 20
112.736263145564
 30
0.0
 11
273.7195239980662
 21
84.01372514556403
 31
0.0
  0
LINE
  5
8D9
330
2
100
AcDbEntity
  8
HIDS
100
AcDbLine
 10
397.4932607667708
 20
126.707760145564
 30
0.0
 11
418.5281727667709
 21
127.074863145564
 31
0.0
  0
LINE
  5
8DA
330
2
100
AcDbEntity
  8
0
100
AcDbLine
 10
391.0291797667707
 20
124.074863145564
 30
0.0
 11
447.5594837667708
 21
124.074863145564
 31
0.0
  0
LINE
  5
8DB
330
2
100
AcDbEntity
  8
0
100
AcDbLine
 10
390.5281727667709
 20
72.674892145564
 30
0.0
 11
448.0906727667709
 21
72.674892145564
 31
0.0
  0
LINE
  5
8DC
330
2
100
AcDbEntity
  8
0
100
AcDbLine
 10
397.5281727667709
 20
51.07489314556409
 30
0.0
 11
439.5281727667708
 21
51.07489314556409
 31
0.0
  0
LINE
  5
8DD
330
2
100
AcDbEntity
  8
CENTER
100
AcDbLine
 10
347.5281727667709
 20
111.3748661455639
 30
0.0
 11
460.5281727667708
 21
111.3748661455639
 31
0.0
  0
LINE
  5
8DE
330
2
100
AcDbEntity
  8
0
100
AcDbLine
 10
447.563084766771
 20
53.32312314556401
 30
0.0
 11
389.4932607667708
 21
52.309303145564
 31
0.0
  0
LINE
  5
8DF
330
2
100
AcDbEntity
  8
CENTER
100
AcDbLine
 10
371.5281727667709
 20
89.07486314556406
 30
0.0
 11
463.5281727667709
 21
89.07486314556406
 31
0.0
  0
LINE
  5
8E2
330
2
100
AcDbEntity
  8
0
100
AcDbLine
 10
381.5281727667709
 20
118.8748661455639
 30
0.0
 11
354.5281727667709
 21
118.8748661455639
 31
0.0
  0
LINE
  5
8E3
330
2
100
AcDbEntity
  8
0
100
AcDbLine
 10
381.5281727667709
 20
103.874863145564
 30
0.0
 11
354.5281727667709
 21
103.874863145564
 31
0.0
  0
LINE
  5
8E4
330
2
100
AcDbEntity
  8
0
100
AcDbLine
 10
376.0281727667709
 20
108.874866145564
 30
0.0
 11
354.5281727667709
 21
108.874866145564
 31
0.0
  0
LINE
  5
8E5
330
2
100
AcDbEntity
  8
0
100
AcDbLine
 10
376.0281727667709
 20
113.8748661455639
 30
0.0
 11
354.5281727667709
 21
113.8748661455639
 31
0.0
  0
LINE
  5
8E6
330
2
100
AcDbEntity
  8
0
100
AcDbLine
 10
354.5281727667709
 20
103.874863145564
 30
0.0
 11
354.5281727667709
 21
118.8748661455639
 31
0.0
  0
LINE
  5
8E7
330
2
100
AcDbEntity
  8
0
100
AcDbLine
 10
378.5281727667709
 20
47.37489314556404
 30
0.0
 11
378.5281727667709
 21
103.874863145564
 31
0.0
  0
ARC
  5
8E8
330
2
100
AcDbEntity
  8
HIDS
100
AcDbCircle
 10
418.5281727667709
 20
89.07486314556406
 30
0.0
 40
38.0
100
AcDbArc
 50
129.3567049999989
 51
230.643295000001
  0
LINE
  5
8EA
330
2
100
AcDbEntity
  8
HIDS
  6
SEKKEI_H
100
AcDbLine
 10
378.5281727667709
 20
58.62489314556404
 30
0.0
 11
387.5281727667709
 21
58.62489314556404
 31
0.0
  0
LINE
  5
8EB
330
2
100
AcDbEntity
  8
0
100
AcDbLine
 10
385.9934737667708
 20
47.37489314556404
 30
0.0
 11
378.5281727667709
 21
47.37489314556404
 31
0.0
  0
LINE
  5
8EC
330
2
100
AcDbEntity
  8
HIDS
  6
SEKKEI_H
100
AcDbLine
 10
378.5281727667709
 20
52.12489314556404
 30
0.0
 11
387.5281727667709
 21
52.12489314556404
 31
0.0
  0
LINE
  5
8ED
330
2
100
AcDbEntity
  8
CENTER
100
AcDbLine
 10
375.0281727667709
 20
55.37489314556404
 30
0.0
 11
391.0281727667709
 21
55.37489314556416
 31
0.0
  0
ARC
  5
8EE
330
2
100
AcDbEntity
  8
0
100
AcDbCircle
 10
386.0281727667709
 20
48.87489314556404
 30
0.0
 40
1.5
100
AcDbArc
 50
270.0
 51
0.0
  0
ARC
  5
8EF
330
2
100
AcDbEntity
  8
0
100
AcDbCircle
 10
385.9934737667708
 20
49.37489314556405
 30
0.0
 40
2.0
100
AcDbArc
 50
270.0
 51
345.0000920000023
  0
LINE
  5
8F0
330
2
100
AcDbEntity
  8
HIDS
100
AcDbLine
 10
395.5281727667709
 20
53.07489314556398
 30
0.0
 11
395.5281727667709
 21
57.37316314556409
 31
0.0
  0
ARC
  5
8F1
330
2
100
AcDbEntity
  8
HIDS
100
AcDbCircle
 10
397.5281727667709
 20
53.07489314556398
 30
0.0
 40
2.0
100
AcDbArc
 50
180.0
 51
199.2167049999971
  0
ARC
  5
8F2
330
2
100
AcDbEntity
  8
0
100
AcDbCircle
 10
397.5281727667709
 20
53.07489314556398
 30
0.0
 40
2.0
100
AcDbArc
 50
199.2167049999971
 51
270.0
  0
ARC
  5
8F3
330
2
100
AcDbEntity
  8
HIDS
100
AcDbCircle
 10
392.5281727667709
 20
57.37316314556409
 30
0.0
 40
3.0
100
AcDbArc
 50
0.0
 51
50.64329899999686
  0
LINE
  5
8F4
330
2
100
AcDbEntity
  8
0
100
AcDbLine
 10
387.9253587667708
 20
48.85725314556402
 30
0.0
 11
388.2621807667708
 21
50.11438314556397
 31
0.0
  0
ARC
  5
8F5
330
2
100
AcDbEntity
  8
0
100
AcDbCircle
 10
389.5281727667709
 20
50.30962314556399
 30
0.0
 40
2.0
100
AcDbArc
 50
91.00064100000045
 51
180.0
  0
LINE
  5
8F6
330
2
100
AcDbEntity
  8
0
100
AcDbLine
 10
387.5281727667709
 20
69.67491314556406
 30
0.0
 11
387.5281727667709
 21
48.87489314556404
 31
0.0
  0
ARC
  5
8F7
330
2
100
AcDbEntity
  8
0
100
AcDbCircle
 10
390.5281727667709
 20
69.67491314556406
 30
0.0
 40
3.0
100
AcDbArc
 50
90.0
 51
180.0
  0
ARC
  5
8F8
330
2
100
AcDbEntity
  8
0
100
AcDbCircle
 10
391.1599777667709
 20
49.33796314556406
 30
0.0
 40
3.0
100
AcDbArc
 50
91.00048799999918
 51
165.0003969999997
  0
LINE
  5
8F9
330
2
100
AcDbEntity
  8
0
100
AcDbLine
 10
384.5281727667709
 20
91.37486314556401
 30
0.0
 11
385.5281727667709
 21
91.37486314556401
 31
0.0
  0
ARC
  5
8FA
330
2
100
AcDbEntity
  8
0
100
AcDbCircle
 10
384.5281727667709
 20
92.37486314556401
 30
0.0
 40
1.0
100
AcDbArc
 50
180.0
 51
270.0
  0
LINE
  5
8FB
330
2
100
AcDbEntity
  8
0
100
AcDbLine
 10
381.5281727667709
 20
119.8748661455639
 30
0.0
 11
383.5281727667709
 21
119.8748661455639
 31
0.0
  0
ARC
  5
8FC
330
2
100
AcDbEntity
  8
0
100
AcDbCircle
 10
376.0281727667709
 20
111.3748661455639
 30
0.0
 40
2.5
100
AcDbArc
 50
270.0
 51
0.0
  0
LINE
  5
8FD
330
2
100
AcDbEntity
  8
0
100
AcDbLine
 10
381.5281727667709
 20
102.8748631455639
 30
0.0
 11
383.5281727667709
 21
102.8748631455639
 31
0.0
  0
LINE
  5
8FE
330
2
100
AcDbEntity
  8
0
100
AcDbLine
 10
381.5281727667709
 20
119.8748661455639
 30
0.0
 11
381.5281727667709
 21
102.8748631455639
 31
0.0
  0
ARC
  5
8FF
330
2
100
AcDbEntity
  8
0
100
AcDbCircle
 10
376.0281727667709
 20
111.3748661455639
 30
0.0
 40
2.5
100
AcDbArc
 50
0.0
 51
90.0
  0
LINE
  5
900
330
2
100
AcDbEntity
  8
0
100
AcDbLine
 10
376.0281727667709
 20
113.8748661455639
 30
0.0
 11
376.0281727667709
 21
108.874866145564
 31
0.0
  0
ARC
  5
901
330
2
100
AcDbEntity
  8
HIDS
100
AcDbCircle
 10
397.5281727667709
 20
124.708065145564
 30
0.0
 40
2.0
100
AcDbArc
 50
90.99986300000075
 51
180.0
  0
ARC
  5
902
330
2
100
AcDbEntity
  8
HIDS
100
AcDbCircle
 10
392.5281727667709
 20
120.776661145564
 30
0.0
 40
3.0
100
AcDbArc
 50
309.3567010000031
 51
0.0
  0
LINE
  5
903
330
2
100
AcDbEntity
  8
HIDS
100
AcDbLine
 10
395.5281727667709
 20
124.708065145564
 30
0.0
 11
395.5281727667709
 21
120.776661145564
 31
0.0
  0
ARC
  5
904
330
2
100
AcDbEntity
  8
0
100
AcDbCircle
 10
418.5281727667709
 20
89.07486314556406
 30
0.0
 40
38.0
100
AcDbArc
 50
324.6655009999977
 51
22.9195399999983
  0
ARC
  5
905
330
2
100
AcDbEntity
  8
HIDS
100
AcDbCircle
 10
418.5281727667709
 20
89.07486314556406
 30
0.0
 40
38.0
100
AcDbArc
 50
309.3567010000031
 51
324.6655009999977
  0
LINE
  5
906
330
2
100
AcDbEntity
  8
0
100
AcDbLine
 10
441.5281727667709
 20
53.07489314556398
 30
0.0
 11
441.5281727667709
 21
53.21776314556399
 31
0.0
  0
LINE
  5
907
330
2
100
AcDbEntity
  8
HIDS
100
AcDbLine
 10
441.5281727667709
 20
53.21776314556399
 30
0.0
 11
441.5281727667709
 21
57.37316314556409
 31
0.0
  0
ARC
  5
908
330
2
100
AcDbEntity
  8
0
100
AcDbCircle
 10
439.5281727667708
 20
53.07489314556398
 30
0.0
 40
2.0
100
AcDbArc
 50
270.0
 51
0.0
  0
ARC
  5
909
330
2
100
AcDbEntity
  8
HIDS
100
AcDbCircle
 10
444.5281727667709
 20
57.37316314556409
 30
0.0
 40
3.0
100
AcDbArc
 50
129.3567049999989
 51
180.0
  0
ARC
  5
90A
330
2
100
AcDbEntity
  8
0
100
AcDbCircle
 10
447.5281727667709
 20
55.32281314556399
 30
0.0
 40
2.0
100
AcDbArc
 50
271.0003660000003
 51
0.0
  0
ARC
  5
90B
330
2
100
AcDbEntity
  8
HIDS
100
AcDbCircle
 10
418.5281727667709
 20
89.07486314556406
 30
0.0
 40
38.0
100
AcDbArc
 50
22.9195399999983
 51
50.64329899999686
  0
LINE
  5
90C
330
2
100
AcDbEntity
  8
HIDS
100
AcDbLine
 10
439.5630847667709
 20
126.707760145564
 30
0.0
 11
418.5281727667709
 21
127.074863145564
 31
0.0
  0
ARC
  5
90D
330
2
100
AcDbEntity
  8
HIDS
100
AcDbCircle
 10
439.5281727667708
 20
124.708065145564
 30
0.0
 40
2.0
100
AcDbArc
 50
0.0
 51
89.00013699999925
  0
ARC
  5
90E
330
2
100
AcDbEntity
  8
HIDS
100
AcDbCircle
 10
444.5281727667709
 20
120.776661145564
 30
0.0
 40
3.0
100
AcDbArc
 50
180.0
 51
230.643295000001
  0
LINE
  5
90F
330
2
100
AcDbEntity
  8
HIDS
100
AcDbLine
 10
441.5281727667709
 20
124.708065145564
 30
0.0
 11
441.5281727667709
 21
120.776661145564
 31
0.0
  0
ARC
  5
910
330
2
100
AcDbEntity
  8
0
100
AcDbCircle
 10
452.5281727667709
 20
92.37486314556401
 30
0.0
 40
1.0
100
AcDbArc
 50
270.0
 51
0.0
  0
LINE
  5
911
330
2
100
AcDbEntity
  8
0
100
AcDbLine
 10
452.5281727667709
 20
91.37486314556401
 30
0.0
 11
451.5281727667709
 21
91.37486314556401
 31
0.0
  0
ARC
  5
912
330
2
100
AcDbEntity
  8
0
100
AcDbCircle
 10
451.5281727667709
 20
89.374863145564
 30
0.0
 40
2.0
100
AcDbArc
 50
90.0
 51
180.0
  0
LINE
  5
916
330
2
100
AcDbEntity
  8
0
100
AcDbLine
 10
189.0879159980663
 20
326.7360802739687
 30
0.0
 11
118.7195269980663
 21
326.7360802739687
 31
0.0
  0
LINE
  5
917
330
2
100
AcDbEntity
  8
0
100
AcDbLine
 10
118.7195269980663
 20
311.7360802739687
 30
0.0
 11
194.6392089980663
 21
311.7360802739687
 31
0.0
  0
LINE
  5
918
330
2
100
AcDbEntity
  8
0
100
AcDbLine
 10
189.7059199980665
 20
250.7360802739687
 30
0.0
 11
118.7195269980663
 21
250.7360802739687
 31
0.0
  0
LINE
  5
919
330
2
100
AcDbEntity
  8
0
100
AcDbLine
 10
118.7195269980663
 20
265.7360802739687
 30
0.0
 11
190.7743709980664
 21
265.7360802739687
 31
0.0
  0
LINE
  5
91A
330
2
100
AcDbEntity
  8
CENTER
100
AcDbLine
 10
62.51986103391601
 20
288.7360802739687
 30
0.0
 11
282.1720880041039
 21
288.7360802739688
 31
0.0
  0
ARC
  5
91C
330
2
100
AcDbEntity
  8
0
100
AcDbCircle
 10
109.2196489980663
 20
147.446590145564
 30
0.0
 40
0.5
100
AcDbArc
 50
0.0
 51
88.1625439999995
  0
LINE
  5
91D
330
2
100
AcDbEntity
  8
0
100
AcDbLine
 10
84.2196489980663
 20
140.574863145564
 30
0.0
 11
118.2196489980663
 21
140.574863145564
 31
0.0
  0
LINE
  5
91E
330
2
100
AcDbEntity
  8
0
100
AcDbLine
 10
84.2196489980663
 20
139.574863145564
 30
0.0
 11
118.2196489980663
 21
139.574863145564
 31
0.0
  0
ARC
  5
91F
330
2
100
AcDbEntity
  8
0
100
AcDbCircle
 10
101.2196489980663
 20
-101.925113854436
 30
0.0
 40
250.0
100
AcDbArc
 50
86.66830399999998
 51
93.33169600000003
  0
LINE
  5
920
330
2
100
AcDbEntity
  8
0
100
AcDbLine
 10
69.07084899806637
 20
136.5248601455639
 30
0.0
 11
84.2196489980663
 21
136.5248601455639
 31
0.0
  0
LINE
  5
921
330
2
100
AcDbEntity
  8
0
100
AcDbLine
 10
69.92264899806627
 20
144.224865145564
 30
0.0
 11
84.2196489980663
 21
144.224865145564
 31
0.0
  0
LINE
  5
922
330
2
100
AcDbEntity
  8
HOJO
100
AcDbLine
 10
69.92264899806627
 20
144.224865145564
 30
0.0
 11
69.18684899806635
 21
141.389767145564
 31
0.0
  0
LINE
  5
923
330
2
100
AcDbEntity
  8
HOJO
100
AcDbLine
 10
69.99894899806645
 20
138.914761145564
 30
0.0
 11
69.07084899806637
 21
136.5248601455639
 31
0.0
  0
LINE
  5
924
330
2
100
AcDbEntity
  8
HOJO
100
AcDbLine
 10
69.18684899806635
 20
141.389767145564
 30
0.0
 11
69.99894899806645
 21
138.914761145564
 31
0.0
  0
ARC
  5
925
330
2
100
AcDbEntity
  8
0
100
AcDbCircle
 10
92.21940799806635
 20
145.074863145564
 30
0.0
 40
0.5
100
AcDbArc
 50
270.0
 51
0.0
  0
LINE
  5
926
330
2
100
AcDbEntity
  8
0
100
AcDbLine
 10
92.71940799806634
 20
145.074863145564
 30
0.0
 11
92.71940799806634
 21
147.446590145564
 31
0.0
  0
ARC
  5
927
330
2
100
AcDbEntity
  8
0
100
AcDbCircle
 10
93.21940799806634
 20
147.446590145564
 30
0.0
 40
0.5
100
AcDbArc
 50
91.83745600000049
 51
180.0
  0
LINE
  5
928
330
2
100
AcDbEntity
  8
0
100
AcDbLine
 10
91.9696489980663
 20
144.5746651455639
 30
0.0
 11
91.9696489980663
 21
146.014065145564
 31
0.0
  0
ARC
  5
929
330
2
100
AcDbEntity
  8
0
100
AcDbCircle
 10
90.9696489980663
 20
146.014065145564
 30
0.0
 40
1.0
100
AcDbArc
 50
0.0
 51
73.04309800000145
  0
ARC
  5
92A
330
2
100
AcDbEntity
  8
0
100
AcDbCircle
 10
86.7196489980663
 20
147.1531871455639
 30
0.0
 40
0.5
100
AcDbArc
 50
93.33169600000003
 51
180.0
  0
LINE
  5
92B
330
2
100
AcDbEntity
  8
0
100
AcDbLine
 10
86.46964899806631
 20
144.574863145564
 30
0.0
 11
86.46964899806631
 21
146.014065145564
 31
0.0
  0
ARC
  5
92C
330
2
100
AcDbEntity
  8
0
100
AcDbCircle
 10
87.46964899806631
 20
146.014065145564
 30
0.0
 40
1.0
100
AcDbArc
 50
106.9581989999994
 51
180.0
  0
LINE
  5
92D
330
2
100
AcDbEntity
  8
0
100
AcDbLine
 10
85.7196489980663
 20
146.074863145564
 30
0.0
 11
85.21964899806631
 21
146.074863145564
 31
0.0
  0
ARC
  5
92E
330
2
100
AcDbEntity
  8
0
100
AcDbCircle
 10
85.21964899806631
 20
145.074863145564
 30
0.0
 40
1.0
100
AcDbArc
 50
90.0
 51
180.0
  0
ARC
  5
92F
330
2
100
AcDbEntity
  8
0
100
AcDbCircle
 10
85.7196489980663
 20
146.574863145564
 30
0.0
 40
0.5
100
AcDbArc
 50
270.0
 51
0.0
  0
LINE
  5
930
330
2
100
AcDbEntity
  8
0
100
AcDbLine
 10
86.7196489980663
 20
140.574863145564
 30
0.0
 11
86.7196489980663
 21
139.574863145564
 31
0.0
  0
LINE
  5
931
330
2
100
AcDbEntity
  8
0
100
AcDbLine
 10
85.71932899806643
 20
134.609066145564
 30
0.0
 11
85.21952899806638
 21
134.609066145564
 31
0.0
  0
ARC
  5
932
330
2
100
AcDbEntity
  8
0
100
AcDbCircle
 10
85.21952899806638
 20
135.609066145564
 30
0.0
 40
1.0
100
AcDbArc
 50
180.0
 51
270.0
  0
ARC
  5
933
330
2
100
AcDbEntity
  8
0
100
AcDbCircle
 10
85.71932899806643
 20
134.1090661455641
 30
0.0
 40
0.5
100
AcDbArc
 50
0.0
 51
90.0
  0
LINE
  5
934
330
2
100
AcDbEntity
  8
0
100
AcDbLine
 10
84.2196489980663
 20
139.574863145564
 30
0.0
 11
84.2196489980663
 21
135.609066145564
 31
0.0
  0
LINE
  5
935
330
2
100
AcDbEntity
  8
0
100
AcDbLine
 10
84.2196489980663
 20
145.074863145564
 30
0.0
 11
84.2196489980663
 21
140.574863145564
 31
0.0
  0
LINE
  5
936
330
2
100
AcDbEntity
  8
0
100
AcDbLine
 10
86.21964899806631
 20
140.574863145564
 30
0.0
 11
86.21964899806631
 21
147.1531871455639
 31
0.0
  0
ARC
  5
937
330
2
100
AcDbEntity
  8
0
100
AcDbCircle
 10
86.71940799806634
 20
144.074863145564
 30
0.0
 40
0.5
100
AcDbArc
 50
90.0
 51
180.0
  0
LINE
  5
938
330
2
100
AcDbEntity
  8
0
100
AcDbLine
 10
92.21940799806635
 20
144.574863145564
 30
0.0
 11
86.71940799806634
 21
144.574863145564
 31
0.0
  0
LINE
  5
939
330
2
100
AcDbEntity
  8
0
100
AcDbLine
 10
86.46964899806631
 20
145.2748601455639
 30
0.0
 11
91.9696489980663
 21
145.2748601455639
 31
0.0
  0
ARC
  5
93A
330
2
100
AcDbEntity
  8
0
100
AcDbCircle
 10
89.2196489980663
 20
140.2748601455639
 30
0.0
 40
7.0
100
AcDbArc
 50
73.04348799999949
 51
106.9580000000002
  0
LINE
  5
93B
330
2
100
AcDbEntity
  8
CENTER
100
AcDbLine
 10
101.2195289980663
 20
151.1003761455639
 30
0.0
 11
101.2196489980663
 21
133.3015631455639
 31
0.0
  0
LINE
  5
93C
330
2
100
AcDbEntity
  8
0
100
AcDbLine
 10
116.7196489980663
 20
146.074863145564
 30
0.0
 11
117.2196489980663
 21
146.074863145564
 31
0.0
  0
ARC
  5
93D
330
2
100
AcDbEntity
  8
0
100
AcDbCircle
 10
117.2196489980663
 20
145.074863145564
 30
0.0
 40
1.0
100
AcDbArc
 50
0.0
 51
90.0
  0
ARC
  5
93E
330
2
100
AcDbEntity
  8
0
100
AcDbCircle
 10
116.7196489980663
 20
146.574863145564
 30
0.0
 40
0.5
100
AcDbArc
 50
180.0
 51
270.0
  0
ARC
  5
93F
330
2
100
AcDbEntity
  8
0
100
AcDbCircle
 10
115.7196489980663
 20
147.1531871455639
 30
0.0
 40
0.5
100
AcDbArc
 50
0.0
 51
86.66830399999998
  0
LINE
  5
940
330
2
100
AcDbEntity
  8
0
100
AcDbLine
 10
115.9696489980662
 20
144.5746651455639
 30
0.0
 11
115.9696489980662
 21
146.014065145564
 31
0.0
  0
ARC
  5
941
330
2
100
AcDbEntity
  8
0
100
AcDbCircle
 10
114.9696489980662
 20
146.014065145564
 30
0.0
 40
1.0
100
AcDbArc
 50
0.0
 51
73.04309800000145
  0
LINE
  5
942
330
2
100
AcDbEntity
  8
0
100
AcDbLine
 10
109.7196489980662
 20
145.074863145564
 30
0.0
 11
109.7196489980662
 21
147.446590145564
 31
0.0
  0
ARC
  5
943
330
2
100
AcDbEntity
  8
0
100
AcDbCircle
 10
110.2196489980663
 20
145.074863145564
 30
0.0
 40
0.5
100
AcDbArc
 50
180.0
 51
270.0
  0
LINE
  5
944
330
2
100
AcDbEntity
  8
0
100
AcDbLine
 10
110.4696489980663
 20
144.574863145564
 30
0.0
 11
110.4696489980663
 21
146.014065145564
 31
0.0
  0
ARC
  5
945
330
2
100
AcDbEntity
  8
0
100
AcDbCircle
 10
111.4696489980663
 20
146.014065145564
 30
0.0
 40
1.0
100
AcDbArc
 50
106.9581989999994
 51
180.0
  0
LINE
  5
946
330
2
100
AcDbEntity
  8
0
100
AcDbLine
 10
110.2196489980663
 20
144.574863145564
 30
0.0
 11
115.7196489980663
 21
144.574863145564
 31
0.0
  0
LINE
  5
947
330
2
100
AcDbEntity
  8
0
100
AcDbLine
 10
110.4696489980663
 20
145.2748601455639
 30
0.0
 11
115.9696489980662
 21
145.2748601455639
 31
0.0
  0
ARC
  5
948
330
2
100
AcDbEntity
  8
0
100
AcDbCircle
 10
113.2196489980663
 20
140.2748601455639
 30
0.0
 40
7.0
100
AcDbArc
 50
73.04348799999949
 51
106.9580000000002
  0
LINE
  5
949
330
2
100
AcDbEntity
  8
0
100
AcDbLine
 10
117.7196489980663
 20
140.574863145564
 30
0.0
 11
117.7196489980663
 21
139.574863145564
 31
0.0
  0
LINE
  5
94A
330
2
100
AcDbEntity
  8
0
100
AcDbLine
 10
116.7197299980664
 20
134.609066145564
 30
0.0
 11
117.2195289980663
 21
134.609066145564
 31
0.0
  0
ARC
  5
94B
330
2
100
AcDbEntity
  8
0
100
AcDbCircle
 10
117.2195289980663
 20
135.609066145564
 30
0.0
 40
1.0
100
AcDbArc
 50
270.0
 51
0.0
  0
ARC
  5
94C
330
2
100
AcDbEntity
  8
0
100
AcDbCircle
 10
116.7197299980664
 20
134.1090661455641
 30
0.0
 40
0.5
100
AcDbArc
 50
90.0
 51
180.0
  0
LINE
  5
94D
330
2
100
AcDbEntity
  8
0
100
AcDbLine
 10
118.2196489980663
 20
139.574863145564
 30
0.0
 11
118.2196489980663
 21
135.609066145564
 31
0.0
  0
LINE
  5
94E
330
2
100
AcDbEntity
  8
0
100
AcDbLine
 10
118.2196489980663
 20
145.074863145564
 30
0.0
 11
118.2196489980663
 21
140.574863145564
 31
0.0
  0
LINE
  5
94F
330
2
100
AcDbEntity
  8
0
100
AcDbLine
 10
116.2196489980663
 20
140.574863145564
 30
0.0
 11
116.2196489980663
 21
147.1531871455639
 31
0.0
  0
ARC
  5
950
330
2
100
AcDbEntity
  8
0
100
AcDbCircle
 10
115.7196489980663
 20
144.074863145564
 30
0.0
 40
0.5
100
AcDbArc
 50
0.0
 51
90.0
  0
ARC
  5
951
330
2
100
AcDbEntity
  8
0
100
AcDbCircle
 10
108.7195289980663
 20
310.7360802739687
 30
0.0
 40
1.0
100
AcDbArc
 50
0.0
 51
90.0
  0
ARC
  5
952
330
2
100
AcDbEntity
  8
0
100
AcDbCircle
 10
113.2195289980663
 20
308.7360802739687
 30
0.0
 40
3.5
100
AcDbArc
 50
180.0
 51
270.0
  0
LINE
  5
953
330
2
100
AcDbEntity
  8
0
100
AcDbLine
 10
114.2195289980663
 20
311.7360802739687
 30
0.0
 11
88.21942899806641
 21
311.7360802739687
 31
0.0
  0
LINE
  5
954
330
2
100
AcDbEntity
  8
0
100
AcDbLine
 10
95.71922899806645
 20
326.3344992739689
 30
0.0
 11
118.7195269980663
 21
326.7360802739687
 31
0.0
  0
ARC
  5
955
330
2
100
AcDbEntity
  8
0
100
AcDbCircle
 10
108.7195289980663
 20
266.7360802739687
 30
0.0
 40
1.0
100
AcDbArc
 50
270.0
 51
0.0
  0
ARC
  5
956
330
2
100
AcDbEntity
  8
0
100
AcDbCircle
 10
113.2195289980663
 20
268.7360802739687
 30
0.0
 40
3.5
100
AcDbArc
 50
90.0
 51
180.0
  0
LINE
  5
957
330
2
100
AcDbEntity
  8
0
100
AcDbLine
 10
95.71922899806645
 20
251.1375842739689
 30
0.0
 11
118.7195269980663
 21
250.7360802739687
 31
0.0
  0
LINE
  5
958
330
2
100
AcDbEntity
  8
0
100
AcDbLine
 10
114.2195289980663
 20
265.7360802739687
 30
0.0
 11
88.21942899806641
 21
265.7360802739687
 31
0.0
  0
LINE
  5
959
330
2
100
AcDbEntity
  8
0
100
AcDbLine
 10
84.21952899806639
 20
293.7360802739687
 30
0.0
 11
84.21952899806639
 21
283.7360802739687
 31
0.0
  0
LINE
  5
95A
330
2
100
AcDbEntity
  8
HOJO
100
AcDbLine
 10
69.92264899806627
 20
292.5860862739688
 30
0.0
 11
69.18684899806635
 21
289.7509882739688
 31
0.0
  0
LINE
  5
95B
330
2
100
AcDbEntity
  8
CENTER
100
AcDbLine
 10
101.2195289980663
 20
318.7360802739687
 30
0.0
 11
101.2195289980663
 21
258.7360802739686
 31
0.0
  0
LINE
  5
95C
330
2
100
AcDbEntity
  8
0
100
AcDbLine
 10
86.2194289980664
 20
267.7360802739687
 30
0.0
 11
86.2194289980664
 21
309.7360802739687
 31
0.0
  0
LINE
  5
95D
330
2
100
AcDbEntity
  8
0
100
AcDbLine
 10
69.07084899806637
 20
284.8860892739687
 30
0.0
 11
84.2196489980663
 21
284.8860892739687
 31
0.0
  0
LINE
  5
95E
330
2
100
AcDbEntity
  8
HOJO
100
AcDbLine
 10
69.99894899806645
 20
287.2759822739687
 30
0.0
 11
69.07084899806637
 21
284.8860892739687
 31
0.0
  0
LINE
  5
95F
330
2
100
AcDbEntity
  8
HOJO
100
AcDbLine
 10
69.18684899806635
 20
289.7509882739688
 30
0.0
 11
69.99894899806645
 21
287.2759822739687
 31
0.0
  0
LINE
  5
960
330
2
100
AcDbEntity
  8
0
100
AcDbLine
 10
93.71952899806638
 20
252.440181273969
 30
0.0
 11
93.71952899806638
 21
265.7360802739687
 31
0.0
  0
LINE
  5
961
330
2
100
AcDbEntity
  8
0
100
AcDbLine
 10
92.91952899806643
 20
257.0302082739687
 30
0.0
 11
92.91952899806643
 21
265.7360802739687
 31
0.0
  0
ARC
  5
962
330
2
100
AcDbEntity
  8
0
100
AcDbCircle
 10
94.71952899806638
 20
252.440181273969
 30
0.0
 40
1.0
100
AcDbArc
 50
180.0
 51
255.0256040000005
  0
LINE
  5
963
330
2
100
AcDbEntity
  8
0
100
AcDbLine
 10
93.2485189980664
 20
256.560360273969
 30
0.0
 11
93.39053899806641
 21
256.5086782739687
 31
0.0
  0
ARC
  5
964
330
2
100
AcDbEntity
  8
0
100
AcDbCircle
 10
93.21952899806637
 20
256.0388302739688
 30
0.0
 40
0.5
100
AcDbArc
 50
0.0
 51
69.99999999999914
  0
ARC
  5
965
330
2
100
AcDbEntity
  8
0
100
AcDbCircle
 10
93.41952899806642
 20
257.0302082739687
 30
0.0
 40
0.5
100
AcDbArc
 50
180.0
 51
249.9999539999977
  0
LINE
  5
966
330
2
100
AcDbEntity
  8
0
100
AcDbLine
 10
94.46112899806644
 20
251.4741932739688
 30
0.0
 11
95.71922899806645
 21
251.1375842739689
 31
0.0
  0
LINE
  5
967
330
2
100
AcDbEntity
  8
0
100
AcDbLine
 10
90.96952899806638
 20
269.1360742739688
 30
0.0
 11
90.96952899806638
 21
268.3360552739688
 31
0.0
  0
ARC
  5
968
330
2
100
AcDbEntity
  8
0
100
AcDbCircle
 10
93.71952899806638
 20
266.7360802739687
 30
0.0
 40
1.0
100
AcDbArc
 50
180.0
 51
270.0
  0
LINE
  5
969
330
2
100
AcDbEntity
  8
0
100
AcDbLine
 10
92.71952899806638
 20
266.7360802739687
 30
0.0
 11
92.71952899806638
 21
268.7360802739687
 31
0.0
  0
LINE
  5
96A
330
2
100
AcDbEntity
  8
0
100
AcDbLine
 10
85.71952899806637
 20
282.7360802739687
 30
0.0
 11
85.21952899806638
 21
282.7360802739687
 31
0.0
  0
ARC
  5
96B
330
2
100
AcDbEntity
  8
0
100
AcDbCircle
 10
85.71952899806637
 20
282.2360802739687
 30
0.0
 40
0.5
100
AcDbArc
 50
0.0
 51
90.0
  0
LINE
  5
96C
330
2
100
AcDbEntity
  8
0
100
AcDbLine
 10
87.2194289980664
 20
272.2360802739687
 30
0.0
 11
89.21952899806639
 21
272.2360802739687
 31
0.0
  0
LINE
  5
96D
330
2
100
AcDbEntity
  8
0
100
AcDbLine
 10
87.46952899806638
 20
269.1360742739688
 30
0.0
 11
87.46952899806638
 21
268.3360552739688
 31
0.0
  0
ARC
  5
96E
330
2
100
AcDbEntity
  8
0
100
AcDbCircle
 10
87.46952899806638
 20
270.4860802739687
 30
0.0
 40
1.35
100
AcDbArc
 50
270.0
 51
0.0
  0
ARC
  5
96F
330
2
100
AcDbEntity
  8
0
100
AcDbCircle
 10
87.46952899806638
 20
266.9860802739687
 30
0.0
 40
1.35
100
AcDbArc
 50
0.0
 51
90.0
  0
ARC
  5
970
330
2
100
AcDbEntity
  8
0
100
AcDbCircle
 10
88.21942899806641
 20
267.7360802739687
 30
0.0
 40
2.0
100
AcDbArc
 50
180.0
 51
270.0
  0
ARC
  5
971
330
2
100
AcDbEntity
  8
0
100
AcDbCircle
 10
87.2194289980664
 20
273.2360802739687
 30
0.0
 40
1.0
100
AcDbArc
 50
180.0
 51
270.0
  0
ARC
  5
972
330
2
100
AcDbEntity
  8
0
100
AcDbCircle
 10
89.21952899806639
 20
268.7360802739687
 30
0.0
 40
3.5
100
AcDbArc
 50
0.0
 51
90.0
  0
LINE
  5
973
330
2
100
AcDbEntity
  8
0
100
AcDbLine
 10
88.81950499806634
 20
270.4860802739687
 30
0.0
 11
89.61952299806648
 21
270.4860802739687
 31
0.0
  0
LINE
  5
974
330
2
100
AcDbEntity
  8
0
100
AcDbLine
 10
88.81950499806634
 20
266.9860802739687
 30
0.0
 11
89.61952299806648
 21
266.9860802739687
 31
0.0
  0
CIRCLE
  5
975
330
2
100
AcDbEntity
  8
0
100
AcDbCircle
 10
89.21952899806639
 20
268.7360802739687
 30
0.0
 40
2.75
  0
ARC
  5
976
330
2
100
AcDbEntity
  8
0
100
AcDbCircle
 10
90.96952899806638
 20
270.4860802739687
 30
0.0
 40
1.35
100
AcDbArc
 50
180.0
 51
270.0
  0
ARC
  5
977
330
2
100
AcDbEntity
  8
0
100
AcDbCircle
 10
90.96952899806638
 20
266.9860802739687
 30
0.0
 40
1.35
100
AcDbArc
 50
90.0
 51
180.0
  0
ARC
  5
978
330
2
100
AcDbEntity
  8
0
100
AcDbCircle
 10
85.21952899806638
 20
283.7360802739687
 30
0.0
 40
1.0
100
AcDbArc
 50
180.0
 51
270.0
  0
LINE
  5
979
330
2
100
AcDbEntity
  8
0
100
AcDbLine
 10
69.92264899806627
 20
292.5860862739688
 30
0.0
 11
84.2196489980663
 21
292.5860862739688
 31
0.0
  0
LINE
  5
97A
330
2
100
AcDbEntity
  8
0
100
AcDbLine
 10
93.71952899806638
 20
325.0319782739688
 30
0.0
 11
93.71952899806638
 21
311.7360802739687
 31
0.0
  0
LINE
  5
97B
330
2
100
AcDbEntity
  8
0
100
AcDbLine
 10
92.91952899806643
 20
320.4419512739688
 30
0.0
 11
92.91952899806643
 21
311.7360802739687
 31
0.0
  0
ARC
  5
97C
330
2
100
AcDbEntity
  8
0
100
AcDbCircle
 10
93.71952899806638
 20
310.7360802739687
 30
0.0
 40
1.0
100
AcDbArc
 50
90.0
 51
180.0
  0
LINE
  5
97D
330
2
100
AcDbEntity
  8
0
100
AcDbLine
 10
90.96952899806638
 20
309.1360742739688
 30
0.0
 11
90.96952899806638
 21
308.3360552739688
 31
0.0
  0
LINE
  5
97E
330
2
100
AcDbEntity
  8
0
100
AcDbLine
 10
92.71952899806638
 20
310.7360802739687
 30
0.0
 11
92.71952899806638
 21
308.7360802739687
 31
0.0
  0
LINE
  5
97F
330
2
100
AcDbEntity
  8
0
100
AcDbLine
 10
87.2194289980664
 20
305.2360802739687
 30
0.0
 11
89.21952899806639
 21
305.2360802739687
 31
0.0
  0
LINE
  5
980
330
2
100
AcDbEntity
  8
0
100
AcDbLine
 10
87.46952899806638
 20
309.1360742739688
 30
0.0
 11
87.46952899806638
 21
308.3360552739688
 31
0.0
  0
ARC
  5
981
330
2
100
AcDbEntity
  8
0
100
AcDbCircle
 10
87.46952899806638
 20
306.9860802739687
 30
0.0
 40
1.35
100
AcDbArc
 50
0.0
 51
90.0
  0
ARC
  5
982
330
2
100
AcDbEntity
  8
0
100
AcDbCircle
 10
88.21942899806641
 20
309.7360802739687
 30
0.0
 40
2.0
100
AcDbArc
 50
90.0
 51
180.0
  0
ARC
  5
983
330
2
100
AcDbEntity
  8
0
100
AcDbCircle
 10
87.46952899806638
 20
310.4860802739687
 30
0.0
 40
1.35
100
AcDbArc
 50
270.0
 51
0.0
  0
LINE
  5
984
330
2
100
AcDbEntity
  8
0
100
AcDbLine
 10
88.81950499806634
 20
310.4860802739687
 30
0.0
 11
89.61952299806648
 21
310.4860802739687
 31
0.0
  0
LINE
  5
985
330
2
100
AcDbEntity
  8
0
100
AcDbLine
 10
88.81950499806634
 20
306.9860802739687
 30
0.0
 11
89.61952299806648
 21
306.9860802739687
 31
0.0
  0
CIRCLE
  5
986
330
2
100
AcDbEntity
  8
0
100
AcDbCircle
 10
89.21952899806639
 20
308.7360802739687
 30
0.0
 40
2.75
  0
ARC
  5
987
330
2
100
AcDbEntity
  8
0
100
AcDbCircle
 10
90.96952899806638
 20
310.4860802739687
 30
0.0
 40
1.35
100
AcDbArc
 50
180.0
 51
270.0
  0
ARC
  5
988
330
2
100
AcDbEntity
  8
0
100
AcDbCircle
 10
90.96952899806638
 20
306.9860802739687
 30
0.0
 40
1.35
100
AcDbArc
 50
90.0
 51
180.0
  0
LINE
  5
989
330
2
100
AcDbEntity
  8
0
100
AcDbLine
 10
85.71952899806637
 20
294.7360802739687
 30
0.0
 11
85.21952899806638
 21
294.7360802739687
 31
0.0
  0
ARC
  5
98A
330
2
100
AcDbEntity
  8
0
100
AcDbCircle
 10
85.71952899806637
 20
295.2360802739687
 30
0.0
 40
0.5
100
AcDbArc
 50
270.0
 51
0.0
  0
ARC
  5
98B
330
2
100
AcDbEntity
  8
0
100
AcDbCircle
 10
85.21952899806638
 20
293.7360802739687
 30
0.0
 40
1.0
100
AcDbArc
 50
90.0
 51
180.0
  0
ARC
  5
98C
330
2
100
AcDbEntity
  8
0
100
AcDbCircle
 10
89.21952899806639
 20
308.7360802739687
 30
0.0
 40
3.5
100
AcDbArc
 50
270.0
 51
0.0
  0
ARC
  5
98D
330
2
100
AcDbEntity
  8
0
100
AcDbCircle
 10
87.2194289980664
 20
304.2360802739687
 30
0.0
 40
1.0
100
AcDbArc
 50
90.0
 51
180.0
  0
ARC
  5
98E
330
2
100
AcDbEntity
  8
0
100
AcDbCircle
 10
94.71952899806638
 20
325.0319782739688
 30
0.0
 40
1.0
100
AcDbArc
 50
104.9743959999994
 51
180.0
  0
LINE
  5
98F
330
2
100
AcDbEntity
  8
0
100
AcDbLine
 10
93.2485189980664
 20
320.9118002739689
 30
0.0
 11
93.39053899806641
 21
320.9634972739688
 31
0.0
  0
ARC
  5
990
330
2
100
AcDbEntity
  8
0
100
AcDbCircle
 10
93.41952899806642
 20
320.4419512739688
 30
0.0
 40
0.5
100
AcDbArc
 50
110.0000379999994
 51
180.0
  0
ARC
  5
991
330
2
100
AcDbEntity
  8
0
100
AcDbCircle
 10
93.21952899806637
 20
321.4333462739688
 30
0.0
 40
0.5
100
AcDbArc
 50
290.0000000000008
 51
0.0
  0
LINE
  5
992
330
2
100
AcDbEntity
  8
0
100
AcDbLine
 10
94.46112899806644
 20
325.9979822739689
 30
0.0
 11
95.71922899806645
 21
326.3344992739689
 31
0.0
  0
LINE
  5
993
330
2
100
AcDbEntity
  8
0
100
AcDbLine
 10
118.2195269980663
 20
293.7360802739687
 30
0.0
 11
118.2195269980663
 21
283.7360802739687
 31
0.0
  0
LINE
  5
994
330
2
100
AcDbEntity
  8
0
100
AcDbLine
 10
118.7195269980663
 20
250.7360802739687
 30
0.0
 11
118.7195269980663
 21
326.7360802739687
 31
0.0
  0
LINE
  5
995
330
2
100
AcDbEntity
  8
0
100
AcDbLine
 10
116.2195289980663
 20
309.7360802739687
 30
0.0
 11
116.2195289980663
 21
267.7360802739687
 31
0.0
  0
LINE
  5
996
330
2
100
AcDbEntity
  8
0
100
AcDbLine
 10
116.7195289980663
 20
282.7360802739687
 30
0.0
 11
117.2195289980663
 21
282.7360802739687
 31
0.0
  0
ARC
  5
997
330
2
100
AcDbEntity
  8
0
100
AcDbCircle
 10
116.7195289980663
 20
282.2360802739687
 30
0.0
 40
0.5
100
AcDbArc
 50
90.0
 51
180.0
  0
LINE
  5
998
330
2
100
AcDbEntity
  8
0
100
AcDbLine
 10
115.2196279980664
 20
272.2360802739687
 30
0.0
 11
113.2195289980663
 21
272.2360802739687
 31
0.0
  0
LINE
  5
999
330
2
100
AcDbEntity
  8
0
100
AcDbLine
 10
114.9695289980663
 20
269.1360742739688
 30
0.0
 11
114.9695289980663
 21
268.3360552739688
 31
0.0
  0
LINE
  5
99A
330
2
100
AcDbEntity
  8
0
100
AcDbLine
 10
112.8195049980663
 20
270.4860802739687
 30
0.0
 11
113.6195229980664
 21
270.4860802739687
 31
0.0
  0
LINE
  5
99B
330
2
100
AcDbEntity
  8
0
100
AcDbLine
 10
112.8195049980663
 20
266.9860802739687
 30
0.0
 11
113.6195229980664
 21
266.9860802739687
 31
0.0
  0
ARC
  5
99C
330
2
100
AcDbEntity
  8
0
100
AcDbCircle
 10
114.9695289980663
 20
270.4860802739687
 30
0.0
 40
1.35
100
AcDbArc
 50
180.0
 51
270.0
  0
ARC
  5
99D
330
2
100
AcDbEntity
  8
0
100
AcDbCircle
 10
114.9695289980663
 20
266.9860802739687
 30
0.0
 40
1.35
100
AcDbArc
 50
90.0
 51
180.0
  0
LINE
  5
99E
330
2
100
AcDbEntity
  8
0
100
AcDbLine
 10
114.5972149980664
 20
265.7720752739689
 30
0.0
 11
118.7195269980663
 21
265.7360802739687
 31
0.0
  0
ARC
  5
99F
330
2
100
AcDbEntity
  8
0
100
AcDbCircle
 10
114.2195289980663
 20
267.7360802739687
 30
0.0
 40
2.0
100
AcDbArc
 50
270.0
 51
0.0
  0
LINE
  5
9A0
330
2
100
AcDbEntity
  8
0
100
AcDbLine
 10
111.4695289980663
 20
269.1360742739688
 30
0.0
 11
111.4695289980663
 21
268.3360552739688
 31
0.0
  0
LINE
  5
9A1
330
2
100
AcDbEntity
  8
0
100
AcDbLine
 10
109.7195289980663
 20
266.7360802739687
 30
0.0
 11
109.7195289980663
 21
268.7360802739687
 31
0.0
  0
CIRCLE
  5
9A2
330
2
100
AcDbEntity
  8
0
100
AcDbCircle
 10
113.2195289980663
 20
268.7360802739687
 30
0.0
 40
2.75
  0
ARC
  5
9A3
330
2
100
AcDbEntity
  8
0
100
AcDbCircle
 10
111.4695289980663
 20
270.4860802739687
 30
0.0
 40
1.35
100
AcDbArc
 50
270.0
 51
0.0
  0
ARC
  5
9A4
330
2
100
AcDbEntity
  8
0
100
AcDbCircle
 10
111.4695289980663
 20
266.9860802739687
 30
0.0
 40
1.35
100
AcDbArc
 50
0.0
 51
90.0
  0
ARC
  5
9A5
330
2
100
AcDbEntity
  8
0
100
AcDbCircle
 10
115.2196279980664
 20
273.2360802739687
 30
0.0
 40
1.0
100
AcDbArc
 50
270.0
 51
0.0
  0
ARC
  5
9A6
330
2
100
AcDbEntity
  8
0
100
AcDbCircle
 10
117.2195289980663
 20
283.7360802739687
 30
0.0
 40
1.0
100
AcDbArc
 50
270.0
 51
0.0
  0
LINE
  5
9A7
330
2
100
AcDbEntity
  8
0
100
AcDbLine
 10
112.8195049980663
 20
310.4860802739687
 30
0.0
 11
113.6195229980664
 21
310.4860802739687
 31
0.0
  0
LINE
  5
9A8
330
2
100
AcDbEntity
  8
0
100
AcDbLine
 10
114.5972149980664
 20
311.7001002739688
 30
0.0
 11
118.7195269980663
 21
311.7360802739687
 31
0.0
  0
LINE
  5
9A9
330
2
100
AcDbEntity
  8
0
100
AcDbLine
 10
114.9695289980663
 20
309.1360742739688
 30
0.0
 11
114.9695289980663
 21
308.3360552739688
 31
0.0
  0
LINE
  5
9AA
330
2
100
AcDbEntity
  8
0
100
AcDbLine
 10
112.8195049980663
 20
306.9860802739687
 30
0.0
 11
113.6195229980664
 21
306.9860802739687
 31
0.0
  0
ARC
  5
9AB
330
2
100
AcDbEntity
  8
0
100
AcDbCircle
 10
114.9695289980663
 20
306.9860802739687
 30
0.0
 40
1.35
100
AcDbArc
 50
90.0
 51
180.0
  0
LINE
  5
9AC
330
2
100
AcDbEntity
  8
0
100
AcDbLine
 10
115.2196279980664
 20
305.2360802739687
 30
0.0
 11
113.2195289980663
 21
305.2360802739687
 31
0.0
  0
ARC
  5
9AD
330
2
100
AcDbEntity
  8
0
100
AcDbCircle
 10
114.2195289980663
 20
309.7360802739687
 30
0.0
 40
2.0
100
AcDbArc
 50
0.0
 51
90.0
  0
ARC
  5
9AE
330
2
100
AcDbEntity
  8
0
100
AcDbCircle
 10
114.9695289980663
 20
310.4860802739687
 30
0.0
 40
1.35
100
AcDbArc
 50
180.0
 51
270.0
  0
LINE
  5
9AF
330
2
100
AcDbEntity
  8
0
100
AcDbLine
 10
111.4695289980663
 20
309.1360742739688
 30
0.0
 11
111.4695289980663
 21
308.3360552739688
 31
0.0
  0
LINE
  5
9B0
330
2
100
AcDbEntity
  8
0
100
AcDbLine
 10
109.7195289980663
 20
310.7360802739687
 30
0.0
 11
109.7195289980663
 21
308.7360802739687
 31
0.0
  0
CIRCLE
  5
9B1
330
2
100
AcDbEntity
  8
0
100
AcDbCircle
 10
113.2195289980663
 20
308.7360802739687
 30
0.0
 40
2.75
  0
ARC
  5
9B2
330
2
100
AcDbEntity
  8
0
100
AcDbCircle
 10
111.4695289980663
 20
310.4860802739687
 30
0.0
 40
1.35
100
AcDbArc
 50
270.0
 51
0.0
  0
ARC
  5
9B3
330
2
100
AcDbEntity
  8
0
100
AcDbCircle
 10
111.4695289980663
 20
306.9860802739687
 30
0.0
 40
1.35
100
AcDbArc
 50
0.0
 51
90.0
  0
LINE
  5
9B4
330
2
100
AcDbEntity
  8
0
100
AcDbLine
 10
116.7195289980663
 20
294.7360802739687
 30
0.0
 11
117.2195289980663
 21
294.7360802739687
 31
0.0
  0
ARC
  5
9B5
330
2
100
AcDbEntity
  8
0
100
AcDbCircle
 10
116.7195289980663
 20
295.2360802739687
 30
0.0
 40
0.5
100
AcDbArc
 50
180.0
 51
270.0
  0
ARC
  5
9B6
330
2
100
AcDbEntity
  8
0
100
AcDbCircle
 10
117.2195289980663
 20
293.7360802739687
 30
0.0
 40
1.0
100
AcDbArc
 50
0.0
 51
90.0
  0
ARC
  5
9B7
330
2
100
AcDbEntity
  8
0
100
AcDbCircle
 10
115.2196279980664
 20
304.2360802739687
 30
0.0
 40
1.0
100
AcDbArc
 50
0.0
 51
90.0
  0
LINE
  5
9B8
330
2
100
AcDbEntity
  8
0
100
AcDbLine
 10
226.2195239980662
 20
224.7360802739687
 30
0.0
 11
226.2195239980662
 21
248.7360802739687
 31
0.0
  0
LINE
  5
9B9
330
2
100
AcDbEntity
  8
0
100
AcDbLine
 10
243.2195239980663
 20
246.2360802739687
 30
0.0
 11
243.2195239980663
 21
224.7360802739687
 31
0.0
  0
LINE
  5
9BA
330
2
100
AcDbEntity
  8
0
100
AcDbLine
 10
240.7905229980662
 20
246.2360802739687
 30
0.0
 11
240.7905229980662
 21
224.7360802739687
 31
0.0
  0
LINE
  5
9BB
330
2
100
AcDbEntity
  8
CENTER
100
AcDbLine
 10
233.7195239980663
 20
330.7360802739689
 30
0.0
 11
233.7195239980662
 21
217.7360802739686
 31
0.0
  0
LINE
  5
9BC
330
2
100
AcDbEntity
  8
0
100
AcDbLine
 10
226.2195239980662
 20
224.7360802739687
 30
0.0
 11
243.2195239980663
 21
224.7360802739687
 31
0.0
  0
LINE
  5
9BD
330
2
100
AcDbEntity
  8
0
100
AcDbLine
 10
201.7195309980663
 20
149.374866145564
 30
0.0
 11
265.7195239980662
 21
149.374866145564
 31
0.0
  0
LINE
  5
9BE
330
2
100
AcDbEntity
  8
0
100
AcDbLine
 10
213.7195239980662
 20
145.374866145564
 30
0.0
 11
253.7195239980662
 21
145.374866145564
 31
0.0
  0
LINE
  5
9BF
330
2
100
AcDbEntity
  8
CENTER
100
AcDbLine
 10
195.8758199980661
 20
141.374866145564
 30
0.0
 11
207.5632279980664
 21
141.374866145564
 31
0.0
  0
CIRCLE
  5
9C0
330
2
100
AcDbEntity
  8
0
100
AcDbCircle
 10
201.7195309980663
 20
141.374866145564
 30
0.0
 40
3.25
  0
ARC
  5
9C1
330
2
100
AcDbEntity
  8
0
100
AcDbCircle
 10
201.7195309980663
 20
141.374866145564
 30
0.0
 40
8.0
100
AcDbArc
 50
90.0
 51
172.0305020000024
  0
ARC
  5
9C2
330
2
100
AcDbEntity
  8
0
100
AcDbCircle
 10
200.0557279980664
 20
129.490765145564
 30
0.0
 40
4.0
100
AcDbArc
 50
82.03024300000064
 51
172.0303039999978
  0
LINE
  5
9C3
330
2
100
AcDbEntity
  8
CENTER
100
AcDbLine
 10
201.7195239980662
 20
135.5311621455638
 30
0.0
 11
201.7195239980662
 21
147.2185701455641
 31
0.0
  0
ARC
  5
9C4
330
2
100
AcDbEntity
  8
0
100
AcDbCircle
 10
213.7195239980662
 20
141.374866145564
 30
0.0
 40
4.0
100
AcDbArc
 50
90.0
 51
180.0
  0
ARC
  5
9C5
330
2
100
AcDbEntity
  8
0
100
AcDbCircle
 10
201.7195309980663
 20
141.374866145564
 30
0.0
 40
8.0
100
AcDbArc
 50
262.0304030000006
 51
0.0
  0
ARC
  5
9C6
330
2
100
AcDbEntity
  8
0
100
AcDbCircle
 10
265.7195239980662
 20
141.374866145564
 30
0.0
 40
8.0
100
AcDbArc
 50
180.0
 51
277.9695129999993
  0
ARC
  5
9C7
330
2
100
AcDbEntity
  8
0
100
AcDbCircle
 10
253.7195239980662
 20
141.374866145564
 30
0.0
 40
4.0
100
AcDbArc
 50
0.0
 51
90.0
  0
ARC
  5
9C8
330
2
100
AcDbEntity
  8
0
100
AcDbCircle
 10
265.7195239980662
 20
141.374866145564
 30
0.0
 40
8.0
100
AcDbArc
 50
7.969647000001804
 51
90.0
  0
LINE
  5
9C9
330
2
100
AcDbEntity
  8
CENTER
100
AcDbLine
 10
265.7195239980662
 20
135.5311621455638
 30
0.0
 11
265.7195239980662
 21
147.2185701455641
 31
0.0
  0
LINE
  5
9CA
330
2
100
AcDbEntity
  8
CENTER
100
AcDbLine
 10
259.8758199980661
 20
141.374866145564
 30
0.0
 11
271.5632279980663
 21
141.374866145564
 31
0.0
  0
CIRCLE
  5
9CB
330
2
100
AcDbEntity
  8
0
100
AcDbCircle
 10
265.7195239980662
 20
141.374866145564
 30
0.0
 40
3.25
  0
ARC
  5
9CC
330
2
100
AcDbEntity
  8
0
100
AcDbCircle
 10
267.3833269980664
 20
129.490765145564
 30
0.0
 40
4.0
100
AcDbArc
 50
7.969701000001917
 51
97.96975699999936
  0
LINE
  5
9CD
330
2
100
AcDbEntity
  8
0
100
AcDbLine
 10
218.7195239980662
 20
259.056087273969
 30
0.0
 11
248.7195239980662
 21
259.056087273969
 31
0.0
  0
LINE
  5
9CE
330
2
100
AcDbEntity
  8
0
100
AcDbLine
 10
272.4120129980663
 20
319.7360802739687
 30
0.0
 11
193.1678419980664
 21
319.7360802739687
 31
0.0
  0
LINE
  5
9CF
330
2
100
AcDbEntity
  8
0
100
AcDbLine
 10
192.0103869980664
 20
257.7360802739687
 30
0.0
 11
275.0096999980662
 21
257.7360802739687
 31
0.0
  0
LINE
  5
9D0
330
2
100
AcDbEntity
  8
0
100
AcDbLine
 10
191.2195309980663
 20
248.7360802739687
 30
0.0
 11
276.2195239980662
 21
248.7360802739687
 31
0.0
  0
LINE
  5
9D1
330
2
100
AcDbEntity
  8
0
100
AcDbLine
 10
218.7195239980662
 20
258.7360802739687
 30
0.0
 11
218.7195239980662
 21
317.7709922739688
 31
0.0
  0
LINE
  5
9D2
330
2
100
AcDbEntity
  8
0
100
AcDbLine
 10
195.4941439980664
 20
258.9173392739689
 30
0.0
 11
195.4941439980664
 21
309.7363552739688
 31
0.0
  0
LINE
  5
9D3
330
2
100
AcDbEntity
  8
0
100
AcDbLine
 10
190.1720919980664
 20
288.7360802739687
 30
0.0
 11
191.2195309980663
 21
248.7360802739687
 31
0.0
  0
LINE
  5
9D4
330
2
100
AcDbEntity
  8
0
100
AcDbLine
 10
193.7968319980664
 20
248.7360802739687
 30
0.0
 11
193.7968319980664
 21
256.425777273969
 31
0.0
  0
LINE
  5
9D5
330
2
100
AcDbEntity
  8
HIDS
  6
SEKKEI_H
100
AcDbLine
 10
198.4695309980663
 20
257.7360802739687
 30
0.0
 11
198.4695309980663
 21
248.7360802739687
 31
0.0
  0
ARC
  5
9D6
330
2
100
AcDbEntity
  8
0
100
AcDbCircle
 10
192.0103869980664
 20
256.7360802739687
 30
0.0
 40
1.0
100
AcDbArc
 50
90.0
 51
181.5000000000027
  0
ARC
  5
9D7
330
2
100
AcDbEntity
  8
0
100
AcDbCircle
 10
189.7059199980665
 20
249.2360802739687
 30
0.0
 40
1.5
100
AcDbArc
 50
1.499998999997348
 51
90.0
  0
LINE
  5
9D8
330
2
100
AcDbEntity
  8
HIDS
  6
SEKKEI_H
100
AcDbLine
 10
204.9695309980663
 20
257.7360802739687
 30
0.0
 11
204.9695309980663
 21
248.7360802739687
 31
0.0
  0
LINE
  5
9D9
330
2
100
AcDbEntity
  8
CENTER
100
AcDbLine
 10
201.7195309980663
 20
245.2360802739686
 30
0.0
 11
201.7195309980664
 21
261.2360802739687
 31
0.0
  0
ARC
  5
9DA
330
2
100
AcDbEntity
  8
0
100
AcDbCircle
 10
217.7195239980662
 20
258.7360802739687
 30
0.0
 40
1.0
100
AcDbArc
 50
270.0
 51
0.0
  0
ARC
  5
9DB
330
2
100
AcDbEntity
  8
0
100
AcDbCircle
 10
193.1678419980664
 20
317.7360802739687
 30
0.0
 40
2.0
100
AcDbArc
 50
90.0
 51
178.4999999999973
  0
LINE
  5
9DC
330
2
100
AcDbEntity
  8
0
100
AcDbLine
 10
191.0101119980663
 20
311.7388262739688
 30
0.0
 11
191.1685289980664
 21
317.7884332739687
 31
0.0
  0
LINE
  5
9DD
330
2
100
AcDbEntity
  8
0
100
AcDbLine
 10
191.0872299980662
 20
324.7884482739688
 30
0.0
 11
191.1685289980664
 21
321.6837422739688
 31
0.0
  0
ARC
  5
9DE
330
2
100
AcDbEntity
  8
0
100
AcDbCircle
 10
189.0879159980663
 20
324.7360802739687
 30
0.0
 40
2.0
100
AcDbArc
 50
1.500000000002716
 51
90.0
  0
ARC
  5
9DF
330
2
100
AcDbEntity
  8
0
100
AcDbCircle
 10
193.1678419980664
 20
321.7360802739687
 30
0.0
 40
2.0
100
AcDbArc
 50
181.5000000000027
 51
270.0
  0
LINE
  5
9E0
330
2
100
AcDbEntity
  8
0
100
AcDbLine
 10
274.4113259980663
 20
317.7884332739687
 30
0.0
 11
276.2195239980662
 21
248.7360802739687
 31
0.0
  0
LINE
  5
9E1
330
2
100
AcDbEntity
  8
0
100
AcDbLine
 10
248.7195239980662
 20
258.7360802739687
 30
0.0
 11
248.7195239980662
 21
317.7709922739688
 31
0.0
  0
LINE
  5
9E2
330
2
100
AcDbEntity
  8
0
100
AcDbLine
 10
240.7905229980662
 20
246.2360802739687
 30
0.0
 11
243.2195239980663
 21
246.2360802739687
 31
0.0
  0
LINE
  5
9E3
330
2
100
AcDbEntity
  8
0
100
AcDbLine
 10
241.2195239980662
 20
248.7360802739687
 30
0.0
 11
241.2195239980662
 21
246.2360802739687
 31
0.0
  0
ARC
  5
9E4
330
2
100
AcDbEntity
  8
0
100
AcDbCircle
 10
249.7195239980662
 20
258.7360802739687
 30
0.0
 40
1.0
100
AcDbArc
 50
180.0
 51
270.0
  0
LINE
  5
9E5
330
2
100
AcDbEntity
  8
0
100
AcDbLine
 10
273.6422219980663
 20
248.7360802739687
 30
0.0
 11
273.6422219980663
 21
256.425777273969
 31
0.0
  0
LINE
  5
9E6
330
2
100
AcDbEntity
  8
HIDS
  6
SEKKEI_H
100
AcDbLine
 10
268.9695239980662
 20
257.7360802739687
 30
0.0
 11
268.9695239980662
 21
248.7360802739687
 31
0.0
  0
LINE
  5
9E7
330
2
100
AcDbEntity
  8
HIDS
  6
SEKKEI_H
100
AcDbLine
 10
262.4695239980662
 20
257.7360802739687
 30
0.0
 11
262.4695239980662
 21
248.7360802739687
 31
0.0
  0
LINE
  5
9E8
330
2
100
AcDbEntity
  8
CENTER
100
AcDbLine
 10
265.7195239980662
 20
245.2360802739686
 30
0.0
 11
265.7195239980662
 21
261.2360802739687
 31
0.0
  0
ARC
  5
9E9
330
2
100
AcDbEntity
  8
0
100
AcDbCircle
 10
275.0096999980662
 20
256.7360802739687
 30
0.0
 40
1.0
100
AcDbArc
 50
1.499997999998513
 51
90.0
  0
ARC
  5
9EA
330
2
100
AcDbEntity
  8
0
100
AcDbCircle
 10
272.4120129980663
 20
317.7360802739687
 30
0.0
 40
2.0
100
AcDbArc
 50
1.500000000002716
 51
90.0
  0
TEXT
  5
9EB
330
2
100
AcDbEntity
  8
TITLE
100
AcDbText
 10
344.1377014906423
 20
266.3573347510667
 30
0.0
 40
5.0
  1
HFW-15R-10~240-S25
100
AcDbText
  0
TEXT
  5
9EC
330
2
100
AcDbEntity
  8
TITLE
100
AcDbText
 10
344.1377014906423
 20
290.3573347510667
 30
0.0
 40
5.0
  1
HFW-15R-10~240-T25
100
AcDbText
  0
TEXT
  5
9ED
330
2
100
AcDbEntity
  8
TITLE
100
AcDbText
 10
344.1377014906423
 20
298.3573347510667
 30
0.0
 40
5.0
  1
HFW-15R-10~240-T15
100
AcDbText
  0
TEXT
  5
9EE
330
2
100
AcDbEntity
  8
TITLE
100
AcDbText
 10
344.1377014906423
 20
282.3573347510667
 30
0.0
 40
5.0
  1
HFW-15R-10~120-T40
100
AcDbText
  0
TEXT
  5
9EF
330
2
100
AcDbEntity
  8
TITLE
100
AcDbText
 10
344.1377014906423
 20
274.3573347510667
 30
0.0
 40
5.0
  1
HFW-15R-10~240-S15
100
AcDbText
  0
ARC
  5
9F2
330
2
100
AcDbEntity
  8
0
100
AcDbCircle
 10
418.5281727667709
 20
140.074863145564
 30
0.0
 40
6.0
100
AcDbArc
 50
38.79706999999945
 51
139.2034000000036
  0
ARC
  5
9F3
330
2
100
AcDbEntity
  8
0
100
AcDbCircle
 10
418.5281727667709
 20
-101.9250828544359
 30
0.0
 40
250.0
100
AcDbArc
 50
84.82601900000059
 51
95.17398099999942
  0
LINE
  5
9F4
330
2
100
AcDbEntity
  8
0
100
AcDbLine
 10
447.563084766771
 20
143.409161145564
 30
0.0
 11
389.4932607667708
 21
144.422565145564
 31
0.0
  0
LINE
  5
9F5
330
2
100
AcDbEntity
  8
0
100
AcDbLine
 10
378.5281727667709
 20
149.374866145564
 30
0.0
 11
386.3771717667707
 21
149.374866145564
 31
0.0
  0
LINE
  5
9F6
330
2
100
AcDbEntity
  8
HIDS
  6
SEKKEI_H
100
AcDbLine
 10
378.5281727667709
 20
144.624866145564
 30
0.0
 11
387.5281727667709
 21
144.624866145564
 31
0.0
  0
LINE
  5
9F7
330
2
100
AcDbEntity
  8
HIDS
  6
SEKKEI_H
100
AcDbLine
 10
378.5281727667709
 20
138.124866145564
 30
0.0
 11
387.5281727667709
 21
138.124866145564
 31
0.0
  0
LINE
  5
9F8
330
2
100
AcDbEntity
  8
0
100
AcDbLine
 10
384.5281727667709
 20
131.3748661455639
 30
0.0
 11
385.5281727667709
 21
131.3748661455639
 31
0.0
  0
LINE
  5
9F9
330
2
100
AcDbEntity
  8
CENTER
100
AcDbLine
 10
375.0281727667709
 20
141.374866145564
 30
0.0
 11
391.0281727667709
 21
141.3748661455638
 31
0.0
  0
ARC
  5
9FA
330
2
100
AcDbEntity
  8
0
100
AcDbCircle
 10
384.5281727667709
 20
130.3748661455639
 30
0.0
 40
1.0
100
AcDbArc
 50
90.0
 51
180.0
  0
LINE
  5
9FB
330
2
100
AcDbEntity
  8
0
100
AcDbLine
 10
395.7781727667709
 20
145.2748601455639
 30
0.0
 11
401.2781727667709
 21
145.2748601455639
 31
0.0
  0
ARC
  5
9FC
330
2
100
AcDbEntity
  8
0
100
AcDbCircle
 10
398.5281727667709
 20
140.2748601455639
 30
0.0
 40
7.0
100
AcDbArc
 50
73.04350300000075
 51
106.9580000000002
  0
LINE
  5
9FD
330
2
100
AcDbEntity
  8
0
100
AcDbLine
 10
395.7781727667709
 20
144.574863145564
 30
0.0
 11
401.5281727667709
 21
144.574863145564
 31
0.0
  0
LINE
  5
9FE
330
2
100
AcDbEntity
  8
0
100
AcDbLine
 10
395.7781727667709
 20
144.574863145564
 30
0.0
 11
395.7781727667709
 21
146.014065145564
 31
0.0
  0
ARC
  5
9FF
330
2
100
AcDbEntity
  8
0
100
AcDbCircle
 10
396.7781727667709
 20
146.014065145564
 30
0.0
 40
1.0
100
AcDbArc
 50
106.9581989999994
 51
180.0
  0
ARC
  5
A00
330
2
100
AcDbEntity
  8
0
100
AcDbCircle
 10
396.0281727667709
 20
146.5583611455639
 30
0.0
 40
0.5
100
AcDbArc
 50
95.17398099999942
 51
180.0
  0
LINE
  5
A01
330
2
100
AcDbEntity
  8
HIDS
100
AcDbLine
 10
396.0281727667709
 20
139.574863145564
 30
0.0
 11
396.0281727667709
 21
140.574863145564
 31
0.0
  0
LINE
  5
A02
330
2
100
AcDbEntity
  8
HIDS
100
AcDbLine
 10
396.0281727667709
 20
140.574863145564
 30
0.0
 11
395.5281727667709
 21
140.574863145564
 31
0.0
  0
LINE
  5
A03
330
2
100
AcDbEntity
  8
HIDS
100
AcDbLine
 10
396.0281727667709
 20
139.574863145564
 30
0.0
 11
395.5281727667709
 21
139.574863145564
 31
0.0
  0
LINE
  5
A04
330
2
100
AcDbEntity
  8
HIDS
100
AcDbLine
 10
395.5281727667709
 20
144.074863145564
 30
0.0
 11
395.5281727667709
 21
140.574863145564
 31
0.0
  0
LINE
  5
A05
330
2
100
AcDbEntity
  8
0
100
AcDbLine
 10
395.5281727667709
 20
144.074863145564
 30
0.0
 11
395.5281727667709
 21
146.5583611455639
 31
0.0
  0
ARC
  5
A06
330
2
100
AcDbEntity
  8
0
100
AcDbCircle
 10
396.0281727667709
 20
144.074863145564
 30
0.0
 40
0.5
100
AcDbArc
 50
90.0
 51
180.0
  0
LINE
  5
A07
330
2
100
AcDbEntity
  8
0
100
AcDbLine
 10
387.8260847667709
 20
148.263165145564
 30
0.0
 11
388.2658737667709
 21
146.621761145564
 31
0.0
  0
ARC
  5
A08
330
2
100
AcDbEntity
  8
0
100
AcDbCircle
 10
386.3771717667707
 20
147.8748661455639
 30
0.0
 40
1.5
100
AcDbArc
 50
15.00006999999681
 51
90.0
  0
ARC
  5
A09
330
2
100
AcDbEntity
  8
0
100
AcDbCircle
 10
389.5281727667709
 20
146.422260145564
 30
0.0
 40
2.0
100
AcDbArc
 50
180.0
 51
269.0006099999996
  0
ARC
  5
A0A
330
2
100
AcDbEntity
  8
0
100
AcDbCircle
 10
391.1612597667708
 20
147.3939631455639
 30
0.0
 40
3.0
100
AcDbArc
 50
194.9326019999977
 51
269.0006099999996
  0
LINE
  5
A0B
330
2
100
AcDbEntity
  8
0
100
AcDbLine
 10
401.2781727667709
 20
144.5746651455639
 30
0.0
 11
401.2781727667709
 21
146.014065145564
 31
0.0
  0
LINE
  5
A0C
330
2
100
AcDbEntity
  8
0
100
AcDbLine
 10
402.0281727667708
 20
147.061359145564
 30
0.0
 11
402.0281727667708
 21
145.074863145564
 31
0.0
  0
ARC
  5
A0D
330
2
100
AcDbEntity
  8
0
100
AcDbCircle
 10
402.5281727667708
 20
147.061359145564
 30
0.0
 40
0.5
100
AcDbArc
 50
93.67680399999908
 51
180.0
  0
ARC
  5
A0E
330
2
100
AcDbEntity
  8
0
100
AcDbCircle
 10
401.5281727667709
 20
145.074863145564
 30
0.0
 40
0.5
100
AcDbArc
 50
270.0
 51
0.0
  0
ARC
  5
A0F
330
2
100
AcDbEntity
  8
0
100
AcDbCircle
 10
400.2781727667708
 20
146.014065145564
 30
0.0
 40
1.0
100
AcDbArc
 50
0.0
 51
73.04309800000145
  0
LINE
  5
A10
330
2
100
AcDbEntity
  8
0
100
AcDbLine
 10
441.2781727667709
 20
144.574863145564
 30
0.0
 11
441.2781727667709
 21
146.014065145564
 31
0.0
  0
LINE
  5
A11
330
2
100
AcDbEntity
  8
0
100
AcDbLine
 10
435.7781727667709
 20
144.5746651455639
 30
0.0
 11
435.7781727667709
 21
146.014065145564
 31
0.0
  0
ARC
  5
A12
330
2
100
AcDbEntity
  8
0
100
AcDbCircle
 10
436.7781727667709
 20
146.014065145564
 30
0.0
 40
1.0
100
AcDbArc
 50
106.9569019999985
 51
180.0
  0
LINE
  5
A13
330
2
100
AcDbEntity
  8
0
100
AcDbLine
 10
435.0281727667709
 20
147.061359145564
 30
0.0
 11
435.0281727667709
 21
145.074863145564
 31
0.0
  0
ARC
  5
A14
330
2
100
AcDbEntity
  8
0
100
AcDbCircle
 10
434.5281727667709
 20
147.061359145564
 30
0.0
 40
0.5
100
AcDbArc
 50
0.0
 51
86.32319600000093
  0
ARC
  5
A15
330
2
100
AcDbEntity
  8
0
100
AcDbCircle
 10
435.5281727667708
 20
145.074863145564
 30
0.0
 40
0.5
100
AcDbArc
 50
180.0
 51
270.0
  0
ARC
  5
A16
330
2
100
AcDbEntity
  8
0
100
AcDbCircle
 10
438.5281727667709
 20
140.2748601455639
 30
0.0
 40
7.0
100
AcDbArc
 50
73.04197700000047
 51
106.9564969999992
  0
LINE
  5
A17
330
2
100
AcDbEntity
  8
0
100
AcDbLine
 10
441.2781727667709
 20
145.2748601455639
 30
0.0
 11
435.7781727667709
 21
145.2748601455639
 31
0.0
  0
ARC
  5
A18
330
2
100
AcDbEntity
  8
0
100
AcDbCircle
 10
440.2781727667709
 20
146.014065145564
 30
0.0
 40
1.0
100
AcDbArc
 50
0.0
 51
73.04184700000201
  0
LINE
  5
A19
330
2
100
AcDbEntity
  8
0
100
AcDbLine
 10
441.2781727667709
 20
144.574863145564
 30
0.0
 11
435.5281727667708
 21
144.574863145564
 31
0.0
  0
ARC
  5
A1A
330
2
100
AcDbEntity
  8
0
100
AcDbCircle
 10
441.0281727667709
 20
146.5583611455639
 30
0.0
 40
0.5
100
AcDbArc
 50
0.0
 51
84.82601900000059
  0
LINE
  5
A1B
330
2
100
AcDbEntity
  8
HIDS
100
AcDbLine
 10
441.5281727667709
 20
143.5144611455639
 30
0.0
 11
441.5281727667709
 21
140.574863145564
 31
0.0
  0
LINE
  5
A1C
330
2
100
AcDbEntity
  8
HIDS
100
AcDbLine
 10
441.0281727667709
 20
139.574863145564
 30
0.0
 11
441.0281727667709
 21
140.574863145564
 31
0.0
  0
LINE
  5
A1D
330
2
100
AcDbEntity
  8
HIDS
100
AcDbLine
 10
441.0281727667709
 20
140.574863145564
 30
0.0
 11
441.5281727667709
 21
140.574863145564
 31
0.0
  0
LINE
  5
A1E
330
2
100
AcDbEntity
  8
HIDS
100
AcDbLine
 10
441.0281727667709
 20
139.574863145564
 30
0.0
 11
441.5281727667709
 21
139.574863145564
 31
0.0
  0
LINE
  5
A1F
330
2
100
AcDbEntity
  8
0
100
AcDbLine
 10
441.5281727667709
 20
143.5144611455639
 30
0.0
 11
441.5281727667709
 21
146.5583611455639
 31
0.0
  0
ARC
  5
A20
330
2
100
AcDbEntity
  8
0
100
AcDbCircle
 10
441.0281727667709
 20
144.074863145564
 30
0.0
 40
0.5
100
AcDbArc
 50
0.0
 51
90.0
  0
ARC
  5
A21
330
2
100
AcDbEntity
  8
0
100
AcDbCircle
 10
452.5281727667709
 20
130.3748661455639
 30
0.0
 40
1.0
100
AcDbArc
 50
0.0
 51
90.0
  0
ARC
  5
A22
330
2
100
AcDbEntity
  8
0
100
AcDbCircle
 10
451.5281727667709
 20
133.3748661455639
 30
0.0
 40
2.0
100
AcDbArc
 50
180.0
 51
270.0
  0
LINE
  5
A23
330
2
100
AcDbEntity
  8
0
100
AcDbLine
 10
452.5281727667709
 20
131.3748661455639
 30
0.0
 11
451.5281727667709
 21
131.3748661455639
 31
0.0
  0
ARC
  5
A24
330
2
100
AcDbEntity
  8
0
100
AcDbCircle
 10
447.5281727667709
 20
141.409466145564
 30
0.0
 40
2.0
100
AcDbArc
 50
0.0
 51
89.00035899999958
  0
ARC
  5
10C1
330
2
100
AcDbEntity
  8
0
100
AcDbCircle
 10
385.5281727667709
 20
89.374863145564
 30
0.0
 40
2.0
100
AcDbArc
 50
0.000000000000007
 51
90.0
  0
ARC
  5
10C2
330
2
100
AcDbEntity
  8
0
100
AcDbCircle
 10
385.5281727667709
 20
133.3748661455639
 30
0.0
 40
2.0
100
AcDbArc
 50
270.0
 51
311.1854621479527
  0
ARC
  5
10C3
330
2
100
AcDbEntity
  8
0
100
AcDbCircle
 10
211.7195239980662
 20
321.7360802739688
 30
0.0
 40
2.0
100
AcDbArc
 50
270.0
 51
0.0
  0
ARC
  5
10C4
330
2
100
AcDbEntity
  8
0
100
AcDbCircle
 10
214.7195239980662
 20
322.7360802739688
 30
0.0
 40
1.0
100
AcDbArc
 50
90.0
 51
180.0
  0
LINE
  5
10C5
330
2
100
AcDbEntity
  8
0
100
AcDbLine
 10
213.7195239980662
 20
322.7360802739688
 30
0.0
 11
213.7195239980662
 21
321.7360802739688
 31
0.0
  0
LINE
  5
10C6
330
2
100
AcDbEntity
  8
0
100
AcDbLine
 10
252.7195269980662
 20
323.7360802739688
 30
0.0
 11
214.7195239980662
 21
323.7360802739688
 31
0.0
  0
ARC
  5
10C7
330
2
100
AcDbEntity
  8
0
100
AcDbCircle
 10
252.7195269980662
 20
322.7360802739688
 30
0.0
 40
1.0
100
AcDbArc
 50
0.0
 51
90.0
  0
ARC
  5
10C8
330
2
100
AcDbEntity
  8
0
100
AcDbCircle
 10
255.7195269980662
 20
321.7360802739688
 30
0.0
 40
2.0
100
AcDbArc
 50
180.0
 51
270.0
  0
LINE
  5
10C9
330
2
100
AcDbEntity
  8
0
100
AcDbLine
 10
253.7195269980662
 20
322.7360802739688
 30
0.0
 11
253.7195269980662
 21
321.7360802739688
 31
0.0
  0
ENDSEC
  0
SECTION
  2
OBJECTS
  0
DICTIONARY
  5
7
330
0
100
AcDbDictionary
  3
ACAD_GROUP
350
75
  3
ACAD_LAYOUT
350
61
  3
ACAD_MLINESTYLE
350
76
  3
ACAD_PLOTSETTINGS
350
77
  3
ACAD_PLOTSTYLENAME
350
6
  3
ACADDIM
350
480
  3
ACDBHEADERROUNDTRIPXREC
350
110D
  3
ACDBVARIABLEDICTIONARY
350
102
  3
DWGPROPS
350
3D2
  0
DICTIONARY
  5
112E
330
2
100
AcDbDictionary
280
     1
  3
ACAD_LAYOUTSELFREF
360
112F
  0
DICTIONARY
  5
1130
330
1107
100
AcDbDictionary
280
     1
  3
ACAD_LAYOUTSELFREF
360
1131
  0
DICTIONARY
  5
75
102
{ACAD_REACTORS
330
7
102
}
330
7
100
AcDbDictionary
  0
DICTIONARY
  5
61
102
{ACAD_REACTORS
330
7
102
}
330
7
100
AcDbDictionary
  0
DICTIONARY
  5
76
102
{ACAD_REACTORS
330
7
102
}
330
7
100
AcDbDictionary
  3
STANDARD
350
78
  0
DICTIONARY
  5
77
102
{ACAD_REACTORS
330
7
102
}
330
7
100
AcDbDictionary
  0
ACDBDICTIONARYWDFLT
  5
6
102
{ACAD_REACTORS
330
7
102
}
330
7
100
AcDbDictionary
281
     1
  3
Normal
350
5
100
AcDbDictionaryWithDefault
340
5
  0
XRECORD
  5
480
102
{ACAD_REACTORS
330
7
102
}
330
7
100
AcDbXrecord
 90
   990106
  3

 60
     0
 61
     0
 62
     1
 63
     3
 64
     1
 65
     0
 66
     0
 67
     3
 68
     1
 69
     0
 70
     0
 71
     0
 72
     0
 40
0.0
170
     2
340
0
  0
DICTIONARY
  5
110D
102
{ACAD_REACTORS
330
7
102
}
330
7
100
AcDbDictionary
  3
CEPSNTYPE
350
1117
  3
DIMSTYLEDATA
350
111B
  3
FINGERPRINTGUID
350
1118
  3
HYPERLINKBASE
350
1110
  3
INSUNITS
350
1116
  3
LAYOUTDICT
350
1112
  3
LWETCUNION
350
1115
  3
PLOTSETDICT
350
1113
  3
PLOTSTYLNAMDICT
350
1114
  3
PSVPSCALE
350
111A
  3
PUCSBASE
350
111E
  3
PUCSORGBACK
350
1124
  3
PUCSORGBOTTOM
350
1120
  3
PUCSORGFRONT
350
1123
  3
PUCSORGLEFT
350
1121
  3
PUCSORGRIGHT
350
1122
  3
PUCSORGTOP
350
111F
  3
PUCSORTHOREF
350
111C
  3
PUCSORTHOVIEW
350
111D
  3
STYLESHEET
350
1111
  3
TSTACKALIGN
350
110E
  3
TSTACKSIZE
350
110F
  3
UCSBASE
350
1127
  3
UCSORGBACK
350
112D
  3
UCSORGBOTTOM
350
1129
  3
UCSORGFRONT
350
112C
  3
UCSORGLEFT
350
112A
  3
UCSORGRIGHT
350
112B
  3
UCSORGTOP
350
1128
  3
UCSORTHOREF
350
1125
  3
UCSORTHOVIEW
350
1126
  3
VERSIONGUID
350
1119
  0
DICTIONARY
  5
102
102
{ACAD_REACTORS
330
7
102
}
330
7
100
AcDbDictionary
  3
DIMASSOC
350
103
  0
XRECORD
  5
3D2
102
{ACAD_REACTORS
330
7
102
}
330
7
100
AcDbXrecord
  1
DWGPROPS COOKIE
  2

  3

  4

  6

  7

  8

  9

300
=
301
=
302
=
303
=
304
=
305
=
306
=
307
=
308
=
309
=
 40
0.5353330671296296
 41
2452052.431989363
 42
2453406.550756377
  1

 90
        0
  0
XRECORD
  5
112F
102
{ACAD_REACTORS
330
112E
102
}
330
112E
100
AcDbXrecord
340
2
  0
XRECORD
  5
1131
102
{ACAD_REACTORS
330
1130
102
}
330
1130
100
AcDbXrecord
340
1107
  0
MLINESTYLE
  5
78
102
{ACAD_REACTORS
330
76
102
}
330
76
100
AcDbMlineStyle
  2
STANDARD
 70
     0
  3

 62
     0
 51
90.0
 52
90.0
 71
     2
 49
0.5
 62
   256
  6
BYLAYER
 49
-0.5
 62
   256
  6
BYLAYER
  0
ACDBPLACEHOLDER
  5
5
102
{ACAD_REACTORS
330
6
102
}
330
6
100
AcDbPlaceHolder
280
     0
  0
XRECORD
  5
1117
102
{ACAD_REACTORS
330
110D
102
}
330
110D
100
AcDbXrecord
 90
        0
  0
XRECORD
  5
111B
102
{ACAD_REACTORS
330
110D
102
}
330
110D
100
AcDbXrecord
1000
DSTYLE
1002
{
1070
   179
 70
     2
1070
   277
 70
     6
1002
}
  0
XRECORD
  5
1118
102
{ACAD_REACTORS
330
110D
102
}
330
110D
100
AcDbXrecord
  1
{6385560B-F4B1-4644-A7C2-A3E32AC3D232}
  0
XRECORD
  5
1110
102
{ACAD_REACTORS
330
110D
102
}
330
110D
100
AcDbXrecord
  1

  0
XRECORD
  5
1116
102
{ACAD_REACTORS
330
110D
102
}
330
110D
100
AcDbXrecord
 90
        0
  0
XRECORD
  5
1112
102
{ACAD_REACTORS
330
110D
102
}
330
110D
100
AcDbXrecord
340
61
  0
XRECORD
  5
1115
102
{ACAD_REACTORS
330
110D
102
}
330
110D
100
AcDbXrecord
 90
    10781
  0
XRECORD
  5
1113
102
{ACAD_REACTORS
330
110D
102
}
330
110D
100
AcDbXrecord
340
77
  0
XRECORD
  5
1114
102
{ACAD_REACTORS
330
110D
102
}
330
110D
100
AcDbXrecord
340
6
  0
XRECORD
  5
111A
102
{ACAD_REACTORS
330
110D
102
}
330
110D
100
AcDbXrecord
 40
0.0
  0
XRECORD
  5
111E
102
{ACAD_REACTORS
330
110D
102
}
330
110D
100
AcDbXrecord
340
0
  0
XRECORD
  5
1124
102
{ACAD_REACTORS
330
110D
102
}
330
110D
100
AcDbXrecord
 10
0.0
 20
0.0
 30
0.0
  0
XRECORD
  5
1120
102
{ACAD_REACTORS
330
110D
102
}
330
110D
100
AcDbXrecord
 10
0.0
 20
0.0
 30
0.0
  0
XRECORD
  5
1123
102
{ACAD_REACTORS
330
110D
102
}
330
110D
100
AcDbXrecord
 10
0.0
 20
0.0
 30
0.0
  0
XRECORD
  5
1121
102
{ACAD_REACTORS
330
110D
102
}
330
110D
100
AcDbXrecord
 10
0.0
 20
0.0
 30
0.0
  0
XRECORD
  5
1122
102
{ACAD_REACTORS
330
110D
102
}
330
110D
100
AcDbXrecord
 10
0.0
 20
0.0
 30
0.0
  0
XRECORD
  5
111F
102
{ACAD_REACTORS
330
110D
102
}
330
110D
100
AcDbXrecord
 10
0.0
 20
0.0
 30
0.0
  0
XRECORD
  5
111C
102
{ACAD_REACTORS
330
110D
102
}
330
110D
100
AcDbXrecord
340
0
  0
XRECORD
  5
111D
102
{ACAD_REACTORS
330
110D
102
}
330
110D
100
AcDbXrecord
 70
     0
  0
XRECORD
  5
1111
102
{ACAD_REACTORS
330
110D
102
}
330
110D
100
AcDbXrecord
  1
Sekkei.ctb
  0
XRECORD
  5
110E
102
{ACAD_REACTORS
330
110D
102
}
330
110D
100
AcDbXrecord
 90
        1
  0
XRECORD
  5
110F
102
{ACAD_REACTORS
330
110D
102
}
330
110D
100
AcDbXrecord
 90
       70
  0
XRECORD
  5
1127
102
{ACAD_REACTORS
330
110D
102
}
330
110D
100
AcDbXrecord
340
0
  0
XRECORD
  5
112D
102
{ACAD_REACTORS
330
110D
102
}
330
110D
100
AcDbXrecord
 10
0.0
 20
0.0
 30
0.0
  0
XRECORD
  5
1129
102
{ACAD_REACTORS
330
110D
102
}
330
110D
100
AcDbXrecord
 10
0.0
 20
0.0
 30
0.0
  0
XRECORD
  5
112C
102
{ACAD_REACTORS
330
110D
102
}
330
110D
100
AcDbXrecord
 10
0.0
 20
0.0
 30
0.0
  0
XRECORD
  5
112A
102
{ACAD_REACTORS
330
110D
102
}
330
110D
100
AcDbXrecord
 10
0.0
 20
0.0
 30
0.0
  0
XRECORD
  5
112B
102
{ACAD_REACTORS
330
110D
102
}
330
110D
100
AcDbXrecord
 10
0.0
 20
0.0
 30
0.0
  0
XRECORD
  5
1128
102
{ACAD_REACTORS
330
110D
102
}
330
110D
100
AcDbXrecord
 10
0.0
 20
0.0
 30
0.0
  0
XRECORD
  5
1125
102
{ACAD_REACTORS
330
110D
102
}
330
110D
100
AcDbXrecord
340
0
  0
XRECORD
  5
1126
102
{ACAD_REACTORS
330
110D
102
}
330
110D
100
AcDbXrecord
 70
     0
  0
XRECORD
  5
1119
102
{ACAD_REACTORS
330
110D
102
}
330
110D
100
AcDbXrecord
  1
{B8252E3C-436A-4967-A00B-4114831AE7F0}
  0
DICTIONARYVAR
  5
103
102
{ACAD_REACTORS
330
102
102
}
330
102
100
DictionaryVariables
280
     0
  1
1
  0
ENDSEC
  0
EOF
