  0
SECTION
  2
HEADER
  9
$CLAYER
  8
1
  9
$LTSCALE
 40
3.0
  0
ENDSEC
  0
SECTION
  2
TABLES
  0
TABLE
  2
LTYPE
 70
     4
  0
LTYPE
  2
CONTINUOUS
  3
solid line
 70
    64
 72
    65
 73
     0
 40
0.0
  0
LTYPE
  2
DASHED
  3
__ __ __ __ __ __ __ __ __ __ __ __ __ __ __
 70
    64
 72
    65
 73
     2
 40
0.75
 49
0.5
 49
-0.25
  0
LTYPE
  2
CENTER
  3
____ _ ____ _ ____ _ ____ _ ____ _ ____ _ ____
 70
    64
 72
    65
 73
     4
 40
2.0
 49
1.25
 49
-0.25
 49
0.25
 49
-0.25
  0
LTYPE
  2
PHANTOM
  3
_____ _ _ _____ _ _ _____ _ _ _____ _ _ ____
 70
    64
 72
    65
 73
     6
 40
2.5
 49
1.25
 49
-0.25
 49
0.25
 49
-0.25
 49
0.25
 49
-0.25
  0
ENDTAB
  0
TABLE
  2
LAYER
 70
     1
  0
LAYER
  2
0
 70
    64
 62
     7
  6
CONTINUOUS
  0
ENDTAB
  0
TABLE
  2
STYLE
 70
     1
  0
STYLE
  2
STANDARD
 70
     0
 40
0.000000
 41
1.000000
 50
0.000000
 71
     0
 42
3.000000
  3
txt
  4
BIGFONT
  0
ENDTAB
  0
ENDSEC
  0
SECTION
  2
BLOCKS
  0
ENDSEC
  0
SECTION
  2
ENTITIES
  0
LINE
  8
0
  6
CENTER
 10
-4.331250
 20
40.714062
 11
120.430000
 21
40.714062
  0
LINE
  8
0
  6
CONTINUOUS
 10
30.129999
 20
78.714066
 11
103.050003
 21
78.714066
  0
LINE
  8
0
  6
CONTINUOUS
 10
100.629997
 20
2.714063
 11
30.129999
 21
2.714063
  0
LINE
  8
0
  6
CONTINUOUS
 10
113.129997
 20
-0.985937
 11
177.130005
 21
-0.985937
  0
LINE
  8
0
  6
CONTINUOUS
 10
113.129997
 20
101.014061
 11
177.130005
 21
101.014061
  0
LINE
  8
0
  6
CONTINUOUS
 10
102.629997
 20
75.714066
 11
102.629997
 21
24.314062
  0
LINE
  8
0
  6
CENTER
 10
145.130005
 20
113.401566
 11
145.130005
 21
-10.223437
  0
LINE
  8
0
  6
CENTER
 10
177.130005
 20
13.151563
 11
177.130005
 21
1.651563
  0
LINE
  8
0
  6
CENTER
 10
171.286301
 20
7.014063
 11
183.536301
 21
7.014063
  0
CIRCLE
  8
0
  6
CONTINUOUS
 10
177.130005
 20
7.014063
 40
3.250000
  0
LINE
  8
0
  6
CENTER
 10
177.130005
 20
86.876564
 11
177.130005
 21
99.637032
  0
LINE
  8
0
  6
CENTER
 10
171.286301
 20
93.014061
 11
183.536301
 21
93.014061
  0
CIRCLE
  8
0
  6
CONTINUOUS
 10
177.130005
 20
93.014061
 40
3.250000
  0
LINE
  8
0
  6
CENTER
 10
113.129997
 20
86.876564
 11
113.129997
 21
98.376564
  0
LINE
  8
0
  6
CENTER
 10
118.973801
 20
93.014061
 11
106.723801
 21
93.014061
  0
CIRCLE
  8
0
  6
CONTINUOUS
 10
113.129997
 20
93.014061
 40
3.250000
  0
LINE
  8
0
  6
CENTER
 10
113.129997
 20
13.151563
 11
113.129997
 21
1.651563
  0
LINE
  8
0
  6
CENTER
 10
118.973801
 20
7.014063
 11
106.723801
 21
7.014063
  0
CIRCLE
  8
0
  6
CONTINUOUS
 10
113.129997
 20
7.014063
 40
3.250000
  0
LINE
  8
0
  6
CONTINUOUS
 10
185.130005
 20
64.375465
 11
185.130005
 21
35.652924
  0
LINE
  8
0
  6
CONTINUOUS
 10
105.129997
 20
64.375336
 11
105.129997
 21
35.652523
  0
ARC
  8
0
  6
CONTINUOUS
 10
145.130005
 20
50.014061
 40
42.500000
 50
19.749901
 51
160.250107
  0
ARC
  8
0
  6
CONTINUOUS
 10
145.130005
 20
50.014061
 40
42.500000
 50
199.749893
 51
340.250092
  0
LINE
  8
0
  6
CONTINUOUS
 10
187.630005
 20
75.714066
 11
187.630005
 21
24.314074
  0
LINE
  8
0
  6
CONTINUOUS
 10
185.052704
 20
94.123222
 11
187.630005
 21
75.714066
  0
LINE
  8
0
  6
CONTINUOUS
 10
185.052704
 20
5.904943
 11
187.630005
 21
24.314074
  0
LINE
  8
0
  6
CONTINUOUS
 10
105.207298
 20
5.904863
 11
102.629997
 21
24.314062
  0
LINE
  8
0
  6
CONTINUOUS
 10
105.207298
 20
94.123215
 11
102.629997
 21
75.714066
  0
LINE
  8
0
  6
CENTER
 10
114.392502
 20
63.014065
 11
174.184067
 21
63.014065
  0
LINE
  8
0
  6
CONTINUOUS
 10
154.630005
 20
65.514061
 11
154.630005
 21
60.514065
  0
LINE
  8
0
  6
CONTINUOUS
 10
149.630005
 20
60.514065
 11
149.630005
 21
65.514061
  0
LINE
  8
0
  6
CONTINUOUS
 10
149.630005
 20
65.514061
 11
154.630005
 21
65.514061
  0
LINE
  8
0
  6
CONTINUOUS
 10
149.630005
 20
60.514065
 11
154.630005
 21
60.514065
  0
ARC
  8
0
  6
CONTINUOUS
 10
145.130005
 20
63.014065
 40
7.500000
 50
19.471201
 51
340.528809
  0
LINE
  8
0
  6
CONTINUOUS
 10
125.129997
 20
97.014061
 11
165.130005
 21
97.014061
  0
LINE
  8
0
  6
CONTINUOUS
 10
125.129997
 20
3.014063
 11
165.130005
 21
3.014063
  0
LINE
  8
0
  6
CONTINUOUS
 10
182.755096
 20
81.684563
 11
185.154297
 21
64.547493
  0
LINE
  8
0
  6
CONTINUOUS
 10
185.132401
 20
35.323799
 11
182.755096
 21
18.343563
  0
LINE
  8
0
  6
CONTINUOUS
 10
105.180496
 20
34.946140
 11
107.504898
 21
18.343573
  0
LINE
  8
0
  6
CONTINUOUS
 10
107.504898
 20
81.684555
 11
105.046661
 21
64.125740
  0
ARC
  8
0
  6
CONTINUOUS
 10
165.130005
 20
93.014061
 40
4.000000
 50
0.000000
 51
90.000000
  0
ARC
  8
0
  6
CONTINUOUS
 10
125.129997
 20
93.014061
 40
4.000000
 50
90.000000
 51
180.000000
  0
ARC
  8
0
  6
CONTINUOUS
 10
165.130005
 20
7.014063
 40
4.000000
 50
-90.000000
 51
0.000000
  0
ARC
  8
0
  6
CONTINUOUS
 10
125.129997
 20
7.014063
 40
4.000000
 50
-180.000000
 51
-90.000000
  0
ARC
  8
0
  6
CONTINUOUS
 10
178.793793
 20
81.129967
 40
4.000000
 50
7.969701
 51
97.969757
  0
ARC
  8
0
  6
CONTINUOUS
 10
177.130005
 20
93.014061
 40
8.000000
 50
180.000000
 51
277.969513
  0
ARC
  8
0
  6
CONTINUOUS
 10
177.130005
 20
93.014061
 40
8.000000
 50
7.969647
 51
90.000000
  0
ARC
  8
0
  6
CONTINUOUS
 10
111.466202
 20
81.129967
 40
4.000000
 50
82.030243
 51
172.030304
  0
ARC
  8
0
  6
CONTINUOUS
 10
178.793793
 20
18.898163
 40
4.000000
 50
-97.969757
 51
-7.969701
  0
ARC
  8
0
  6
CONTINUOUS
 10
111.466202
 20
18.898163
 40
4.000000
 50
-172.030304
 51
-82.030243
  0
ARC
  8
0
  6
CONTINUOUS
 10
113.129997
 20
93.014061
 40
8.000000
 50
90.000000
 51
172.030502
  0
ARC
  8
0
  6
CONTINUOUS
 10
113.129997
 20
93.014061
 40
8.000000
 50
-97.969597
 51
0.000000
  0
ARC
  8
0
  6
CONTINUOUS
 10
113.129997
 20
7.014063
 40
8.000000
 50
0.000000
 51
97.969818
  0
ARC
  8
0
  6
CONTINUOUS
 10
113.129997
 20
7.014063
 40
8.000000
 50
187.969604
 51
270.000000
  0
ARC
  8
0
  6
CONTINUOUS
 10
177.130005
 20
7.014063
 40
8.000000
 50
270.000000
 51
352.030304
  0
ARC
  8
0
  6
CONTINUOUS
 10
177.130005
 20
7.014063
 40
8.000000
 50
82.030350
 51
180.000000
  0
LINE
  8
0
  6
CONTINUOUS
 10
102.629997
 20
4.714063
 11
102.629997
 21
10.714073
  0
ARC
  8
0
  6
CONTINUOUS
 10
100.629997
 20
4.714063
 40
2.000000
 50
-90.000000
 51
0.000000
  0
ARC
  8
0
  6
CONTINUOUS
 10
107.629997
 20
10.714083
 40
5.000000
 50
135.792801
 51
180.000000
  0
LINE
  8
0
  6
CONTINUOUS
 10
30.129999
 20
70.963036
 11
101.879997
 21
70.963036
  0
LINE
  8
0
  6
CONTINUOUS
 10
30.129999
 20
10.465103
 11
102.129997
 21
10.465103
  0
CIRCLE
  8
0
  6
CONTINUOUS
 10
145.130005
 20
63.014065
 40
20.000000
  0
LINE
  8
0
  6
CONTINUOUS
 10
138.755005
 20
30.567293
 11
138.755005
 21
25.014063
  0
LINE
  8
0
  6
CONTINUOUS
 10
141.942505
 20
32.584377
 11
141.942505
 21
34.576565
  0
LINE
  8
0
  6
CONTINUOUS
 10
148.317505
 20
32.584377
 11
148.317505
 21
34.576565
  0
LINE
  8
0
  6
CONTINUOUS
 10
144.507401
 20
33.406155
 11
144.507401
 21
26.059963
  0
LINE
  8
0
  6
CONTINUOUS
 10
145.702805
 20
33.406155
 11
145.702805
 21
26.059963
  0
LINE
  8
0
  6
CONTINUOUS
 10
151.978104
 20
33.406155
 11
151.978104
 21
26.010162
  0
LINE
  8
0
  6
CONTINUOUS
 10
153.073807
 20
29.484034
 11
153.073807
 21
26.010162
  0
LINE
  8
0
  6
CONTINUOUS
 10
137.242493
 20
33.306545
 11
134.170593
 21
33.306545
  0
LINE
  8
0
  6
CONTINUOUS
 10
134.170593
 20
33.306545
 11
133.450806
 21
32.414036
  0
LINE
  8
0
  6
CONTINUOUS
 10
133.537399
 20
34.576565
 11
132.380005
 21
33.094563
  0
LINE
  8
0
  6
CONTINUOUS
 10
133.450806
 20
26.904984
 11
134.182098
 21
26.134672
  0
LINE
  8
0
  6
CONTINUOUS
 10
132.380005
 20
26.254923
 11
133.609802
 21
25.014063
  0
LINE
  8
0
  6
CONTINUOUS
 10
132.380005
 20
33.094563
 11
132.380005
 21
26.254923
  0
LINE
  8
0
  6
CONTINUOUS
 10
133.450806
 20
32.414036
 11
133.450806
 21
26.904984
  0
LINE
  8
0
  6
CONTINUOUS
 10
137.833603
 20
32.735096
 11
137.230392
 21
33.306545
  0
LINE
  8
0
  6
CONTINUOUS
 10
137.824005
 20
34.576565
 11
138.755005
 21
33.543423
  0
LINE
  8
0
  6
CONTINUOUS
 10
137.833603
 20
32.584377
 11
138.755005
 21
32.584377
  0
LINE
  8
0
  6
CONTINUOUS
 10
133.537399
 20
34.576565
 11
137.824005
 21
34.576565
  0
LINE
  8
0
  6
CONTINUOUS
 10
137.833603
 20
29.521393
 11
136.165207
 21
29.521393
  0
LINE
  8
0
  6
CONTINUOUS
 10
137.833603
 20
28.525293
 11
137.833603
 21
29.322172
  0
LINE
  8
0
  6
CONTINUOUS
 10
135.841400
 20
26.134672
 11
134.182098
 21
26.134672
  0
ARC
  8
0
  6
CONTINUOUS
 10
135.841400
 20
28.126854
 40
1.992187
 50
-89.999786
 51
0.000109
  0
LINE
  8
0
  6
CONTINUOUS
 10
137.833603
 20
25.776323
 11
137.833603
 21
25.014063
  0
LINE
  8
0
  6
CONTINUOUS
 10
138.755005
 20
33.543423
 11
138.755005
 21
32.584377
  0
LINE
  8
0
  6
CONTINUOUS
 10
137.833603
 20
29.521393
 11
137.833603
 21
28.126854
  0
LINE
  8
0
  6
CONTINUOUS
 10
136.165207
 20
30.567293
 11
136.165207
 21
29.521393
  0
LINE
  8
0
  6
CONTINUOUS
 10
137.833603
 20
25.014063
 11
138.755005
 21
25.014063
  0
LINE
  8
0
  6
CONTINUOUS
 10
137.833603
 20
25.776323
 11
136.925095
 21
25.014063
  0
LINE
  8
0
  6
CONTINUOUS
 10
145.702805
 20
26.059963
 11
146.101196
 21
26.059963
  0
LINE
  8
0
  6
CONTINUOUS
 10
144.034302
 20
26.059963
 11
144.034302
 21
25.014063
  0
LINE
  8
0
  6
CONTINUOUS
 10
146.101196
 20
26.059963
 11
146.101196
 21
25.014063
  0
LINE
  8
0
  6
CONTINUOUS
 10
147.652496
 20
32.584377
 11
148.317505
 21
32.584377
  0
LINE
  8
0
  6
CONTINUOUS
 10
141.942505
 20
32.584377
 11
142.650101
 21
32.584377
  0
LINE
  8
0
  6
CONTINUOUS
 10
141.942505
 20
34.576565
 11
148.317505
 21
34.576565
  0
LINE
  8
0
  6
CONTINUOUS
 10
144.034302
 20
25.014063
 11
146.101196
 21
25.014063
  0
LINE
  8
0
  6
CONTINUOUS
 10
144.034302
 20
26.059963
 11
144.507401
 21
26.059963
  0
ARC
  8
0
  6
CONTINUOUS
 10
155.327499
 20
32.024075
 40
2.552490
 50
-73.981873
 51
90.003510
  0
ARC
  8
0
  6
CONTINUOUS
 10
155.327499
 20
32.024075
 40
1.557193
 50
-82.585274
 51
62.411850
  0
LINE
  8
0
  6
CONTINUOUS
 10
151.505005
 20
34.576565
 11
155.327499
 21
34.576565
  0
LINE
  8
0
  6
CONTINUOUS
 10
151.505005
 20
34.576565
 11
151.505005
 21
33.406155
  0
LINE
  8
0
  6
CONTINUOUS
 10
153.073807
 20
33.406155
 11
153.073807
 21
30.479902
  0
LINE
  8
0
  6
CONTINUOUS
 10
156.031799
 20
29.570683
 11
157.611694
 21
26.010162
  0
LINE
  8
0
  6
CONTINUOUS
 10
155.114304
 20
29.484034
 11
156.609299
 21
26.010162
  0
LINE
  8
0
  6
CONTINUOUS
 10
151.505005
 20
26.010162
 11
151.978104
 21
26.010162
  0
LINE
  8
0
  6
CONTINUOUS
 10
153.073807
 20
26.010162
 11
153.509598
 21
26.010162
  0
LINE
  8
0
  6
CONTINUOUS
 10
153.509598
 20
25.014063
 11
151.505005
 21
25.014063
  0
LINE
  8
0
  6
CONTINUOUS
 10
156.410797
 20
26.010162
 11
156.609299
 21
26.010162
  0
LINE
  8
0
  6
CONTINUOUS
 10
157.611694
 20
26.010162
 11
157.880005
 21
26.010162
  0
LINE
  8
0
  6
CONTINUOUS
 10
156.410797
 20
25.014063
 11
157.880005
 21
25.014063
  0
LINE
  8
0
  6
CONTINUOUS
 10
157.880005
 20
26.010162
 11
157.880005
 21
25.014063
  0
LINE
  8
0
  6
CONTINUOUS
 10
156.410797
 20
26.010162
 11
156.410797
 21
25.014063
  0
LINE
  8
0
  6
CONTINUOUS
 10
153.509598
 20
26.010162
 11
153.509598
 21
25.014063
  0
LINE
  8
0
  6
CONTINUOUS
 10
151.505005
 20
26.010162
 11
151.505005
 21
25.014063
  0
LINE
  8
0
  6
CONTINUOUS
 10
142.992493
 20
33.406155
 11
142.650101
 21
32.584377
  0
LINE
  8
0
  6
CONTINUOUS
 10
147.363800
 20
33.406155
 11
147.652496
 21
32.584377
  0
LINE
  8
0
  6
CONTINUOUS
 10
145.702805
 20
33.406155
 11
147.363800
 21
33.406155
  0
LINE
  8
0
  6
CONTINUOUS
 10
144.507401
 20
33.406155
 11
142.992493
 21
33.406155
  0
LINE
  8
0
  6
CONTINUOUS
 10
151.505005
 20
33.406155
 11
151.978104
 21
33.406155
  0
LINE
  8
0
  6
CONTINUOUS
 10
153.073807
 20
33.406155
 11
156.048706
 21
33.404209
  0
LINE
  8
0
  6
CONTINUOUS
 10
137.833603
 20
32.735096
 11
137.833603
 21
32.584377
  0
LINE
  8
0
  6
CONTINUOUS
 10
133.609802
 20
25.014063
 11
136.925095
 21
25.014063
  0
LINE
  8
0
  6
CONTINUOUS
 10
153.073807
 20
30.479902
 11
155.528503
 21
30.479902
  0
LINE
  8
0
  6
CONTINUOUS
 10
153.073807
 20
29.484034
 11
155.114304
 21
29.484034
  0
LINE
  8
0
  6
CONTINUOUS
 10
136.165207
 20
30.567293
 11
138.755005
 21
30.567293
  0
LINE
  8
0
  6
CENTER
 10
145.130005
 20
288.480011
 11
145.130005
 21
151.979996
  0
LINE
  8
0
  6
CENTER
 10
-26.174999
 20
219.979996
 11
193.630005
 21
219.979996
  0
LINE
  8
0
  6
CONTINUOUS
 10
183.822479
 20
250.979996
 11
104.578316
 21
250.979996
  0
LINE
  8
0
  6
CONTINUOUS
 10
100.498383
 20
257.980011
 11
30.129999
 21
257.980011
  0
LINE
  8
0
  6
CONTINUOUS
 10
30.129999
 20
242.979996
 11
106.049683
 21
242.979996
  0
LINE
  8
0
  6
CONTINUOUS
 10
103.420853
 20
188.979996
 11
186.420166
 21
188.979996
  0
LINE
  8
0
  6
CONTINUOUS
 10
101.116394
 20
181.979996
 11
30.129999
 21
181.979996
  0
LINE
  8
0
  6
CONTINUOUS
 10
30.129999
 20
196.979996
 11
102.184837
 21
196.979996
  0
LINE
  8
0
  6
CONTINUOUS
 10
125.129997
 20
253.979996
 11
125.129997
 21
250.979996
  0
LINE
  8
0
  6
CONTINUOUS
 10
165.130005
 20
253.979996
 11
165.130005
 21
250.979996
  0
LINE
  8
0
  6
CONTINUOUS
 10
164.130005
 20
254.979996
 11
126.129997
 21
254.979996
  0
ARC
  8
0
  6
CONTINUOUS
 10
126.129997
 20
253.979996
 40
1.000000
 50
90.000000
 51
180.000000
  0
ARC
  8
0
  6
CONTINUOUS
 10
164.130005
 20
253.979996
 40
1.000000
 50
0.000000
 51
90.000000
  0
LINE
  8
0
  6
CONTINUOUS
 10
137.630005
 20
283.980011
 11
137.630005
 21
256.980011
  0
LINE
  8
0
  6
CONTINUOUS
 10
137.630005
 20
283.980011
 11
154.630005
 21
283.980011
  0
LINE
  8
0
  6
CONTINUOUS
 10
136.630005
 20
256.980011
 11
153.630005
 21
256.980011
  0
LINE
  8
0
  6
CONTINUOUS
 10
136.630005
 20
256.980011
 11
136.630005
 21
254.979996
  0
LINE
  8
0
  6
CONTINUOUS
 10
153.630005
 20
256.980011
 11
153.630005
 21
254.979996
  0
LINE
  8
0
  6
CONTINUOUS
 10
154.630005
 20
262.480011
 11
154.630005
 21
283.980011
  0
LINE
  8
0
  6
CONTINUOUS
 10
152.201004
 20
262.480011
 11
152.201004
 21
283.980011
  0
LINE
  8
0
  6
CONTINUOUS
 10
152.201004
 20
262.480011
 11
154.630005
 21
262.480011
  0
LINE
  8
0
  6
CONTINUOUS
 10
152.630005
 20
262.480011
 11
152.630005
 21
256.980011
  0
LINE
  8
0
  6
CONTINUOUS
 10
160.130005
 20
189.979996
 11
160.130005
 21
249.014908
  0
LINE
  8
0
  6
CONTINUOUS
 10
130.130005
 20
189.979996
 11
130.130005
 21
249.014908
  0
LINE
  8
0
  6
CONTINUOUS
 10
102.420586
 20
242.982742
 11
102.579002
 21
249.032349
  0
LINE
  8
0
  6
CONTINUOUS
 10
106.904610
 20
190.161255
 11
106.904610
 21
240.980270
  0
LINE
  8
0
  6
CONTINUOUS
 10
102.629997
 20
179.979996
 11
187.630005
 21
179.979996
  0
LINE
  8
0
  6
CONTINUOUS
 10
185.821793
 20
249.032349
 11
187.630005
 21
179.979996
  0
ARC
  8
0
  6
CONTINUOUS
 10
183.822479
 20
248.979996
 40
2.000000
 50
1.500000
 51
90.000000
  0
LINE
  8
0
  6
CONTINUOUS
 10
101.582565
 20
219.979996
 11
102.629997
 21
179.979996
  0
LINE
  8
0
  6
CONTINUOUS
 10
185.052704
 20
179.979996
 11
185.052704
 21
187.669693
  0
LINE
  8
0
  6
CONTINUOUS
 10
105.207298
 20
179.979996
 11
105.207298
 21
187.669693
  0
ARC
  8
0
  6
CONTINUOUS
 10
129.130005
 20
189.979996
 40
1.000000
 50
-90.000000
 51
0.000000
  0
ARC
  8
0
  6
CONTINUOUS
 10
161.130005
 20
189.979996
 40
1.000000
 50
180.000000
 51
270.000000
  0
LINE
  8
0
  6
CONTINUOUS
 10
130.130005
 20
190.300003
 11
160.130005
 21
190.300003
  0
ARC
  8
0
  6
CONTINUOUS
 10
186.420166
 20
187.979996
 40
1.000000
 50
1.499998
 51
90.000000
  0
LINE
  8
0
  6
CONTINUOUS
 10
102.497696
 20
256.032349
 11
102.579002
 21
252.927643
  0
ARC
  8
0
  6
CONTINUOUS
 10
103.420853
 20
187.979996
 40
1.000000
 50
90.000000
 51
181.500000
  0
ARC
  8
0
  6
CONTINUOUS
 10
101.116394
 20
180.479996
 40
1.500000
 50
1.499999
 51
90.000000
  0
ARC
  8
0
  6
CONTINUOUS
 10
100.498383
 20
255.979996
 40
2.000000
 50
1.500000
 51
90.000000
  0
ARC
  8
0
  6
CONTINUOUS
 10
104.578316
 20
252.979996
 40
2.000000
 50
181.500000
 51
270.000000
  0
ARC
  8
0
  6
CONTINUOUS
 10
104.578316
 20
248.979996
 40
2.000000
 50
90.000000
 51
178.500000
  0
LINE
  8
0
  6
CENTER
 10
177.130005
 20
176.089844
 11
177.130005
 21
193.230621
  0
LINE
  8
0
  6
DASHED
 10
180.380005
 20
188.979996
 11
180.380005
 21
179.979996
  0
LINE
  8
0
  6
DASHED
 10
173.880005
 20
188.979996
 11
173.880005
 21
179.979996
  0
LINE
  8
0
  6
CENTER
 10
113.129997
 20
176.089844
 11
113.129997
 21
193.230621
  0
LINE
  8
0
  6
DASHED
 10
109.879997
 20
188.979996
 11
109.879997
 21
179.979996
  0
LINE
  8
0
  6
DASHED
 10
116.379997
 20
188.979996
 11
116.379997
 21
179.979996
  0
LINE
  8
0
  6
CONTINUOUS
 10
137.630005
 20
155.979996
 11
137.630005
 21
179.979996
  0
LINE
  8
0
  6
CONTINUOUS
 10
137.630005
 20
155.979996
 11
154.630005
 21
155.979996
  0
LINE
  8
0
  6
CONTINUOUS
 10
154.630005
 20
177.479996
 11
154.630005
 21
155.979996
  0
LINE
  8
0
  6
CONTINUOUS
 10
152.201004
 20
177.479996
 11
152.201004
 21
155.979996
  0
LINE
  8
0
  6
CONTINUOUS
 10
152.201004
 20
177.479996
 11
154.630005
 21
177.479996
  0
LINE
  8
0
  6
CONTINUOUS
 10
152.630005
 20
177.479996
 11
152.630005
 21
179.979996
  0
LINE
  8
0
  6
CENTER
 10
320.130005
 20
-8.973435
 11
320.130005
 21
105.526566
  0
LINE
  8
0
  6
CONTINUOUS
 10
351.130005
 20
6.961994
 11
351.130005
 21
93.048660
  0
LINE
  8
0
  6
CONTINUOUS
 10
355.130005
 20
44.014061
 11
355.130005
 21
82.014061
  0
LINE
  8
0
  6
CENTER
 10
251.330841
 20
63.014065
 11
389.248352
 21
63.014065
  0
LINE
  8
0
  6
CONTINUOUS
 10
354.130005
 20
83.014061
 11
353.130005
 21
83.014061
  0
LINE
  8
0
  6
CONTINUOUS
 10
354.130005
 20
43.014061
 11
353.130005
 21
43.014061
  0
LINE
  8
0
  6
CONTINUOUS
 10
349.164886
 20
95.048363
 11
291.095093
 21
96.061745
  0
LINE
  8
0
  6
CONTINUOUS
 10
349.164886
 20
4.962294
 11
291.095093
 21
3.948474
  0
ARC
  8
0
  6
CONTINUOUS
 10
349.130005
 20
93.048653
 40
2.000000
 50
0.000000
 51
89.000359
  0
ARC
  8
0
  6
CONTINUOUS
 10
349.130005
 20
6.961984
 40
2.000000
 50
-88.999634
 51
0.000000
  0
ARC
  8
0
  6
CONTINUOUS
 10
354.130005
 20
82.014061
 40
1.000000
 50
0.000000
 51
90.000000
  0
ARC
  8
0
  6
CONTINUOUS
 10
354.130005
 20
44.014061
 40
1.000000
 50
-90.000000
 51
0.000000
  0
LINE
  8
0
  6
CONTINUOUS
 10
289.130005
 20
21.314083
 11
289.130005
 21
0.514064
  0
LINE
  8
0
  6
CONTINUOUS
 10
280.130005
 20
101.014061
 11
287.979004
 21
101.014061
  0
LINE
  8
0
  6
CONTINUOUS
 10
287.595306
 20
-0.985936
 11
280.130005
 21
-0.985936
  0
LINE
  8
0
  6
CONTINUOUS
 10
292.631012
 20
75.714066
 11
349.161285
 21
75.714066
  0
LINE
  8
0
  6
CONTINUOUS
 10
292.130005
 20
24.314064
 11
349.692505
 21
24.314064
  0
ARC
  8
0
  6
CONTINUOUS
 10
287.630005
 20
0.514064
 40
1.500000
 50
-90.000000
 51
0.000000
  0
LINE
  8
0
  6
CONTINUOUS
 10
289.427887
 20
99.902283
 11
289.867706
 21
98.260925
  0
ARC
  8
0
  6
CONTINUOUS
 10
292.763092
 20
99.033104
 40
3.000000
 50
194.932602
 51
269.000610
  0
ARC
  8
0
  6
CONTINUOUS
 10
287.979004
 20
99.514061
 40
1.500000
 50
15.000070
 51
90.000000
  0
ARC
  8
0
  6
CONTINUOUS
 10
292.130005
 20
21.314083
 40
3.000000
 50
90.000000
 51
180.000000
  0
ARC
  8
0
  6
CONTINUOUS
 10
353.130005
 20
85.014061
 40
2.000000
 50
180.000000
 51
270.000000
  0
ARC
  8
0
  6
CONTINUOUS
 10
353.130005
 20
41.014072
 40
2.000000
 50
90.000000
 51
180.000000
  0
LINE
  8
0
  6
CONTINUOUS
 10
357.130005
 20
70.514061
 11
384.130005
 21
70.514061
  0
LINE
  8
0
  6
CONTINUOUS
 10
357.130005
 20
55.514065
 11
384.130005
 21
55.514065
  0
LINE
  8
0
  6
CONTINUOUS
 10
384.130005
 20
55.514065
 11
384.130005
 21
70.514061
  0
LINE
  8
0
  6
CONTINUOUS
 10
362.630005
 20
60.514065
 11
384.130005
 21
60.514065
  0
LINE
  8
0
  6
CONTINUOUS
 10
362.630005
 20
65.514061
 11
384.130005
 21
65.514061
  0
ARC
  8
0
  6
CONTINUOUS
 10
362.630005
 20
63.014072
 40
2.500000
 50
90.000000
 51
180.000000
  0
ARC
  8
0
  6
CONTINUOUS
 10
362.630005
 20
63.014065
 40
2.500000
 50
180.000000
 51
270.000000
  0
LINE
  8
0
  6
CENTER
 10
276.411316
 20
93.014061
 11
292.661316
 21
93.014061
  0
LINE
  8
0
  6
CENTER
 10
277.411316
 20
7.014064
 11
292.411316
 21
7.014064
  0
LINE
  8
0
  6
DASHED
 10
280.130005
 20
10.264064
 11
289.130005
 21
10.264064
  0
LINE
  8
0
  6
DASHED
 10
280.130005
 20
3.764064
 11
289.130005
 21
3.764064
  0
LINE
  8
0
  6
DASHED
 10
280.130005
 20
96.264061
 11
289.130005
 21
96.264061
  0
LINE
  8
0
  6
DASHED
 10
280.130005
 20
89.764061
 11
289.130005
 21
89.764061
  0
LINE
  8
0
  6
CONTINUOUS
 10
299.130005
 20
2.714064
 11
341.130005
 21
2.714064
  0
ARC
  8
0
  6
CONTINUOUS
 10
341.130005
 20
4.714064
 40
2.000000
 50
-90.000000
 51
0.000000
  0
ARC
  8
0
  6
CONTINUOUS
 10
299.130005
 20
4.714064
 40
2.000000
 50
199.216690
 51
270.000000
  0
LINE
  8
0
  6
CONTINUOUS
 10
343.130005
 20
4.714064
 11
343.130005
 21
4.856933
  0
LINE
  8
0
  6
CONTINUOUS
 10
285.130005
 20
44.014061
 11
285.130005
 21
82.014061
  0
LINE
  8
0
  6
CONTINUOUS
 10
286.130005
 20
43.014061
 11
289.130005
 21
43.014061
  0
ARC
  8
0
  6
CONTINUOUS
 10
286.130005
 20
82.014061
 40
1.000000
 50
90.000000
 51
180.000000
  0
ARC
  8
0
  6
CONTINUOUS
 10
286.130005
 20
44.014061
 40
1.000000
 50
180.000000
 51
270.000000
  0
LINE
  8
0
  6
CONTINUOUS
 10
283.130005
 20
70.514061
 11
256.130005
 21
70.514061
  0
LINE
  8
0
  6
CONTINUOUS
 10
283.130005
 20
55.514065
 11
256.130005
 21
55.514065
  0
LINE
  8
0
  6
CONTINUOUS
 10
256.130005
 20
55.514065
 11
256.130005
 21
70.514061
  0
LINE
  8
0
  6
CONTINUOUS
 10
283.130005
 20
71.514061
 11
283.130005
 21
54.514065
  0
LINE
  8
0
  6
CONTINUOUS
 10
277.630005
 20
60.514065
 11
256.130005
 21
60.514065
  0
LINE
  8
0
  6
CONTINUOUS
 10
277.630005
 20
65.514061
 11
256.130005
 21
65.514061
  0
ARC
  8
0
  6
CONTINUOUS
 10
277.630005
 20
63.014072
 40
2.500000
 50
0.000000
 51
90.000000
  0
ARC
  8
0
  6
CONTINUOUS
 10
277.630005
 20
63.014065
 40
2.500000
 50
-90.000000
 51
0.000000
  0
LINE
  8
0
  6
CONTINUOUS
 10
280.130005
 20
-0.985936
 11
280.130005
 21
55.514065
  0
LINE
  8
0
  6
CONTINUOUS
 10
280.130005
 20
101.014061
 11
280.130005
 21
70.514061
  0
LINE
  8
0
  6
CONTINUOUS
 10
286.130005
 20
83.014061
 11
289.130005
 21
83.014061
  0
LINE
  8
0
  6
CONTINUOUS
 10
357.130005
 20
71.514061
 11
357.130005
 21
54.514065
  0
LINE
  8
0
  6
CENTER
 10
273.744293
 20
40.714062
 11
361.867493
 21
40.714062
  0
LINE
  8
0
  6
CONTINUOUS
 10
289.130005
 20
100.475945
 11
289.130005
 21
39.351383
  0
LINE
  8
0
  6
CONTINUOUS
 10
355.130005
 20
71.514061
 11
357.130005
 21
71.514061
  0
LINE
  8
0
  6
CONTINUOUS
 10
355.130005
 20
54.514065
 11
357.130005
 21
54.514065
  0
LINE
  8
0
  6
CONTINUOUS
 10
283.130005
 20
71.514061
 11
285.130005
 21
71.514061
  0
LINE
  8
0
  6
CONTINUOUS
 10
283.130005
 20
54.514065
 11
285.130005
 21
54.514065
  0
ARC
  8
0
  6
CONTINUOUS
 10
291.130005
 20
98.061440
 40
2.000000
 50
180.000000
 51
269.000610
  0
ARC
  8
0
  6
CONTINUOUS
 10
291.130005
 20
1.948794
 40
2.000000
 50
91.000641
 51
180.000000
  0
LINE
  8
0
  6
CONTINUOUS
 10
289.527191
 20
0.496424
 11
289.864014
 21
1.753554
  0
ARC
  8
0
  6
CONTINUOUS
 10
287.595306
 20
1.014064
 40
2.000000
 50
270.000000
 51
345.000092
  0
ARC
  8
0
  6
CONTINUOUS
 10
292.761810
 20
0.977134
 40
3.000000
 50
91.000488
 51
165.000397
  0
LINE
  8
0
  6
DASHED
 10
341.164886
 20
78.346909
 11
320.130005
 21
78.714058
  0
ARC
  8
0
  6
DASHED
 10
341.130005
 20
76.347198
 40
2.000000
 50
0.000000
 51
89.000137
  0
LINE
  8
0
  6
DASHED
 10
297.130005
 20
76.347198
 11
297.130005
 21
72.415794
  0
LINE
  8
0
  6
DASHED
 10
299.095093
 20
78.346909
 11
320.130005
 21
78.714058
  0
ARC
  8
0
  6
DASHED
 10
299.130005
 20
76.347198
 40
2.000000
 50
90.999863
 51
180.000000
  0
LINE
  8
0
  6
DASHED
 10
297.130005
 20
4.714064
 11
297.130005
 21
9.012329
  0
ARC
  8
0
  6
DASHED
 10
299.130005
 20
4.714064
 40
2.000000
 50
180.000000
 51
199.216690
  0
ARC
  8
0
  6
DASHED
 10
320.130005
 20
40.714062
 40
38.000000
 50
129.356705
 51
230.643295
  0
ARC
  8
0
  6
CONTINUOUS
 10
320.130005
 20
40.714062
 40
38.000000
 50
-35.334499
 51
21.294262
  0
LINE
  8
0
  6
DASHED
 10
343.130005
 20
4.856933
 11
343.130005
 21
9.012329
  0
ARC
  8
0
  6
DASHED
 10
320.130005
 20
40.714062
 40
38.000000
 50
-50.643299
 51
-35.334499
  0
ARC
  8
0
  6
DASHED
 10
320.130005
 20
40.714062
 40
38.000000
 50
21.294262
 51
50.643299
  0
LINE
  8
0
  6
DASHED
 10
343.130005
 20
76.347198
 11
343.130005
 21
72.415794
  0
ARC
  8
0
  6
DASHED
 10
294.130005
 20
72.415794
 40
3.000000
 50
-50.643299
 51
0.000000
  0
ARC
  8
0
  6
DASHED
 10
346.130005
 20
72.415794
 40
3.000000
 50
180.000000
 51
230.643295
  0
ARC
  8
0
  6
DASHED
 10
346.130005
 20
9.012329
 40
3.000000
 50
129.356705
 51
180.000000
  0
ARC
  8
0
  6
DASHED
 10
294.130005
 20
9.012329
 40
3.000000
 50
0.000000
 51
50.643299
  0
LINE
  8
0
  6
CONTINUOUS
 10
297.130005
 20
95.714066
 11
297.130005
 21
98.197479
  0
LINE
  8
0
  6
CONTINUOUS
 10
342.880005
 20
96.214066
 11
342.880005
 21
97.653259
  0
LINE
  8
0
  6
CONTINUOUS
 10
337.380005
 20
96.213860
 11
337.380005
 21
97.653259
  0
LINE
  8
0
  6
CONTINUOUS
 10
342.880005
 20
96.914062
 11
337.380005
 21
96.914062
  0
ARC
  8
0
  6
CONTINUOUS
 10
340.130005
 20
91.914062
 40
7.000000
 50
73.041977
 51
106.956497
  0
ARC
  8
0
  6
CONTINUOUS
 10
338.380005
 20
97.653259
 40
1.000000
 50
106.956902
 51
180.000000
  0
ARC
  8
0
  6
CONTINUOUS
 10
341.880005
 20
97.653259
 40
1.000000
 50
0.000000
 51
73.041847
  0
LINE
  8
0
  6
DASHED
 10
342.630005
 20
91.214066
 11
342.630005
 21
92.214066
  0
LINE
  8
0
  6
CONTINUOUS
 10
343.130005
 20
95.153679
 11
343.130005
 21
98.197479
  0
LINE
  8
0
  6
CONTINUOUS
 10
342.880005
 20
96.214066
 11
337.130005
 21
96.214066
  0
LINE
  8
0
  6
DASHED
 10
297.630005
 20
91.214066
 11
297.630005
 21
92.214066
  0
ARC
  8
0
  6
CONTINUOUS
 10
320.130005
 20
91.714066
 40
6.000000
 50
38.797073
 51
139.203384
  0
LINE
  8
0
  6
CONTINUOUS
 10
336.630005
 20
98.700531
 11
336.630005
 21
96.714066
  0
ARC
  8
0
  6
CONTINUOUS
 10
320.130005
 20
-150.285919
 40
250.000000
 50
84.826019
 51
95.173981
  0
ARC
  8
0
  6
CONTINUOUS
 10
342.630005
 20
98.197479
 40
0.500000
 50
0.000000
 51
84.826019
  0
ARC
  8
0
  6
CONTINUOUS
 10
336.130005
 20
98.700531
 40
0.500000
 50
0.000000
 51
86.323196
  0
ARC
  8
0
  6
CONTINUOUS
 10
342.630005
 20
95.714066
 40
0.500000
 50
0.000000
 51
90.000000
  0
ARC
  8
0
  6
CONTINUOUS
 10
337.130005
 20
96.714066
 40
0.500000
 50
180.000000
 51
270.000000
  0
LINE
  8
0
  6
CONTINUOUS
 10
297.380005
 20
96.214066
 11
297.380005
 21
97.653259
  0
LINE
  8
0
  6
CONTINUOUS
 10
302.880005
 20
96.213860
 11
302.880005
 21
97.653259
  0
LINE
  8
0
  6
CONTINUOUS
 10
297.380005
 20
96.914062
 11
302.880005
 21
96.914062
  0
ARC
  8
0
  6
CONTINUOUS
 10
300.130005
 20
91.914062
 40
7.000000
 50
73.043503
 51
106.958023
  0
ARC
  8
0
  6
CONTINUOUS
 10
301.880005
 20
97.653259
 40
1.000000
 50
0.000000
 51
73.043098
  0
ARC
  8
0
  6
CONTINUOUS
 10
298.380005
 20
97.653259
 40
1.000000
 50
106.958153
 51
180.000000
  0
LINE
  8
0
  6
CONTINUOUS
 10
297.380005
 20
96.214066
 11
303.130005
 21
96.214066
  0
LINE
  8
0
  6
CONTINUOUS
 10
303.630005
 20
98.700531
 11
303.630005
 21
96.714066
  0
ARC
  8
0
  6
CONTINUOUS
 10
297.630005
 20
98.197479
 40
0.500000
 50
95.173981
 51
180.000000
  0
ARC
  8
0
  6
CONTINUOUS
 10
304.130005
 20
98.700531
 40
0.500000
 50
93.676804
 51
180.000000
  0
ARC
  8
0
  6
CONTINUOUS
 10
297.630005
 20
95.714066
 40
0.500000
 50
90.000000
 51
180.000000
  0
ARC
  8
0
  6
CONTINUOUS
 10
303.130005
 20
96.714066
 40
0.500000
 50
-90.000000
 51
0.000000
  0
LINE
  8
0
  6
DASHED
 10
343.130005
 20
91.214066
 11
343.130005
 21
76.347198
  0
LINE
  8
0
  6
DASHED
 10
297.130005
 20
91.214066
 11
297.130005
 21
76.347198
  0
LINE
  8
0
  6
DASHED
 10
342.630005
 20
92.214066
 11
343.130005
 21
92.214066
  0
LINE
  8
0
  6
DASHED
 10
342.630005
 20
91.214066
 11
343.130005
 21
91.214066
  0
LINE
  8
0
  6
DASHED
 10
297.630005
 20
92.214066
 11
297.130005
 21
92.214066
  0
LINE
  8
0
  6
DASHED
 10
297.630005
 20
91.214066
 11
297.130005
 21
91.214066
  0
LINE
  8
0
  6
DASHED
 10
343.130005
 20
95.153679
 11
343.130005
 21
92.214066
  0
LINE
  8
0
  6
DASHED
 10
297.130005
 20
95.714066
 11
297.130005
 21
92.214066
  0
LINE
  8
0
  6
CONTINUOUS
 10
277.630005
 20
65.514061
 11
277.630005
 21
60.514065
  0
LINE
  8
0
  6
CONTINUOUS
 10
362.630005
 20
65.514061
 11
362.630005
 21
60.514065
  0
LINE
  8
0
  6
CENTER
 10
12.630000
 20
249.460632
 11
12.630000
 21
192.443497
  0
LINE
  8
0
  6
CONTINUOUS
 10
30.129999
 20
181.979996
 11
30.129999
 21
257.980011
  0
LINE
  8
0
  6
CONTINUOUS
 10
5.130000
 20
256.275909
 11
5.130000
 21
242.979996
  0
LINE
  8
0
  6
CONTINUOUS
 10
5.130000
 20
183.684097
 11
5.130000
 21
196.979996
  0
LINE
  8
0
  6
CONTINUOUS
 10
7.129700
 20
182.381500
 11
30.129999
 21
181.979996
  0
LINE
  8
0
  6
CONTINUOUS
 10
5.871600
 20
182.718094
 11
7.129700
 21
182.381500
  0
ARC
  8
0
  6
CONTINUOUS
 10
6.130000
 20
183.684097
 40
1.000000
 50
180.000000
 51
255.025604
  0
LINE
  8
0
  6
CONTINUOUS
 10
7.129700
 20
257.578400
 11
30.129999
 21
257.980011
  0
LINE
  8
0
  6
CONTINUOUS
 10
5.871600
 20
257.241913
 11
7.129700
 21
257.578400
  0
ARC
  8
0
  6
CONTINUOUS
 10
6.130000
 20
256.275909
 40
1.000000
 50
-255.025604
 51
-180.000000
  0
LINE
  8
0
  6
CONTINUOUS
 10
4.330000
 20
188.274124
 11
4.330000
 21
196.979996
  0
LINE
  8
0
  6
CONTINUOUS
 10
4.658990
 20
187.804276
 11
4.801010
 21
187.752579
  0
ARC
  8
0
  6
CONTINUOUS
 10
4.630000
 20
187.282745
 40
0.500000
 50
0.000000
 51
70.000000
  0
LINE
  8
0
  6
CONTINUOUS
 10
4.330000
 20
251.685883
 11
4.330000
 21
242.979996
  0
LINE
  8
0
  6
CONTINUOUS
 10
4.658990
 20
252.155731
 11
4.801010
 21
252.207413
  0
ARC
  8
0
  6
CONTINUOUS
 10
4.630000
 20
252.677261
 40
0.500000
 50
-70.000000
 51
0.000000
  0
LINE
  8
0
  6
CONTINUOUS
 10
-2.370100
 20
198.979996
 11
-2.370100
 21
240.979996
  0
LINE
  8
0
  6
CONTINUOUS
 10
27.629999
 20
240.979996
 11
27.629999
 21
198.979996
  0
LINE
  8
0
  6
CONTINUOUS
 10
29.629999
 20
224.979996
 11
29.629999
 21
214.979996
  0
LINE
  8
0
  6
CONTINUOUS
 10
-4.370000
 20
224.979996
 11
-4.370000
 21
214.979996
  0
ARC
  8
0
  6
CONTINUOUS
 10
0.630000
 20
199.979996
 40
3.500000
 50
0.000000
 51
90.000000
  0
LINE
  8
0
  6
CONTINUOUS
 10
-1.370100
 20
203.479996
 11
0.630000
 21
203.479996
  0
LINE
  8
0
  6
CONTINUOUS
 10
4.130000
 20
197.979996
 11
4.130000
 21
199.979996
  0
ARC
  8
0
  6
CONTINUOUS
 10
-1.370100
 20
204.479996
 40
1.000000
 50
180.000000
 51
270.000000
  0
ARC
  8
0
  6
CONTINUOUS
 10
24.629999
 20
199.979996
 40
3.500000
 50
90.000000
 51
180.000000
  0
LINE
  8
0
  6
CONTINUOUS
 10
21.129999
 20
197.979996
 11
21.129999
 21
199.979996
  0
LINE
  8
0
  6
CONTINUOUS
 10
26.630100
 20
203.479996
 11
24.629999
 21
203.479996
  0
ARC
  8
0
  6
CONTINUOUS
 10
26.630100
 20
204.479996
 40
1.000000
 50
-90.000000
 51
0.000000
  0
LINE
  8
0
  6
CONTINUOUS
 10
25.629999
 20
196.979996
 11
-0.370100
 21
196.979996
  0
ARC
  8
0
  6
CONTINUOUS
 10
20.129999
 20
197.979996
 40
1.000000
 50
-90.000000
 51
0.000000
  0
ARC
  8
0
  6
CONTINUOUS
 10
5.130000
 20
197.979996
 40
1.000000
 50
180.000000
 51
270.000000
  0
ARC
  8
0
  6
CONTINUOUS
 10
-0.370100
 20
198.979996
 40
2.000000
 50
180.000000
 51
270.000000
  0
ARC
  8
0
  6
CONTINUOUS
 10
25.629999
 20
198.979996
 40
2.000000
 50
-90.000000
 51
0.000000
  0
ARC
  8
0
  6
CONTINUOUS
 10
0.630000
 20
239.979996
 40
3.500000
 50
-90.000000
 51
0.000000
  0
LINE
  8
0
  6
CONTINUOUS
 10
-1.370100
 20
236.479996
 11
0.630000
 21
236.479996
  0
LINE
  8
0
  6
CONTINUOUS
 10
4.130000
 20
241.979996
 11
4.130000
 21
239.979996
  0
ARC
  8
0
  6
CONTINUOUS
 10
-1.370100
 20
235.479996
 40
1.000000
 50
-270.000000
 51
-180.000000
  0
ARC
  8
0
  6
CONTINUOUS
 10
24.629999
 20
239.979996
 40
3.500000
 50
-180.000000
 51
-90.000000
  0
LINE
  8
0
  6
CONTINUOUS
 10
21.129999
 20
241.979996
 11
21.129999
 21
239.979996
  0
LINE
  8
0
  6
CONTINUOUS
 10
26.630100
 20
236.479996
 11
24.629999
 21
236.479996
  0
ARC
  8
0
  6
CONTINUOUS
 10
26.630100
 20
235.479996
 40
1.000000
 50
0.000000
 51
90.000000
  0
LINE
  8
0
  6
CONTINUOUS
 10
25.629999
 20
242.979996
 11
-0.370100
 21
242.979996
  0
ARC
  8
0
  6
CONTINUOUS
 10
20.129999
 20
241.979996
 40
1.000000
 50
0.000000
 51
90.000000
  0
ARC
  8
0
  6
CONTINUOUS
 10
5.130000
 20
241.979996
 40
1.000000
 50
-270.000000
 51
-180.000000
  0
ARC
  8
0
  6
CONTINUOUS
 10
-0.370100
 20
240.979996
 40
2.000000
 50
-270.000000
 51
-180.000000
  0
ARC
  8
0
  6
CONTINUOUS
 10
25.629999
 20
240.979996
 40
2.000000
 50
0.000000
 51
90.000000
  0
LINE
  8
0
  6
CONTINUOUS
 10
-2.870000
 20
225.979996
 11
-3.370000
 21
225.979996
  0
ARC
  8
0
  6
CONTINUOUS
 10
-3.370000
 20
224.979996
 40
1.000000
 50
90.000000
 51
180.000000
  0
ARC
  8
0
  6
CONTINUOUS
 10
-2.870000
 20
226.479996
 40
0.500000
 50
-90.000000
 51
0.000000
  0
LINE
  8
0
  6
CONTINUOUS
 10
-2.870000
 20
213.979996
 11
-3.370000
 21
213.979996
  0
ARC
  8
0
  6
CONTINUOUS
 10
-3.370000
 20
214.979996
 40
1.000000
 50
-180.000000
 51
-90.000000
  0
ARC
  8
0
  6
CONTINUOUS
 10
-2.870000
 20
213.479996
 40
0.500000
 50
0.000000
 51
90.000000
  0
LINE
  8
0
  6
CONTINUOUS
 10
28.129999
 20
225.979996
 11
28.629999
 21
225.979996
  0
ARC
  8
0
  6
CONTINUOUS
 10
28.629999
 20
224.979996
 40
1.000000
 50
0.000000
 51
90.000000
  0
ARC
  8
0
  6
CONTINUOUS
 10
28.129999
 20
226.479996
 40
0.500000
 50
180.000000
 51
270.000000
  0
LINE
  8
0
  6
CONTINUOUS
 10
28.129999
 20
213.979996
 11
28.629999
 21
213.979996
  0
ARC
  8
0
  6
CONTINUOUS
 10
28.629999
 20
214.979996
 40
1.000000
 50
-90.000000
 51
0.000000
  0
ARC
  8
0
  6
CONTINUOUS
 10
28.129999
 20
213.479996
 40
0.500000
 50
90.000000
 51
180.000000
  0
LINE
  8
0
  6
CONTINUOUS
 10
26.007685
 20
242.944016
 11
30.129999
 21
242.979996
  0
LINE
  8
0
  6
CONTINUOUS
 10
26.007685
 20
197.015991
 11
30.129999
 21
196.979996
  0
LINE
  8
0
  6
CONTINUOUS
 10
2.380000
 20
200.379990
 11
2.380000
 21
199.579971
  0
LINE
  8
0
  6
CONTINUOUS
 10
0.229976
 20
201.729996
 11
1.029994
 21
201.729996
  0
LINE
  8
0
  6
CONTINUOUS
 10
0.229976
 20
198.229996
 11
1.029994
 21
198.229996
  0
LINE
  8
0
  6
CONTINUOUS
 10
-1.120000
 20
200.379990
 11
-1.120000
 21
199.579971
  0
CIRCLE
  8
0
  6
CONTINUOUS
 10
0.630000
 20
199.979996
 40
2.750000
  0
ARC
  8
0
  6
CONTINUOUS
 10
-1.120000
 20
201.729996
 40
1.350000
 50
-90.000000
 51
0.000000
  0
ARC
  8
0
  6
CONTINUOUS
 10
-1.120000
 20
198.229996
 40
1.350000
 50
0.000000
 51
90.000000
  0
ARC
  8
0
  6
CONTINUOUS
 10
2.380000
 20
201.729996
 40
1.350000
 50
180.000000
 51
270.000000
  0
ARC
  8
0
  6
CONTINUOUS
 10
2.380000
 20
198.229996
 40
1.350000
 50
90.000000
 51
180.000000
  0
LINE
  8
0
  6
CONTINUOUS
 10
26.379999
 20
200.379990
 11
26.379999
 21
199.579971
  0
LINE
  8
0
  6
CONTINUOUS
 10
24.229977
 20
201.729996
 11
25.029993
 21
201.729996
  0
LINE
  8
0
  6
CONTINUOUS
 10
24.229977
 20
198.229996
 11
25.029993
 21
198.229996
  0
LINE
  8
0
  6
CONTINUOUS
 10
22.879999
 20
200.379990
 11
22.879999
 21
199.579971
  0
CIRCLE
  8
0
  6
CONTINUOUS
 10
24.629999
 20
199.979996
 40
2.750000
  0
ARC
  8
0
  6
CONTINUOUS
 10
22.879999
 20
201.729996
 40
1.350000
 50
-90.000000
 51
0.000000
  0
ARC
  8
0
  6
CONTINUOUS
 10
22.879999
 20
198.229996
 40
1.350000
 50
0.000000
 51
90.000000
  0
ARC
  8
0
  6
CONTINUOUS
 10
26.379999
 20
201.729996
 40
1.350000
 50
180.000000
 51
270.000000
  0
ARC
  8
0
  6
CONTINUOUS
 10
26.379999
 20
198.229996
 40
1.350000
 50
90.000000
 51
180.000000
  0
LINE
  8
0
  6
CONTINUOUS
 10
26.379999
 20
240.379990
 11
26.379999
 21
239.579971
  0
LINE
  8
0
  6
CONTINUOUS
 10
24.229977
 20
241.729996
 11
25.029993
 21
241.729996
  0
LINE
  8
0
  6
CONTINUOUS
 10
24.229977
 20
238.229996
 11
25.029993
 21
238.229996
  0
LINE
  8
0
  6
CONTINUOUS
 10
22.879999
 20
240.379990
 11
22.879999
 21
239.579971
  0
CIRCLE
  8
0
  6
CONTINUOUS
 10
24.629999
 20
239.979996
 40
2.750000
  0
ARC
  8
0
  6
CONTINUOUS
 10
22.879999
 20
241.729996
 40
1.350000
 50
-90.000000
 51
0.000000
  0
ARC
  8
0
  6
CONTINUOUS
 10
22.879999
 20
238.229996
 40
1.350000
 50
0.000000
 51
90.000000
  0
ARC
  8
0
  6
CONTINUOUS
 10
26.379999
 20
241.729996
 40
1.350000
 50
180.000000
 51
270.000000
  0
ARC
  8
0
  6
CONTINUOUS
 10
26.379999
 20
238.229996
 40
1.350000
 50
90.000000
 51
180.000000
  0
LINE
  8
0
  6
CONTINUOUS
 10
2.380000
 20
240.379990
 11
2.380000
 21
239.579971
  0
LINE
  8
0
  6
CONTINUOUS
 10
0.229976
 20
241.729996
 11
1.029994
 21
241.729996
  0
LINE
  8
0
  6
CONTINUOUS
 10
0.229976
 20
238.229996
 11
1.029994
 21
238.229996
  0
LINE
  8
0
  6
CONTINUOUS
 10
-1.120000
 20
240.379990
 11
-1.120000
 21
239.579971
  0
CIRCLE
  8
0
  6
CONTINUOUS
 10
0.630000
 20
239.979996
 40
2.750000
  0
ARC
  8
0
  6
CONTINUOUS
 10
-1.120000
 20
241.729996
 40
1.350000
 50
-90.000000
 51
0.000000
  0
ARC
  8
0
  6
CONTINUOUS
 10
-1.120000
 20
238.229996
 40
1.350000
 50
0.000000
 51
90.000000
  0
ARC
  8
0
  6
CONTINUOUS
 10
2.380000
 20
241.729996
 40
1.350000
 50
180.000000
 51
270.000000
  0
ARC
  8
0
  6
CONTINUOUS
 10
2.380000
 20
238.229996
 40
1.350000
 50
90.000000
 51
180.000000
  0
LINE
  8
0
  6
CONTINUOUS
 10
-19.518681
 20
216.130005
 11
-4.369880
 21
216.130005
  0
LINE
  8
0
  6
CONTINUOUS
 10
-18.666880
 20
223.830002
 11
-19.402679
 21
220.994904
  0
LINE
  8
0
  6
CONTINUOUS
 10
-19.402679
 20
220.994904
 11
-18.590580
 21
218.519897
  0
LINE
  8
0
  6
CONTINUOUS
 10
-18.590580
 20
218.519897
 11
-19.518681
 21
216.130005
  0
LINE
  8
0
  6
CONTINUOUS
 10
-18.666880
 20
223.830002
 11
-4.369880
 21
223.830002
  0
ARC
  8
0
  6
CONTINUOUS
 10
4.830000
 20
188.274124
 40
0.500000
 50
180.000000
 51
249.999954
  0
ARC
  8
0
  6
CONTINUOUS
 10
4.830000
 20
251.685883
 40
0.500000
 50
110.000038
 51
180.000000
  0
LINE
  8
0
  6
CONTINUOUS
 10
5.130000
 20
4.418105
 11
5.130000
 21
9.464153
  0
LINE
  8
0
  6
CONTINUOUS
 10
5.130000
 20
71.041809
 11
5.130000
 21
9.464153
  0
LINE
  8
0
  6
CONTINUOUS
 10
28.603790
 20
78.754044
 11
30.129999
 21
78.714066
  0
ARC
  8
0
  6
CONTINUOUS
 10
28.629999
 20
79.753670
 40
1.000000
 50
180.000000
 51
268.499908
  0
LINE
  8
0
  6
CONTINUOUS
 10
7.129695
 20
11.214063
 11
15.130000
 21
11.214063
  0
LINE
  8
0
  6
CONTINUOUS
 10
-2.369880
 20
79.214066
 11
15.130000
 21
79.214066
  0
LINE
  8
0
  6
CONTINUOUS
 10
16.129999
 20
10.214063
 11
16.129999
 21
3.567653
  0
ARC
  8
0
  6
CONTINUOUS
 10
15.130000
 20
10.214063
 40
1.000000
 50
0.000000
 51
90.000000
  0
LINE
  8
0
  6
CONTINUOUS
 10
16.129999
 20
70.714066
 11
16.129999
 21
78.214066
  0
ARC
  8
0
  6
CONTINUOUS
 10
15.130000
 20
78.214066
 40
1.000000
 50
0.000000
 51
90.000000
  0
LINE
  8
0
  6
CONTINUOUS
 10
15.130000
 20
71.214066
 11
15.130000
 21
78.214066
  0
LINE
  8
0
  6
CONTINUOUS
 10
16.129999
 20
71.214066
 11
14.150996
 21
71.214066
  0
LINE
  8
0
  6
CONTINUOUS
 10
16.129999
 20
78.214066
 11
14.150996
 21
78.214066
  0
ARC
  8
0
  6
CONTINUOUS
 10
21.529989
 20
74.714066
 40
8.999999
 50
163.399002
 51
196.601501
  0
ARC
  8
0
  6
CONTINUOUS
 10
14.150996
 20
72.514084
 40
1.300000
 50
196.601593
 51
270.000000
  0
ARC
  8
0
  6
CONTINUOUS
 10
14.150996
 20
76.914070
 40
1.300000
 50
90.000000
 51
163.399094
  0
LINE
  8
0
  6
CONTINUOUS
 10
16.129999
 20
10.332133
 11
16.129999
 21
3.214063
  0
LINE
  8
0
  6
CONTINUOUS
 10
15.130000
 20
10.214063
 11
15.130000
 21
3.214063
  0
LINE
  8
0
  6
CONTINUOUS
 10
16.129999
 20
10.214063
 11
14.150996
 21
10.214063
  0
LINE
  8
0
  6
CONTINUOUS
 10
16.129999
 20
3.214063
 11
14.150996
 21
3.214063
  0
ARC
  8
0
  6
CONTINUOUS
 10
21.529989
 20
6.714063
 40
8.999999
 50
-196.601501
 51
-163.399002
  0
ARC
  8
0
  6
CONTINUOUS
 10
14.150996
 20
8.914043
 40
1.300000
 50
-270.000000
 51
-196.601593
  0
ARC
  8
0
  6
CONTINUOUS
 10
14.150996
 20
4.514053
 40
1.300000
 50
-163.399094
 51
-90.000000
  0
LINE
  8
0
  6
CONTINUOUS
 10
30.129999
 20
2.714083
 11
30.129999
 21
78.714066
  0
LINE
  8
0
  6
CONTINUOUS
 10
30.129999
 20
70.963036
 11
16.129999
 21
70.963036
  0
LINE
  8
0
  6
CONTINUOUS
 10
30.129999
 20
10.465093
 11
16.129999
 21
10.465093
  0
LINE
  8
0
  6
CONTINUOUS
 10
27.630119
 20
79.753670
 11
27.630119
 21
91.214066
  0
LINE
  8
0
  6
CONTINUOUS
 10
-19.518681
 20
88.164062
 11
-4.369880
 21
88.164062
  0
LINE
  8
0
  6
CONTINUOUS
 10
-18.666880
 20
95.864059
 11
-19.402679
 21
93.028961
  0
LINE
  8
0
  6
CONTINUOUS
 10
-19.402679
 20
93.028961
 11
-18.590580
 21
90.553963
  0
LINE
  8
0
  6
CONTINUOUS
 10
-18.590580
 20
90.553963
 11
-19.518681
 21
88.164062
  0
LINE
  8
0
  6
CONTINUOUS
 10
29.630119
 20
96.714066
 11
29.630119
 21
92.214066
  0
LINE
  8
0
  6
CONTINUOUS
 10
-4.369880
 20
92.214066
 11
29.630119
 21
92.214066
  0
LINE
  8
0
  6
CONTINUOUS
 10
-4.369880
 20
91.214066
 11
29.630119
 21
91.214066
  0
LINE
  8
0
  6
CONTINUOUS
 10
-4.369880
 20
96.714066
 11
-4.369880
 21
92.214066
  0
LINE
  8
0
  6
CONTINUOUS
 10
-18.666880
 20
95.864059
 11
-4.369880
 21
95.864059
  0
ARC
  8
0
  6
CONTINUOUS
 10
12.630120
 20
-150.285919
 40
250.000000
 50
86.668304
 51
93.331696
  0
LINE
  8
0
  6
CONTINUOUS
 10
28.130119
 20
97.714066
 11
28.630119
 21
97.714066
  0
ARC
  8
0
  6
CONTINUOUS
 10
28.630119
 20
96.714066
 40
1.000000
 50
0.000000
 51
90.000000
  0
ARC
  8
0
  6
CONTINUOUS
 10
28.130119
 20
98.214066
 40
0.500000
 50
180.000000
 51
270.000000
  0
LINE
  8
0
  6
CONTINUOUS
 10
-2.869880
 20
97.714066
 11
-3.369880
 21
97.714066
  0
ARC
  8
0
  6
CONTINUOUS
 10
-3.369880
 20
96.714066
 40
1.000000
 50
90.000000
 51
180.000000
  0
ARC
  8
0
  6
CONTINUOUS
 10
-2.869880
 20
98.214066
 40
0.500000
 50
-90.000000
 51
0.000000
  0
LINE
  8
0
  6
CONTINUOUS
 10
-2.369880
 20
74.160675
 11
-2.369880
 21
91.214066
  0
LINE
  8
0
  6
CENTER
 10
12.630000
 20
102.739578
 11
12.630120
 21
84.940765
  0
ARC
  8
0
  6
CONTINUOUS
 10
27.130119
 20
98.792381
 40
0.500000
 50
0.000000
 51
86.668304
  0
ARC
  8
0
  6
CONTINUOUS
 10
-1.869880
 20
98.792381
 40
0.500000
 50
93.331696
 51
180.000000
  0
LINE
  8
0
  6
CONTINUOUS
 10
29.130119
 20
92.214066
 11
29.130119
 21
91.214066
  0
LINE
  8
0
  6
CONTINUOUS
 10
29.630119
 20
91.214066
 11
29.630119
 21
87.248260
  0
LINE
  8
0
  6
CONTINUOUS
 10
27.630119
 20
92.214066
 11
27.630119
 21
98.792381
  0
LINE
  8
0
  6
CONTINUOUS
 10
-1.869880
 20
92.214066
 11
-1.869880
 21
91.214066
  0
LINE
  8
0
  6
CONTINUOUS
 10
-2.369880
 20
92.214066
 11
-2.369880
 21
98.792381
  0
LINE
  8
0
  6
CONTINUOUS
 10
-4.369880
 20
91.214066
 11
-4.369880
 21
87.248260
  0
LINE
  8
0
  6
CONTINUOUS
 10
21.630119
 20
96.214066
 11
27.130119
 21
96.214066
  0
LINE
  8
0
  6
CONTINUOUS
 10
21.130119
 20
96.714066
 11
21.130119
 21
99.085793
  0
ARC
  8
0
  6
CONTINUOUS
 10
21.630119
 20
96.714066
 40
0.500000
 50
180.000000
 51
270.000000
  0
ARC
  8
0
  6
CONTINUOUS
 10
27.130119
 20
95.714066
 40
0.500000
 50
0.000000
 51
90.000000
  0
ARC
  8
0
  6
CONTINUOUS
 10
20.630119
 20
99.085793
 40
0.500000
 50
0.000000
 51
88.162544
  0
LINE
  8
0
  6
CONTINUOUS
 10
3.629879
 20
96.214066
 11
-1.870121
 21
96.214066
  0
ARC
  8
0
  6
CONTINUOUS
 10
3.629879
 20
96.714066
 40
0.500000
 50
-90.000000
 51
0.000000
  0
ARC
  8
0
  6
CONTINUOUS
 10
-1.870121
 20
95.714066
 40
0.500000
 50
90.000000
 51
180.000000
  0
LINE
  8
0
  6
CONTINUOUS
 10
4.129879
 20
96.714066
 11
4.129879
 21
99.085793
  0
ARC
  8
0
  6
CONTINUOUS
 10
4.629879
 20
99.085793
 40
0.500000
 50
91.837456
 51
180.000000
  0
LINE
  8
0
  6
CONTINUOUS
 10
21.880119
 20
96.214066
 11
21.880119
 21
97.653259
  0
LINE
  8
0
  6
CONTINUOUS
 10
27.380119
 20
96.213860
 11
27.380119
 21
97.653259
  0
LINE
  8
0
  6
CONTINUOUS
 10
21.880119
 20
96.914062
 11
27.380119
 21
96.914062
  0
ARC
  8
0
  6
CONTINUOUS
 10
24.630119
 20
91.914062
 40
7.000000
 50
73.043488
 51
106.958000
  0
ARC
  8
0
  6
CONTINUOUS
 10
26.380119
 20
97.653259
 40
1.000000
 50
0.000000
 51
73.043098
  0
ARC
  8
0
  6
CONTINUOUS
 10
22.880119
 20
97.653259
 40
1.000000
 50
106.958199
 51
180.000000
  0
LINE
  8
0
  6
CONTINUOUS
 10
-2.119880
 20
96.214066
 11
-2.119880
 21
97.653259
  0
LINE
  8
0
  6
CONTINUOUS
 10
3.380120
 20
96.213860
 11
3.380120
 21
97.653259
  0
LINE
  8
0
  6
CONTINUOUS
 10
-2.119880
 20
96.914062
 11
3.380120
 21
96.914062
  0
ARC
  8
0
  6
CONTINUOUS
 10
0.630120
 20
91.914062
 40
7.000000
 50
73.043488
 51
106.958000
  0
ARC
  8
0
  6
CONTINUOUS
 10
2.380120
 20
97.653259
 40
1.000000
 50
0.000000
 51
73.043098
  0
ARC
  8
0
  6
CONTINUOUS
 10
-1.119880
 20
97.653259
 40
1.000000
 50
106.958199
 51
180.000000
  0
LINE
  8
0
  6
CONTINUOUS
 10
7.129695
 20
3.115535
 11
30.129999
 21
2.714063
  0
ARC
  8
0
  6
CONTINUOUS
 10
16.629999
 20
3.449783
 40
0.500000
 50
180.000000
 51
269.000000
  0
LINE
  8
0
  6
CONTINUOUS
 10
15.630000
 20
70.214066
 11
7.129695
 21
70.214066
  0
ARC
  8
0
  6
CONTINUOUS
 10
15.630000
 20
70.714066
 40
0.500000
 50
-90.000000
 51
0.000000
  0
LINE
  8
0
  6
CONTINUOUS
 10
5.871592
 20
11.550597
 11
7.129695
 21
11.214063
  0
ARC
  8
0
  6
CONTINUOUS
 10
6.130000
 20
12.516633
 40
1.000000
 50
180.000000
 51
255.024384
  0
LINE
  8
0
  6
CONTINUOUS
 10
5.871592
 20
3.452069
 11
7.129695
 21
3.115535
  0
ARC
  8
0
  6
CONTINUOUS
 10
6.130000
 20
4.418105
 40
1.000000
 50
180.000000
 51
255.024384
  0
LINE
  8
0
  6
CONTINUOUS
 10
5.871592
 20
69.877525
 11
7.129695
 21
70.214066
  0
ARC
  8
0
  6
CONTINUOUS
 10
6.130000
 20
68.911491
 40
1.000000
 50
-255.024384
 51
-180.000000
  0
LINE
  8
0
  6
CONTINUOUS
 10
-2.870200
 20
86.248260
 11
-3.370000
 21
86.248260
  0
ARC
  8
0
  6
CONTINUOUS
 10
-3.370000
 20
87.248260
 40
1.000000
 50
180.000000
 51
270.000000
  0
ARC
  8
0
  6
CONTINUOUS
 10
-2.870200
 20
85.748260
 40
0.500000
 50
0.000000
 51
90.000000
  0
LINE
  8
0
  6
CONTINUOUS
 10
28.130199
 20
86.248260
 11
28.629999
 21
86.248260
  0
ARC
  8
0
  6
CONTINUOUS
 10
28.629999
 20
87.248260
 40
1.000000
 50
-90.000000
 51
0.000000
  0
ARC
  8
0
  6
CONTINUOUS
 10
28.130199
 20
85.748260
 40
0.500000
 50
90.000000
 51
180.000000
  0
LINE
  8
0
  6
CONTINUOUS
 10
4.330000
 20
5.564168
 11
4.330000
 21
71.263962
  0
LINE
  8
0
  6
CONTINUOUS
 10
4.658990
 20
5.094321
 11
4.801010
 21
5.042630
  0
ARC
  8
0
  6
CONTINUOUS
 10
4.830000
 20
5.564168
 40
0.500000
 50
180.000000
 51
250.000000
  0
ARC
  8
0
  6
CONTINUOUS
 10
4.630000
 20
4.572784
 40
0.500000
 50
0.000000
 51
70.000000
  0
LINE
  8
0
  6
CONTINUOUS
 10
4.658990
 20
71.733803
 11
4.799240
 21
71.784851
  0
ARC
  8
0
  6
CONTINUOUS
 10
4.830000
 20
71.263962
 40
0.500000
 50
110.000000
 51
180.000000
  0
LINE
  8
0
  6
CONTINUOUS
 10
-0.422554
 20
72.161362
 11
4.156177
 21
72.041466
  0
ARC
  8
0
  6
CONTINUOUS
 10
-0.370200
 20
74.160675
 40
2.000000
 50
180.000000
 51
268.500000
  0
ARC
  8
0
  6
CONTINUOUS
 10
4.130000
 20
71.041809
 40
1.000000
 50
0.000000
 51
88.500000
  0
LINE
  8
0
  6
CONTINUOUS
 10
280.130005
 20
86.223763
 11
286.020599
 21
85.010963
  0
LINE
  8
0
  6
CONTINUOUS
 10
286.020599
 20
85.010963
 11
291.270599
 21
81.760963
  0
LINE
  8
0
  6
CONTINUOUS
 10
291.270599
 20
81.760963
 11
291.770599
 21
76.635963
  0
LINE
  8
0
  6
CONTINUOUS
 10
291.770599
 20
76.635963
 11
293.520599
 21
74.760963
  0
LINE
  8
0
  6
CONTINUOUS
 10
293.520599
 20
74.760963
 11
293.895599
 21
71.135963
  0
LINE
  8
0
  6
CONTINUOUS
 10
293.895599
 20
71.135963
 11
294.270599
 21
65.510963
  0
LINE
  8
0
  6
CONTINUOUS
 10
294.270599
 20
65.510963
 11
295.020599
 21
60.260963
  0
LINE
  8
0
  6
CONTINUOUS
 10
295.020599
 20
60.260963
 11
293.020599
 21
53.885963
  0
LINE
  8
0
  6
CONTINUOUS
 10
293.020599
 20
53.885963
 11
293.645599
 21
47.385963
  0
LINE
  8
0
  6
CONTINUOUS
 10
293.645599
 20
47.385963
 11
292.145599
 21
41.635963
  0
LINE
  8
0
  6
CONTINUOUS
 10
292.145599
 20
41.635963
 11
288.020599
 21
38.510975
  0
LINE
  8
0
  6
CONTINUOUS
 10
288.020599
 20
38.510975
 11
283.145599
 21
37.885975
  0
LINE
  8
0
  6
CONTINUOUS
 10
283.145599
 20
37.885975
 11
280.130005
 21
36.657383
  0
TEXT
  8
0
 10
-26.000000
 20
-10.000000
 40
4.000000
 41
1.000000
  1
HFW-15T-10~240-S15
 50
0.000000
  0
ENDSEC
  0
EOF
