  0
SECTION
  2
HEADER
  9
$CLAYER
  8
1
  9
$LTSCALE
 40
3.0
  0
ENDSEC
  0
SECTION
  2
TABLES
  0
TABLE
  2
LTYPE
 70
     4
  0
LTYPE
  2
CONTINUOUS
  3
solid line
 70
    64
 72
    65
 73
     0
 40
0.0
  0
LTYPE
  2
DASHED
  3
__ __ __ __ __ __ __ __ __ __ __ __ __ __ __
 70
    64
 72
    65
 73
     2
 40
0.75
 49
0.5
 49
-0.25
  0
LTYPE
  2
CENTER
  3
____ _ ____ _ ____ _ ____ _ ____ _ ____ _ ____
 70
    64
 72
    65
 73
     4
 40
2.0
 49
1.25
 49
-0.25
 49
0.25
 49
-0.25
  0
LTYPE
  2
PHANTOM
  3
_____ _ _ _____ _ _ _____ _ _ _____ _ _ ____
 70
    64
 72
    65
 73
     6
 40
2.5
 49
1.25
 49
-0.25
 49
0.25
 49
-0.25
 49
0.25
 49
-0.25
  0
ENDTAB
  0
TABLE
  2
LAYER
 70
     1
  0
LAYER
  2
0
 70
    64
 62
     7
  6
CONTINUOUS
  0
ENDTAB
  0
TABLE
  2
STYLE
 70
     1
  0
STYLE
  2
STANDARD
 70
     0
 40
0.000000
 41
1.000000
 50
0.000000
 71
     0
 42
3.000000
  3
txt
  4
BIGFONT
  0
ENDTAB
  0
ENDSEC
  0
SECTION
  2
BLOCKS
  0
ENDSEC
  0
SECTION
  2
ENTITIES
  0
LINE
  8
0
  6
CENTER
 10
409.129059
 20
53.689999
 11
278.594910
 21
53.689999
  0
LINE
  8
0
  6
CONTINUOUS
 10
196.690002
 20
34.889999
 11
196.690002
 21
93.889999
  0
LINE
  8
0
  6
CONTINUOUS
 10
370.190002
 20
98.690002
 11
290.847412
 21
98.690002
  0
LINE
  8
0
  6
CONTINUOUS
 10
299.690002
 20
8.690000
 11
370.190002
 21
8.690000
  0
LINE
  8
0
  6
CENTER
 10
285.844513
 20
79.389999
 11
211.682190
 21
79.389999
  0
LINE
  8
0
  6
CENTER
 10
247.190002
 20
131.940002
 11
247.190002
 21
-3.403350
  0
LINE
  8
0
  6
CONTINUOUS
 10
287.190002
 20
123.389999
 11
207.190002
 21
123.389999
  0
LINE
  8
0
  6
CONTINUOUS
 10
287.190002
 20
5.390000
 11
207.190002
 21
5.390000
  0
LINE
  8
0
  6
CENTER
 10
214.190002
 20
114.389999
 11
200.315002
 21
114.389999
  0
LINE
  8
0
  6
CENTER
 10
207.190002
 20
107.690002
 11
207.190002
 21
121.190002
  0
CIRCLE
  8
0
  6
CONTINUOUS
 10
207.190002
 20
114.389999
 40
4.250000
  0
LINE
  8
0
  6
CENTER
 10
214.190002
 20
14.390000
 11
200.315002
 21
14.390000
  0
LINE
  8
0
  6
CENTER
 10
207.190002
 20
21.090000
 11
207.190002
 21
7.590000
  0
CIRCLE
  8
0
  6
CONTINUOUS
 10
207.190002
 20
14.390000
 40
4.250000
  0
LINE
  8
0
  6
CENTER
 10
280.190002
 20
114.389999
 11
294.065002
 21
114.389999
  0
LINE
  8
0
  6
CENTER
 10
287.190002
 20
107.690002
 11
287.190002
 21
121.190002
  0
CIRCLE
  8
0
  6
CONTINUOUS
 10
287.190002
 20
114.389999
 40
4.250000
  0
LINE
  8
0
  6
CENTER
 10
280.190002
 20
14.390000
 11
294.065002
 21
14.390000
  0
LINE
  8
0
  6
CENTER
 10
287.190002
 20
21.090000
 11
287.190002
 21
7.590000
  0
CIRCLE
  8
0
  6
CONTINUOUS
 10
287.190002
 20
14.390000
 40
4.250000
  0
LINE
  8
0
  6
CONTINUOUS
 10
198.213303
 20
115.036629
 11
196.690002
 21
93.889999
  0
LINE
  8
0
  6
CONTINUOUS
 10
198.213303
 20
13.743440
 11
196.690002
 21
34.889999
  0
ARC
  8
0
  6
CONTINUOUS
 10
207.190002
 20
114.389999
 40
9.000000
 50
90.000000
 51
175.879898
  0
ARC
  8
0
  6
CONTINUOUS
 10
207.190002
 20
14.390000
 40
9.000000
 50
-175.879898
 51
-90.000000
  0
ARC
  8
0
  6
CONTINUOUS
 10
287.190002
 20
114.389999
 40
9.000000
 50
4.120102
 51
90.000000
  0
LINE
  8
0
  6
CONTINUOUS
 10
296.166687
 20
115.036629
 11
297.344208
 21
98.690002
  0
LINE
  8
0
  6
CONTINUOUS
 10
296.166687
 20
13.743440
 11
296.734802
 21
21.629320
  0
ARC
  8
0
  6
CONTINUOUS
 10
287.190002
 20
14.390000
 40
9.000000
 50
270.000000
 51
355.879913
  0
ARC
  8
0
  6
CONTINUOUS
 10
292.690002
 20
18.690029
 40
5.000000
 50
0.000000
 51
90.000000
  0
ARC
  8
0
  6
CONTINUOUS
 10
299.690002
 20
10.690000
 40
2.000000
 50
180.000000
 51
270.000000
  0
LINE
  8
0
  6
CONTINUOUS
 10
297.690002
 20
10.690000
 11
297.690002
 21
18.690029
  0
LINE
  8
0
  6
CONTINUOUS
 10
297.690002
 20
91.289886
 11
297.690002
 21
18.690029
  0
LINE
  8
0
  6
CONTINUOUS
 10
370.190002
 20
88.099297
 11
299.690002
 21
88.099297
  0
LINE
  8
0
  6
CONTINUOUS
 10
370.190002
 20
19.280689
 11
299.190002
 21
19.280689
  0
CIRCLE
  8
0
  6
CONTINUOUS
 10
247.190002
 20
79.389999
 40
23.500000
  0
LINE
  8
0
  6
CONTINUOUS
 10
238.780594
 20
36.389999
 11
235.315002
 21
36.389999
  0
LINE
  8
0
  6
CONTINUOUS
 10
240.693497
 20
42.194969
 11
240.693497
 21
36.389999
  0
LINE
  8
0
  6
CONTINUOUS
 10
244.025497
 20
44.303493
 11
244.025497
 21
46.385998
  0
LINE
  8
0
  6
CONTINUOUS
 10
250.689499
 20
44.303493
 11
250.689499
 21
46.385998
  0
LINE
  8
0
  6
CONTINUOUS
 10
246.706696
 20
45.162525
 11
246.706696
 21
37.483311
  0
LINE
  8
0
  6
CONTINUOUS
 10
247.956207
 20
45.162525
 11
247.956207
 21
37.483311
  0
LINE
  8
0
  6
CONTINUOUS
 10
254.516098
 20
45.162525
 11
254.516098
 21
37.431252
  0
LINE
  8
0
  6
CONTINUOUS
 10
255.661407
 20
41.062599
 11
255.661407
 21
37.431252
  0
LINE
  8
0
  6
CONTINUOUS
 10
239.112396
 20
45.058399
 11
235.901199
 21
45.058399
  0
LINE
  8
0
  6
CONTINUOUS
 10
236.398300
 20
37.561409
 11
235.913300
 21
37.561409
  0
LINE
  8
0
  6
CONTINUOUS
 10
235.901199
 20
45.058399
 11
235.148804
 21
44.125439
  0
LINE
  8
0
  6
CONTINUOUS
 10
235.239304
 20
46.385998
 11
234.029495
 21
44.836819
  0
LINE
  8
0
  6
CONTINUOUS
 10
235.148804
 20
38.366638
 11
235.913300
 21
37.561409
  0
LINE
  8
0
  6
CONTINUOUS
 10
234.029495
 20
37.687099
 11
235.315002
 21
36.389999
  0
LINE
  8
0
  6
CONTINUOUS
 10
234.029495
 20
44.836819
 11
234.029495
 21
37.687099
  0
LINE
  8
0
  6
CONTINUOUS
 10
235.148804
 20
44.125439
 11
235.148804
 21
38.366638
  0
LINE
  8
0
  6
CONTINUOUS
 10
239.730301
 20
44.461056
 11
239.099792
 21
45.058399
  0
LINE
  8
0
  6
CONTINUOUS
 10
239.720306
 20
46.385998
 11
240.693497
 21
45.306019
  0
LINE
  8
0
  6
CONTINUOUS
 10
239.730301
 20
44.303493
 11
240.693497
 21
44.303493
  0
LINE
  8
0
  6
CONTINUOUS
 10
235.239304
 20
46.385998
 11
239.720306
 21
46.385998
  0
LINE
  8
0
  6
CONTINUOUS
 10
237.986206
 20
42.194969
 11
240.693497
 21
42.194969
  0
LINE
  8
0
  6
CONTINUOUS
 10
239.730301
 20
41.101650
 11
237.986206
 21
41.101650
  0
LINE
  8
0
  6
CONTINUOUS
 10
237.231293
 20
37.561409
 11
236.398300
 21
37.561409
  0
LINE
  8
0
  6
CONTINUOUS
 10
239.730301
 20
40.060410
 11
239.730301
 21
40.893398
  0
LINE
  8
0
  6
CONTINUOUS
 10
237.647797
 20
37.561409
 11
237.231293
 21
37.561409
  0
LINE
  8
0
  6
CONTINUOUS
 10
239.730301
 20
39.643902
 11
239.730301
 21
40.060410
  0
LINE
  8
0
  6
CONTINUOUS
 10
239.730301
 20
39.588589
 11
239.730301
 21
39.643902
  0
ARC
  8
0
  6
CONTINUOUS
 10
237.647797
 20
39.643902
 40
2.082500
 50
-89.999786
 51
0.000109
  0
LINE
  8
0
  6
CONTINUOUS
 10
239.730301
 20
37.186821
 11
239.730301
 21
36.389999
  0
LINE
  8
0
  6
CONTINUOUS
 10
240.693497
 20
45.306019
 11
240.693497
 21
44.303493
  0
LINE
  8
0
  6
CONTINUOUS
 10
239.730301
 20
41.101650
 11
239.730301
 21
39.643902
  0
LINE
  8
0
  6
CONTINUOUS
 10
237.986206
 20
42.194969
 11
237.986206
 21
41.101650
  0
LINE
  8
0
  6
CONTINUOUS
 10
239.730301
 20
40.893398
 11
239.730301
 21
41.101650
  0
LINE
  8
0
  6
CONTINUOUS
 10
239.730301
 20
36.389999
 11
240.693497
 21
36.389999
  0
LINE
  8
0
  6
CONTINUOUS
 10
239.730301
 20
37.186821
 11
238.780594
 21
36.389999
  0
LINE
  8
0
  6
CONTINUOUS
 10
247.956207
 20
37.483311
 11
248.372696
 21
37.483311
  0
LINE
  8
0
  6
CONTINUOUS
 10
246.212097
 20
37.483311
 11
246.212097
 21
36.389999
  0
LINE
  8
0
  6
CONTINUOUS
 10
248.372696
 20
37.483311
 11
248.372696
 21
36.389999
  0
LINE
  8
0
  6
CONTINUOUS
 10
249.994400
 20
44.303493
 11
250.689499
 21
44.303493
  0
LINE
  8
0
  6
CONTINUOUS
 10
244.025497
 20
44.303493
 11
244.765198
 21
44.303493
  0
LINE
  8
0
  6
CONTINUOUS
 10
244.025497
 20
46.385998
 11
250.689499
 21
46.385998
  0
LINE
  8
0
  6
CONTINUOUS
 10
246.212097
 20
36.389999
 11
248.372696
 21
36.389999
  0
LINE
  8
0
  6
CONTINUOUS
 10
246.212097
 20
37.483311
 11
246.706696
 21
37.483311
  0
ARC
  8
0
  6
CONTINUOUS
 10
258.017303
 20
43.717793
 40
2.668203
 50
-73.981873
 51
90.003510
  0
ARC
  8
0
  6
CONTINUOUS
 10
258.017303
 20
43.717793
 40
1.627786
 50
-82.585274
 51
62.411850
  0
LINE
  8
0
  6
CONTINUOUS
 10
254.021500
 20
46.385998
 11
258.017303
 21
46.385998
  0
LINE
  8
0
  6
CONTINUOUS
 10
258.227295
 20
42.103619
 11
255.661407
 21
42.103619
  0
LINE
  8
0
  6
CONTINUOUS
 10
254.021500
 20
46.385998
 11
254.021500
 21
45.162525
  0
LINE
  8
0
  6
CONTINUOUS
 10
255.661407
 20
45.162525
 11
255.661407
 21
42.103619
  0
LINE
  8
0
  6
CONTINUOUS
 10
258.753510
 20
41.153179
 11
260.404999
 21
37.431252
  0
LINE
  8
0
  6
CONTINUOUS
 10
257.794312
 20
41.062599
 11
259.357208
 21
37.431252
  0
LINE
  8
0
  6
CONTINUOUS
 10
254.021500
 20
37.431252
 11
254.516098
 21
37.431252
  0
LINE
  8
0
  6
CONTINUOUS
 10
255.661407
 20
37.431252
 11
256.117004
 21
37.431252
  0
LINE
  8
0
  6
CONTINUOUS
 10
256.117004
 20
36.389999
 11
254.021500
 21
36.389999
  0
LINE
  8
0
  6
CONTINUOUS
 10
259.149597
 20
37.431252
 11
259.357208
 21
37.431252
  0
LINE
  8
0
  6
CONTINUOUS
 10
260.404999
 20
37.431252
 11
260.685486
 21
37.431252
  0
LINE
  8
0
  6
CONTINUOUS
 10
259.149597
 20
36.389999
 11
260.685486
 21
36.389999
  0
LINE
  8
0
  6
CONTINUOUS
 10
260.685486
 20
37.431252
 11
260.685486
 21
36.389999
  0
LINE
  8
0
  6
CONTINUOUS
 10
259.149597
 20
37.431252
 11
259.149597
 21
36.389999
  0
LINE
  8
0
  6
CONTINUOUS
 10
256.117004
 20
37.431252
 11
256.117004
 21
36.389999
  0
LINE
  8
0
  6
CONTINUOUS
 10
254.021500
 20
37.431252
 11
254.021500
 21
36.389999
  0
LINE
  8
0
  6
CONTINUOUS
 10
245.123093
 20
45.162525
 11
244.765198
 21
44.303493
  0
LINE
  8
0
  6
CONTINUOUS
 10
249.692505
 20
45.162525
 11
249.994400
 21
44.303493
  0
LINE
  8
0
  6
CONTINUOUS
 10
247.956207
 20
45.162525
 11
249.692505
 21
45.162525
  0
LINE
  8
0
  6
CONTINUOUS
 10
246.706696
 20
45.162525
 11
245.123093
 21
45.162525
  0
LINE
  8
0
  6
CONTINUOUS
 10
255.661407
 20
41.062599
 11
257.794312
 21
41.062599
  0
LINE
  8
0
  6
CONTINUOUS
 10
254.021500
 20
45.162525
 11
254.516098
 21
45.162525
  0
LINE
  8
0
  6
CONTINUOUS
 10
255.661407
 20
45.162525
 11
258.771088
 21
45.160503
  0
LINE
  8
0
  6
CONTINUOUS
 10
239.730301
 20
44.461056
 11
239.730301
 21
44.303493
  0
LINE
  8
0
  6
CONTINUOUS
 10
262.611115
 20
11.390000
 11
231.768906
 21
11.390000
  0
LINE
  8
0
  6
CONTINUOUS
 10
231.768906
 20
117.389999
 11
262.611115
 21
117.389999
  0
LINE
  8
0
  6
CONTINUOUS
 10
265.482605
 20
116.483292
 11
295.561401
 21
95.383186
  0
LINE
  8
0
  6
CONTINUOUS
 10
228.897507
 20
116.483276
 11
196.690002
 21
93.889999
  0
LINE
  8
0
  6
CONTINUOUS
 10
265.482605
 20
12.296710
 11
280.431488
 21
22.783270
  0
LINE
  8
0
  6
CONTINUOUS
 10
228.897400
 20
12.296720
 11
196.690002
 21
34.889999
  0
ARC
  8
0
  6
CONTINUOUS
 10
262.611206
 20
112.389999
 40
5.000000
 50
54.950710
 51
90.000000
  0
ARC
  8
0
  6
CONTINUOUS
 10
231.768906
 20
112.389999
 40
5.000000
 50
90.000000
 51
125.049500
  0
ARC
  8
0
  6
CONTINUOUS
 10
231.768906
 20
16.389999
 40
5.000000
 50
234.950500
 51
270.000000
  0
ARC
  8
0
  6
CONTINUOUS
 10
262.611115
 20
16.389999
 40
5.000000
 50
270.000000
 51
305.049591
  0
LINE
  8
0
  6
CONTINUOUS
 10
283.302887
 20
23.690001
 11
292.690002
 21
23.690001
  0
ARC
  8
0
  6
CONTINUOUS
 10
283.302887
 20
18.690010
 40
5.000000
 50
90.000000
 51
125.049698
  0
ARC
  8
0
  6
CONTINUOUS
 10
292.690002
 20
91.289886
 40
5.000000
 50
0.000000
 51
54.950691
  0
LINE
  8
0
  6
CONTINUOUS
 10
241.690002
 20
82.389999
 11
241.690002
 21
76.389999
  0
LINE
  8
0
  6
CONTINUOUS
 10
235.690002
 20
82.389999
 11
235.690002
 21
76.389999
  0
LINE
  8
0
  6
CONTINUOUS
 10
235.690002
 20
82.389999
 11
241.690002
 21
82.389999
  0
LINE
  8
0
  6
CONTINUOUS
 10
235.690002
 20
76.389999
 11
241.690002
 21
76.389999
  0
ARC
  8
0
  6
CONTINUOUS
 10
247.190002
 20
79.389999
 40
9.000000
 50
-160.528793
 51
160.528793
  0
LINE
  8
0
  6
CENTER
 10
247.190002
 20
171.729996
 11
247.190002
 21
317.047821
  0
LINE
  8
0
  6
CENTER
 10
430.668121
 20
252.607498
 11
183.048752
 21
252.607498
  0
LINE
  8
0
  6
CONTINUOUS
 10
200.864120
 20
215.607498
 11
295.741699
 21
215.607498
  0
LINE
  8
0
  6
CONTINUOUS
 10
297.899414
 20
223.604752
 11
297.740997
 21
217.555145
  0
LINE
  8
0
  6
CONTINUOUS
 10
299.847809
 20
207.607498
 11
370.190002
 21
207.607498
  0
LINE
  8
0
  6
CONTINUOUS
 10
370.190002
 20
223.607498
 11
290.847443
 21
223.607498
  0
LINE
  8
0
  6
CONTINUOUS
 10
370.190002
 20
281.607513
 11
299.573120
 21
281.607513
  0
LINE
  8
0
  6
CONTINUOUS
 10
299.716858
 20
297.607513
 11
370.190002
 21
297.607513
  0
LINE
  8
0
  6
CONTINUOUS
 10
298.946930
 20
252.607498
 11
297.690002
 21
300.607513
  0
LINE
  8
0
  6
CONTINUOUS
 10
264.190002
 20
220.607498
 11
264.190002
 21
288.607513
  0
LINE
  8
0
  6
CONTINUOUS
 10
230.190002
 20
220.607498
 11
230.190002
 21
288.607513
  0
LINE
  8
0
  6
CONTINUOUS
 10
290.847443
 20
225.607498
 11
290.847443
 21
289.072510
  0
LINE
  8
0
  6
CONTINUOUS
 10
224.690002
 20
210.607498
 11
269.690002
 21
210.607498
  0
LINE
  8
0
  6
CONTINUOUS
 10
270.690002
 20
211.607498
 11
270.690002
 21
213.607498
  0
LINE
  8
0
  6
CONTINUOUS
 10
223.690002
 20
211.607498
 11
223.690002
 21
213.607498
  0
ARC
  8
0
  6
CONTINUOUS
 10
272.690002
 20
213.607498
 40
2.000000
 50
90.000000
 51
180.000000
  0
ARC
  8
0
  6
CONTINUOUS
 10
221.690002
 20
213.607498
 40
2.000000
 50
0.000000
 51
90.000000
  0
ARC
  8
0
  6
CONTINUOUS
 10
269.690002
 20
211.607498
 40
1.000000
 50
-90.000000
 51
0.000000
  0
ARC
  8
0
  6
CONTINUOUS
 10
224.690002
 20
211.607498
 40
1.000000
 50
180.000000
 51
270.000000
  0
LINE
  8
0
  6
CONTINUOUS
 10
235.690002
 20
178.607498
 11
256.190002
 21
178.607498
  0
LINE
  8
0
  6
CONTINUOUS
 10
256.190002
 20
208.607498
 11
256.190002
 21
178.607498
  0
LINE
  8
0
  6
CONTINUOUS
 10
238.190002
 20
208.607498
 11
238.190002
 21
202.607498
  0
LINE
  8
0
  6
CONTINUOUS
 10
257.190002
 20
208.607498
 11
237.190002
 21
208.607498
  0
LINE
  8
0
  6
CONTINUOUS
 10
257.190002
 20
210.607498
 11
257.190002
 21
208.607498
  0
LINE
  8
0
  6
CONTINUOUS
 10
237.190002
 20
210.607498
 11
237.190002
 21
208.607498
  0
LINE
  8
0
  6
CONTINUOUS
 10
235.690002
 20
178.607498
 11
235.690002
 21
202.607498
  0
LINE
  8
0
  6
CONTINUOUS
 10
235.690002
 20
202.607498
 11
238.705002
 21
202.607498
  0
LINE
  8
0
  6
CONTINUOUS
 10
238.705002
 20
178.607498
 11
238.705002
 21
202.607498
  0
LINE
  8
0
  6
CONTINUOUS
 10
297.690002
 20
300.607513
 11
196.690002
 21
300.607513
  0
LINE
  8
0
  6
CONTINUOUS
 10
198.864807
 20
217.555145
 11
196.690002
 21
300.607513
  0
LINE
  8
0
  6
CONTINUOUS
 10
295.898804
 20
290.607513
 11
198.900177
 21
290.607513
  0
ARC
  8
0
  6
CONTINUOUS
 10
198.900177
 20
292.607513
 40
2.000000
 50
181.500000
 51
270.000000
  0
ARC
  8
0
  6
CONTINUOUS
 10
200.864120
 20
217.607498
 40
2.000000
 50
181.500000
 51
270.000000
  0
ARC
  8
0
  6
CONTINUOUS
 10
228.190002
 20
288.607513
 40
2.000000
 50
0.000000
 51
90.000000
  0
ARC
  8
0
  6
CONTINUOUS
 10
266.190002
 20
288.607513
 40
2.000000
 50
90.000000
 51
180.000000
  0
LINE
  8
0
  6
CONTINUOUS
 10
264.331940
 20
289.347504
 11
230.048065
 21
289.347504
  0
ARC
  8
0
  6
CONTINUOUS
 10
295.898804
 20
292.607513
 40
2.000000
 50
-90.000000
 51
1.500000
  0
ARC
  8
0
  6
CONTINUOUS
 10
299.716858
 20
299.607513
 40
2.000000
 50
181.500000
 51
270.000000
  0
LINE
  8
0
  6
CONTINUOUS
 10
297.848480
 20
209.555145
 11
297.740997
 21
213.659851
  0
ARC
  8
0
  6
CONTINUOUS
 10
299.847809
 20
209.607498
 40
2.000000
 50
181.500000
 51
270.000000
  0
ARC
  8
0
  6
CONTINUOUS
 10
295.741699
 20
213.607498
 40
2.000000
 50
1.500000
 51
90.000000
  0
ARC
  8
0
  6
CONTINUOUS
 10
295.741699
 20
217.607498
 40
2.000000
 50
270.000000
 51
358.500000
  0
LINE
  8
0
  6
CENTER
 10
207.190002
 20
308.296082
 11
207.190002
 21
284.433441
  0
LINE
  8
0
  6
DASHED
 10
202.940002
 20
290.607513
 11
202.940002
 21
300.607513
  0
LINE
  8
0
  6
DASHED
 10
211.440002
 20
290.607513
 11
211.440002
 21
300.607513
  0
LINE
  8
0
  6
CENTER
 10
287.190002
 20
308.296082
 11
287.190002
 21
284.433441
  0
LINE
  8
0
  6
DASHED
 10
291.440002
 20
290.607513
 11
291.440002
 21
300.607513
  0
LINE
  8
0
  6
DASHED
 10
282.940002
 20
290.607513
 11
282.940002
 21
300.607513
  0
LINE
  8
0
  6
CENTER
 10
60.689999
 20
-1.310000
 11
60.689999
 21
129.190002
  0
LINE
  8
0
  6
CONTINUOUS
 10
97.690002
 20
114.441879
 11
97.690002
 21
14.338080
  0
LINE
  8
0
  6
CENTER
 10
5.211964
 20
79.389999
 11
141.190002
 21
79.389999
  0
LINE
  8
0
  6
CONTINUOUS
 10
21.155399
 20
123.389999
 11
12.690000
 21
123.389999
  0
LINE
  8
0
  6
CONTINUOUS
 10
21.155399
 20
5.390000
 11
12.690000
 21
5.390000
  0
LINE
  8
0
  6
CONTINUOUS
 10
94.742302
 20
117.441437
 11
24.655100
 21
118.664543
  0
LINE
  8
0
  6
CONTINUOUS
 10
94.742401
 20
11.338550
 11
24.655100
 21
10.114920
  0
LINE
  8
0
  6
CONTINUOUS
 10
95.737801
 20
93.889999
 11
27.855801
 21
93.889999
  0
LINE
  8
0
  6
CONTINUOUS
 10
95.737801
 20
34.889999
 11
25.690001
 21
34.889999
  0
ARC
  8
0
  6
CONTINUOUS
 10
94.690002
 20
114.441879
 40
3.000000
 50
0.000000
 51
89.000359
  0
ARC
  8
0
  6
CONTINUOUS
 10
94.690002
 20
14.338080
 40
3.000000
 50
-88.999687
 51
0.000000
  0
ARC
  8
0
  6
CONTINUOUS
 10
25.690001
 20
31.890020
 40
3.000000
 50
90.000000
 51
180.000000
  0
LINE
  8
0
  6
CENTER
 10
7.627500
 20
14.390000
 11
27.377501
 21
14.390000
  0
LINE
  8
0
  6
CENTER
 10
9.377500
 20
114.389999
 11
26.377501
 21
114.389999
  0
LINE
  8
0
  6
DASHED
 10
12.690000
 20
110.139999
 11
22.690001
 21
110.139999
  0
LINE
  8
0
  6
DASHED
 10
12.690000
 20
118.639999
 11
22.690001
 21
118.639999
  0
LINE
  8
0
  6
DASHED
 10
12.690000
 20
18.639999
 11
22.690001
 21
18.639999
  0
LINE
  8
0
  6
DASHED
 10
12.690000
 20
10.140000
 11
22.690001
 21
10.140000
  0
LINE
  8
0
  6
CONTINUOUS
 10
34.689999
 20
8.690000
 11
86.690002
 21
8.690000
  0
ARC
  8
0
  6
CONTINUOUS
 10
86.690002
 20
11.690000
 40
3.000000
 50
270.000000
 51
351.561859
  0
ARC
  8
0
  6
CONTINUOUS
 10
34.689999
 20
11.690000
 40
3.000000
 50
208.811234
 51
270.000000
  0
ARC
  8
0
  6
CONTINUOUS
 10
60.689999
 20
53.689999
 40
45.000000
 50
-34.692131
 51
20.419371
  0
LINE
  8
0
  6
CONTINUOUS
 10
102.690002
 20
101.889992
 11
102.690002
 21
56.889992
  0
LINE
  8
0
  6
CONTINUOUS
 10
99.690002
 20
102.889999
 11
101.690002
 21
102.889999
  0
LINE
  8
0
  6
CONTINUOUS
 10
99.690002
 20
55.889996
 11
101.690002
 21
55.889996
  0
ARC
  8
0
  6
CONTINUOUS
 10
99.690002
 20
104.889999
 40
2.000000
 50
180.000000
 51
270.000000
  0
ARC
  8
0
  6
CONTINUOUS
 10
99.690002
 20
53.890007
 40
2.000000
 50
90.000000
 51
180.000000
  0
ARC
  8
0
  6
CONTINUOUS
 10
101.690002
 20
56.889996
 40
1.000000
 50
-90.000000
 51
0.000000
  0
ARC
  8
0
  6
CONTINUOUS
 10
101.690002
 20
101.889992
 40
1.000000
 50
0.000000
 51
90.000000
  0
LINE
  8
0
  6
CONTINUOUS
 10
22.690001
 20
121.389999
 11
22.690001
 21
31.890020
  0
LINE
  8
0
  6
CONTINUOUS
 10
22.690001
 20
7.390000
 11
22.690001
 21
31.890011
  0
LINE
  8
0
  6
CONTINUOUS
 10
12.690000
 20
5.390000
 11
12.690000
 21
123.389999
  0
LINE
  8
0
  6
CENTER
 10
6.985400
 20
53.689999
 11
112.694901
 21
53.689999
  0
LINE
  8
0
  6
CONTINUOUS
 10
23.087200
 20
121.907639
 11
23.367800
 21
120.860413
  0
ARC
  8
0
  6
CONTINUOUS
 10
20.690001
 20
121.389992
 40
2.000000
 50
0.000000
 51
90.000000
  0
ARC
  8
0
  6
CONTINUOUS
 10
21.155399
 20
121.389992
 40
2.000000
 50
15.000500
 51
90.000000
  0
ARC
  8
0
  6
CONTINUOUS
 10
24.690001
 20
120.664253
 40
2.000000
 50
180.000000
 51
269.000610
  0
ARC
  8
0
  6
CONTINUOUS
 10
26.265600
 20
121.636902
 40
3.000000
 50
195.000504
 51
269.000610
  0
LINE
  8
0
  6
CONTINUOUS
 10
23.087200
 20
6.872370
 11
23.367599
 21
7.919020
  0
ARC
  8
0
  6
CONTINUOUS
 10
20.690001
 20
7.390000
 40
2.000000
 50
-90.000000
 51
0.000000
  0
ARC
  8
0
  6
CONTINUOUS
 10
21.155399
 20
7.390000
 40
2.000000
 50
270.000000
 51
345.000000
  0
ARC
  8
0
  6
CONTINUOUS
 10
24.690001
 20
8.115220
 40
2.000000
 50
91.000526
 51
180.000000
  0
ARC
  8
0
  6
CONTINUOUS
 10
26.265400
 20
7.142580
 40
3.000000
 50
91.000458
 51
165.000305
  0
LINE
  8
0
  6
CONTINUOUS
 10
134.690002
 20
70.389999
 11
134.690002
 21
88.389999
  0
LINE
  8
0
  6
CONTINUOUS
 10
104.690002
 20
88.389999
 11
134.690002
 21
88.389999
  0
LINE
  8
0
  6
CONTINUOUS
 10
104.690002
 20
70.389999
 11
134.690002
 21
70.389999
  0
LINE
  8
0
  6
CONTINUOUS
 10
104.690002
 20
89.389999
 11
104.690002
 21
69.389999
  0
LINE
  8
0
  6
CONTINUOUS
 10
102.690002
 20
89.389999
 11
104.690002
 21
89.389999
  0
LINE
  8
0
  6
CONTINUOUS
 10
102.690002
 20
69.389999
 11
104.690002
 21
69.389999
  0
ARC
  8
0
  6
CONTINUOUS
 10
110.690002
 20
79.389999
 40
3.000000
 50
90.000000
 51
270.000000
  0
LINE
  8
0
  6
CONTINUOUS
 10
110.690002
 20
82.389999
 11
134.690002
 21
82.389999
  0
LINE
  8
0
  6
CONTINUOUS
 10
110.690002
 20
76.389999
 11
134.690002
 21
76.389999
  0
LINE
  8
0
  6
DASHED
 10
87.724899
 20
98.219803
 11
60.689999
 21
98.691689
  0
ARC
  8
0
  6
DASHED
 10
87.690002
 20
96.220100
 40
2.000000
 50
0.000000
 51
89.000191
  0
LINE
  8
0
  6
DASHED
 10
89.690002
 20
96.220108
 11
89.690002
 21
89.467087
  0
LINE
  8
0
  6
DASHED
 10
33.655102
 20
98.219803
 11
60.689999
 21
98.691689
  0
ARC
  8
0
  6
DASHED
 10
33.689999
 20
96.220100
 40
2.000000
 50
90.999809
 51
180.000000
  0
LINE
  8
0
  6
DASHED
 10
31.690001
 20
96.220108
 11
31.690001
 21
89.467087
  0
ARC
  8
0
  6
DASHED
 10
60.689999
 20
53.689999
 40
45.000000
 50
131.810318
 51
228.189682
  0
LINE
  8
0
  6
DASHED
 10
31.690001
 20
11.690000
 11
31.690001
 21
17.912912
  0
ARC
  8
0
  6
DASHED
 10
34.689999
 20
11.690000
 40
3.000000
 50
180.000000
 51
208.811234
  0
ARC
  8
0
  6
DASHED
 10
86.690002
 20
11.690000
 40
3.000000
 50
-8.438150
 51
0.000000
  0
LINE
  8
0
  6
DASHED
 10
89.690002
 20
11.690000
 11
89.690002
 21
17.912912
  0
ARC
  8
0
  6
DASHED
 10
60.689999
 20
53.689999
 40
45.000000
 50
-48.189686
 51
-34.692131
  0
ARC
  8
0
  6
DASHED
 10
92.690002
 20
89.467087
 40
3.000000
 50
180.000000
 51
228.189682
  0
ARC
  8
0
  6
DASHED
 10
28.690001
 20
89.467087
 40
3.000000
 50
-48.189686
 51
0.000000
  0
ARC
  8
0
  6
DASHED
 10
28.690001
 20
17.912912
 40
3.000000
 50
0.000000
 51
48.189686
  0
ARC
  8
0
  6
DASHED
 10
92.690002
 20
17.912912
 40
3.000000
 50
131.810318
 51
180.000000
  0
ARC
  8
0
  6
DASHED
 10
60.689999
 20
53.689999
 40
45.000000
 50
20.419371
 51
48.189686
  0
LINE
  8
0
  6
DASHED
 10
83.690002
 20
110.690300
 11
83.690002
 21
98.288528
  0
LINE
  8
0
  6
DASHED
 10
37.689999
 20
110.690300
 11
37.689999
 21
98.288528
  0
LINE
  8
0
  6
DASHED
 10
83.190002
 20
110.690300
 11
83.190002
 21
111.690300
  0
LINE
  8
0
  6
DASHED
 10
38.189999
 20
110.690300
 11
38.189999
 21
111.690300
  0
LINE
  8
0
  6
DASHED
 10
37.689999
 20
117.673698
 11
37.689999
 21
111.690300
  0
LINE
  8
0
  6
DASHED
 10
83.690002
 20
117.673698
 11
83.690002
 21
111.690300
  0
ARC
  8
0
  6
CONTINUOUS
 10
80.690002
 20
111.390198
 40
7.000000
 50
73.041977
 51
106.956497
  0
ARC
  8
0
  6
CONTINUOUS
 10
78.940002
 20
117.129501
 40
1.000000
 50
106.956902
 51
143.012054
  0
ARC
  8
0
  6
CONTINUOUS
 10
82.440002
 20
117.129501
 40
1.000000
 50
30.772787
 51
73.041847
  0
LINE
  8
0
  6
CONTINUOUS
 10
77.190002
 20
118.176743
 11
77.190002
 21
117.747749
  0
ARC
  8
0
  6
CONTINUOUS
 10
60.689999
 20
-130.809692
 40
250.000000
 50
84.826019
 51
94.598679
  0
ARC
  8
0
  6
CONTINUOUS
 10
83.190002
 20
117.673698
 40
0.500000
 50
0.000000
 51
84.826019
  0
ARC
  8
0
  6
CONTINUOUS
 10
76.690002
 20
118.176743
 40
0.500000
 50
0.000000
 51
86.323196
  0
LINE
  8
0
  6
DASHED
 10
83.190002
 20
110.690300
 11
83.690002
 21
110.690300
  0
LINE
  8
0
  6
DASHED
 10
83.190002
 20
111.690300
 11
83.690002
 21
111.690300
  0
LINE
  8
0
  6
DASHED
 10
38.189999
 20
110.690300
 11
37.689999
 21
110.690300
  0
LINE
  8
0
  6
DASHED
 10
38.189999
 20
111.690300
 11
37.689999
 21
111.690300
  0
LINE
  8
0
  6
CONTINUOUS
 10
110.690002
 20
82.389999
 11
110.690002
 21
76.389999
  0
LINE
  8
0
  6
CONTINUOUS
 10
370.190002
 20
8.690000
 11
370.190002
 21
98.690002
  0
LINE
  8
0
  6
CONTINUOUS
 10
384.190002
 20
9.425720
 11
384.190002
 21
19.280710
  0
LINE
  8
0
  6
CONTINUOUS
 10
397.190002
 20
91.716141
 11
397.190002
 21
10.379773
  0
LINE
  8
0
  6
CENTER
 10
387.690002
 20
100.628281
 11
387.690002
 21
121.890778
  0
ARC
  8
0
  6
CONTINUOUS
 10
371.690002
 20
99.690002
 40
1.000000
 50
-90.000000
 51
0.000000
  0
LINE
  8
0
  6
CONTINUOUS
 10
370.190002
 20
19.280710
 11
384.190002
 21
19.280710
  0
LINE
  8
0
  6
CONTINUOUS
 10
384.190002
 20
98.190002
 11
384.190002
 21
88.190002
  0
LINE
  8
0
  6
CONTINUOUS
 10
370.190002
 20
88.099297
 11
384.190002
 21
88.099297
  0
LINE
  8
0
  6
CONTINUOUS
 10
370.190002
 20
98.690002
 11
402.689941
 21
98.690002
  0
ARC
  8
0
  6
CONTINUOUS
 10
383.690002
 20
98.190002
 40
0.500000
 50
0.000000
 51
90.000000
  0
LINE
  8
0
  6
CONTINUOUS
 10
402.689667
 20
110.690239
 11
402.689941
 21
98.692741
  0
LINE
  8
0
  6
CONTINUOUS
 10
372.690002
 20
110.690300
 11
372.690002
 21
99.690002
  0
LINE
  8
0
  6
CONTINUOUS
 10
372.690002
 20
111.690300
 11
372.690002
 21
118.268600
  0
LINE
  8
0
  6
CONTINUOUS
 10
416.577576
 20
107.640297
 11
404.690002
 21
107.640297
  0
LINE
  8
0
  6
CONTINUOUS
 10
402.690186
 20
111.690300
 11
402.690186
 21
118.268600
  0
LINE
  8
0
  6
CONTINUOUS
 10
370.690002
 20
116.190300
 11
370.690002
 21
111.690300
  0
LINE
  8
0
  6
CONTINUOUS
 10
404.690002
 20
111.690300
 11
370.690002
 21
111.690300
  0
LINE
  8
0
  6
CONTINUOUS
 10
404.690002
 20
110.690300
 11
370.690002
 21
110.690300
  0
LINE
  8
0
  6
CONTINUOUS
 10
404.690002
 20
116.190300
 11
404.690002
 21
115.440300
  0
LINE
  8
0
  6
CONTINUOUS
 10
404.690002
 20
115.440300
 11
404.690002
 21
111.690300
  0
LINE
  8
0
  6
CONTINUOUS
 10
415.725769
 20
115.340302
 11
404.690002
 21
115.340302
  0
ARC
  8
0
  6
CONTINUOUS
 10
387.690002
 20
-130.809692
 40
250.000000
 50
86.668304
 51
93.331696
  0
LINE
  8
0
  6
CONTINUOUS
 10
372.190002
 20
117.190300
 11
371.690002
 21
117.190300
  0
ARC
  8
0
  6
CONTINUOUS
 10
371.690002
 20
116.190300
 40
1.000000
 50
90.000000
 51
180.000000
  0
ARC
  8
0
  6
CONTINUOUS
 10
372.190002
 20
117.690300
 40
0.500000
 50
-90.000000
 51
0.000000
  0
LINE
  8
0
  6
CONTINUOUS
 10
372.190002
 20
105.190300
 11
371.690002
 21
105.190300
  0
ARC
  8
0
  6
CONTINUOUS
 10
371.690002
 20
106.190300
 40
1.000000
 50
180.000000
 51
270.000000
  0
ARC
  8
0
  6
CONTINUOUS
 10
372.190002
 20
104.690300
 40
0.500000
 50
0.000000
 51
90.000000
  0
LINE
  8
0
  6
CONTINUOUS
 10
403.190002
 20
117.190300
 11
403.690002
 21
117.190300
  0
ARC
  8
0
  6
CONTINUOUS
 10
403.690002
 20
116.190300
 40
1.000000
 50
0.000000
 51
90.000000
  0
ARC
  8
0
  6
CONTINUOUS
 10
403.190002
 20
117.690300
 40
0.500000
 50
180.000000
 51
270.000000
  0
LINE
  8
0
  6
CONTINUOUS
 10
403.190002
 20
105.190300
 11
403.690002
 21
105.190300
  0
ARC
  8
0
  6
CONTINUOUS
 10
403.690002
 20
106.190300
 40
1.000000
 50
-90.000000
 51
0.000000
  0
ARC
  8
0
  6
CONTINUOUS
 10
403.190002
 20
104.690300
 40
0.500000
 50
90.000000
 51
180.000000
  0
LINE
  8
0
  6
CONTINUOUS
 10
371.190002
 20
111.690300
 11
371.190002
 21
110.690300
  0
LINE
  8
0
  6
CONTINUOUS
 10
370.690002
 20
110.690300
 11
370.690002
 21
106.190300
  0
ARC
  8
0
  6
CONTINUOUS
 10
373.190002
 20
118.268600
 40
0.500000
 50
93.331696
 51
180.000000
  0
LINE
  8
0
  6
CONTINUOUS
 10
404.690002
 20
110.690300
 11
404.690002
 21
106.190300
  0
LINE
  8
0
  6
CONTINUOUS
 10
402.189667
 20
111.690300
 11
402.189667
 21
110.690239
  0
LINE
  8
0
  6
CONTINUOUS
 10
378.690002
 20
115.690300
 11
372.940002
 21
115.690300
  0
LINE
  8
0
  6
CONTINUOUS
 10
379.190002
 20
116.190300
 11
379.190002
 21
118.562012
  0
LINE
  8
0
  6
CONTINUOUS
 10
378.440002
 20
115.690300
 11
378.440002
 21
117.129501
  0
LINE
  8
0
  6
CONTINUOUS
 10
372.940002
 20
115.690102
 11
372.940002
 21
117.129501
  0
LINE
  8
0
  6
CONTINUOUS
 10
378.440002
 20
116.390198
 11
372.940002
 21
116.390198
  0
ARC
  8
0
  6
CONTINUOUS
 10
375.690002
 20
111.390198
 40
7.000000
 50
73.042000
 51
106.956497
  0
ARC
  8
0
  6
CONTINUOUS
 10
373.940002
 20
117.129501
 40
1.000000
 50
106.956902
 51
180.000000
  0
ARC
  8
0
  6
CONTINUOUS
 10
377.440002
 20
117.129501
 40
1.000000
 50
0.000000
 51
73.041801
  0
ARC
  8
0
  6
CONTINUOUS
 10
378.690002
 20
116.190300
 40
0.500000
 50
-90.000000
 51
0.000000
  0
ARC
  8
0
  6
CONTINUOUS
 10
373.190002
 20
115.190300
 40
0.500000
 50
90.000000
 51
180.000000
  0
ARC
  8
0
  6
CONTINUOUS
 10
379.690002
 20
118.562012
 40
0.500000
 50
91.837456
 51
180.000000
  0
ARC
  8
0
  6
CONTINUOUS
 10
402.190002
 20
118.268600
 40
0.500000
 50
0.000000
 51
86.668304
  0
LINE
  8
0
  6
CONTINUOUS
 10
396.690002
 20
115.690300
 11
402.440002
 21
115.690300
  0
LINE
  8
0
  6
CONTINUOUS
 10
396.190002
 20
116.190300
 11
396.190002
 21
118.562012
  0
LINE
  8
0
  6
CONTINUOUS
 10
396.940002
 20
115.690300
 11
396.940002
 21
117.129501
  0
LINE
  8
0
  6
CONTINUOUS
 10
402.440002
 20
115.690102
 11
402.440002
 21
117.129501
  0
LINE
  8
0
  6
CONTINUOUS
 10
396.940002
 20
116.390198
 11
402.440002
 21
116.390198
  0
ARC
  8
0
  6
CONTINUOUS
 10
399.690002
 20
111.390198
 40
7.000000
 50
73.043503
 51
106.958000
  0
ARC
  8
0
  6
CONTINUOUS
 10
401.440002
 20
117.129501
 40
1.000000
 50
0.000000
 51
73.043098
  0
ARC
  8
0
  6
CONTINUOUS
 10
397.940002
 20
117.129501
 40
1.000000
 50
106.958199
 51
180.000000
  0
ARC
  8
0
  6
CONTINUOUS
 10
396.690002
 20
116.190300
 40
0.500000
 50
180.000000
 51
270.000000
  0
ARC
  8
0
  6
CONTINUOUS
 10
402.190002
 20
115.190300
 40
0.500000
 50
0.000000
 51
90.000000
  0
ARC
  8
0
  6
CONTINUOUS
 10
395.690002
 20
118.562012
 40
0.500000
 50
0.000000
 51
88.162544
  0
LINE
  8
0
  6
CONTINUOUS
 10
402.689941
 20
94.782631
 11
402.689941
 21
98.690002
  0
LINE
  8
0
  6
CONTINUOUS
 10
395.222015
 20
9.087619
 11
370.190002
 21
8.690000
  0
ARC
  8
0
  6
CONTINUOUS
 10
383.690002
 20
9.425720
 40
0.500000
 50
-89.000000
 51
0.000000
  0
LINE
  8
0
  6
CONTINUOUS
 10
396.446991
 20
9.413358
 11
395.190247
 21
9.079173
  0
ARC
  8
0
  6
CONTINUOUS
 10
396.190002
 20
10.379773
 40
1.000000
 50
-75.108749
 51
0.000000
  0
LINE
  8
0
  6
CONTINUOUS
 10
395.190247
 20
18.189590
 11
384.190002
 21
18.189590
  0
LINE
  8
0
  6
CONTINUOUS
 10
396.446991
 20
18.523775
 11
395.190247
 21
18.189590
  0
ARC
  8
0
  6
CONTINUOUS
 10
396.190002
 20
19.490191
 40
1.000000
 50
-75.108749
 51
0.000000
  0
LINE
  8
0
  6
CONTINUOUS
 10
395.190247
 20
89.190407
 11
384.190002
 21
89.190407
  0
LINE
  8
0
  6
CONTINUOUS
 10
396.446991
 20
88.856224
 11
395.190247
 21
89.190407
  0
ARC
  8
0
  6
CONTINUOUS
 10
396.190002
 20
87.889809
 40
1.000000
 50
0.000000
 51
75.108749
  0
LINE
  8
0
  6
CONTINUOUS
 10
400.742279
 20
92.783318
 11
398.163818
 21
92.715797
  0
ARC
  8
0
  6
CONTINUOUS
 10
398.190002
 20
91.716141
 40
1.000000
 50
91.500000
 51
180.000000
  0
ARC
  8
0
  6
CONTINUOUS
 10
400.689941
 20
94.782631
 40
2.000000
 50
-88.500000
 51
0.000000
  0
LINE
  8
0
  6
CONTINUOUS
 10
415.725769
 20
115.340302
 11
416.461578
 21
112.505203
  0
LINE
  8
0
  6
CONTINUOUS
 10
416.461578
 20
112.505203
 11
415.649475
 21
110.030197
  0
LINE
  8
0
  6
CONTINUOUS
 10
415.649475
 20
110.030197
 11
416.577576
 21
107.640297
  0
LINE
  8
0
  6
CONTINUOUS
 10
385.190002
 20
90.190399
 11
385.190002
 21
97.190399
  0
LINE
  8
0
  6
CONTINUOUS
 10
384.190002
 20
90.190399
 11
386.169006
 21
90.190399
  0
LINE
  8
0
  6
CONTINUOUS
 10
384.190002
 20
97.190399
 11
386.169006
 21
97.190399
  0
ARC
  8
0
  6
CONTINUOUS
 10
378.789978
 20
93.690399
 40
8.999999
 50
-16.601521
 51
16.601009
  0
ARC
  8
0
  6
CONTINUOUS
 10
386.169006
 20
91.490417
 40
1.300000
 50
-90.000000
 51
-16.601580
  0
ARC
  8
0
  6
CONTINUOUS
 10
386.169006
 20
95.890411
 40
1.300000
 50
16.600901
 51
90.000000
  0
LINE
  8
0
  6
CONTINUOUS
 10
385.190002
 20
10.189590
 11
385.190002
 21
17.189590
  0
LINE
  8
0
  6
CONTINUOUS
 10
384.190002
 20
10.189590
 11
386.169006
 21
10.189590
  0
LINE
  8
0
  6
CONTINUOUS
 10
384.190002
 20
17.189590
 11
386.169006
 21
17.189590
  0
ARC
  8
0
  6
CONTINUOUS
 10
378.789978
 20
13.689590
 40
8.999999
 50
-16.601521
 51
16.601009
  0
ARC
  8
0
  6
CONTINUOUS
 10
386.169006
 20
11.489608
 40
1.300000
 50
-90.000000
 51
-16.601580
  0
ARC
  8
0
  6
CONTINUOUS
 10
386.169006
 20
15.889602
 40
1.300000
 50
16.600901
 51
90.000000
  0
LINE
  8
0
  6
CONTINUOUS
 10
397.989990
 20
91.939896
 11
397.989990
 21
10.540104
  0
LINE
  8
0
  6
CONTINUOUS
 10
397.661011
 20
10.070257
 11
397.174530
 21
9.893188
  0
ARC
  8
0
  6
CONTINUOUS
 10
397.345520
 20
9.423342
 40
0.500000
 50
110.000000
 51
140.385345
  0
ARC
  8
0
  6
CONTINUOUS
 10
397.489990
 20
10.540104
 40
0.500000
 50
-70.000000
 51
0.000000
  0
LINE
  8
0
  6
CONTINUOUS
 10
397.661011
 20
92.409744
 11
397.522034
 21
92.460327
  0
ARC
  8
0
  6
CONTINUOUS
 10
397.489990
 20
91.939896
 40
0.500000
 50
0.000000
 51
70.000000
  0
LINE
  8
0
  6
CONTINUOUS
 10
370.690002
 20
247.723801
 11
370.690002
 21
257.491211
  0
LINE
  8
0
  6
CONTINUOUS
 10
370.190002
 20
297.607513
 11
370.190002
 21
207.607498
  0
LINE
  8
0
  6
CONTINUOUS
 10
397.190002
 20
209.337799
 11
397.190002
 21
229.607498
  0
LINE
  8
0
  6
CONTINUOUS
 10
397.190002
 20
295.877197
 11
397.190002
 21
275.607513
  0
LINE
  8
0
  6
CONTINUOUS
 10
370.190002
 20
223.607498
 11
383.703094
 21
223.961395
  0
LINE
  8
0
  6
CONTINUOUS
 10
383.703094
 20
281.253601
 11
370.190002
 21
281.607513
  0
LINE
  8
0
  6
CONTINUOUS
 10
404.690002
 20
247.723801
 11
404.690002
 21
257.491211
  0
LINE
  8
0
  6
CONTINUOUS
 10
384.190002
 20
280.753693
 11
384.190002
 21
275.607513
  0
ARC
  8
0
  6
CONTINUOUS
 10
383.690002
 20
280.753693
 40
0.500000
 50
0.000000
 51
88.496399
  0
LINE
  8
0
  6
CONTINUOUS
 10
384.190002
 20
224.461304
 11
384.190002
 21
229.607498
  0
ARC
  8
0
  6
CONTINUOUS
 10
383.690002
 20
224.461304
 40
0.500000
 50
-88.496399
 51
0.000000
  0
LINE
  8
0
  6
CONTINUOUS
 10
384.190002
 20
280.257507
 11
397.190002
 21
279.916992
  0
LINE
  8
0
  6
CONTINUOUS
 10
384.190002
 20
224.957504
 11
397.190002
 21
225.297989
  0
ARC
  8
0
  6
CONTINUOUS
 10
374.690002
 20
273.589996
 40
2.000000
 50
89.499939
 51
180.000000
  0
LINE
  8
0
  6
CONTINUOUS
 10
395.225220
 20
297.170471
 11
370.190002
 21
297.607513
  0
LINE
  8
0
  6
CONTINUOUS
 10
396.448395
 20
296.843292
 11
395.225220
 21
297.170471
  0
ARC
  8
0
  6
CONTINUOUS
 10
396.190002
 20
295.877197
 40
1.000000
 50
0.000000
 51
75.023903
  0
LINE
  8
0
  6
CONTINUOUS
 10
395.225189
 20
208.044540
 11
370.190002
 21
207.607498
  0
LINE
  8
0
  6
CONTINUOUS
 10
396.448395
 20
208.371796
 11
395.225189
 21
208.044540
  0
ARC
  8
0
  6
CONTINUOUS
 10
396.190002
 20
209.337799
 40
1.000000
 50
-75.023903
 51
0.000000
  0
LINE
  8
0
  6
CONTINUOUS
 10
397.989990
 20
275.607513
 11
397.989990
 21
290.496246
  0
LINE
  8
0
  6
CONTINUOUS
 10
397.661011
 20
290.966095
 11
397.518982
 21
291.017792
  0
ARC
  8
0
  6
CONTINUOUS
 10
397.690002
 20
291.487610
 40
0.500000
 50
180.000000
 51
250.000000
  0
ARC
  8
0
  6
CONTINUOUS
 10
397.489990
 20
290.496246
 40
0.500000
 50
0.000000
 51
70.000000
  0
LINE
  8
0
  6
CONTINUOUS
 10
397.661011
 20
214.248917
 11
397.518982
 21
214.197220
  0
ARC
  8
0
  6
CONTINUOUS
 10
397.690002
 20
213.727371
 40
0.500000
 50
110.000000
 51
180.000000
  0
ARC
  8
0
  6
CONTINUOUS
 10
397.489990
 20
214.718765
 40
0.500000
 50
-70.000000
 51
0.000000
  0
LINE
  8
0
  6
CONTINUOUS
 10
397.989990
 20
214.718765
 11
397.989990
 21
229.607498
  0
LINE
  8
0
  6
CONTINUOUS
 10
402.690094
 20
273.607513
 11
402.690094
 21
231.607498
  0
LINE
  8
0
  6
CENTER
 10
387.690002
 20
220.797501
 11
387.690002
 21
284.332489
  0
LINE
  8
0
  6
CONTINUOUS
 10
372.690002
 20
231.607498
 11
372.690002
 21
273.607513
  0
LINE
  8
0
  6
CONTINUOUS
 10
370.690002
 20
247.607498
 11
370.690002
 21
257.607513
  0
LINE
  8
0
  6
CONTINUOUS
 10
404.690002
 20
247.607498
 11
404.690002
 21
257.607513
  0
ARC
  8
0
  6
CONTINUOUS
 10
399.690002
 20
272.607513
 40
3.500000
 50
180.000000
 51
270.000000
  0
LINE
  8
0
  6
CONTINUOUS
 10
401.690094
 20
269.107513
 11
399.690002
 21
269.107513
  0
LINE
  8
0
  6
CONTINUOUS
 10
396.190002
 20
274.607513
 11
396.190002
 21
272.607513
  0
ARC
  8
0
  6
CONTINUOUS
 10
401.690094
 20
268.107513
 40
1.000000
 50
0.000000
 51
90.000000
  0
ARC
  8
0
  6
CONTINUOUS
 10
375.690002
 20
272.607513
 40
3.500000
 50
-90.000000
 51
0.000000
  0
LINE
  8
0
  6
CONTINUOUS
 10
379.190002
 20
274.607513
 11
379.190002
 21
272.607513
  0
LINE
  8
0
  6
CONTINUOUS
 10
373.689911
 20
269.107513
 11
375.690002
 21
269.107513
  0
ARC
  8
0
  6
CONTINUOUS
 10
373.689911
 20
268.107513
 40
1.000000
 50
90.000000
 51
180.000000
  0
LINE
  8
0
  6
CONTINUOUS
 10
374.690002
 20
275.607513
 11
400.690094
 21
275.607513
  0
ARC
  8
0
  6
CONTINUOUS
 10
380.190002
 20
274.607513
 40
1.000000
 50
90.000000
 51
180.000000
  0
ARC
  8
0
  6
CONTINUOUS
 10
395.190002
 20
274.607513
 40
1.000000
 50
0.000000
 51
90.000000
  0
ARC
  8
0
  6
CONTINUOUS
 10
400.690094
 20
273.607513
 40
2.000000
 50
0.000000
 51
90.000000
  0
ARC
  8
0
  6
CONTINUOUS
 10
374.690002
 20
273.607513
 40
2.000000
 50
90.000000
 51
180.000000
  0
ARC
  8
0
  6
CONTINUOUS
 10
399.690002
 20
232.607498
 40
3.500000
 50
90.000000
 51
180.000000
  0
LINE
  8
0
  6
CONTINUOUS
 10
401.690094
 20
236.107498
 11
399.690002
 21
236.107498
  0
LINE
  8
0
  6
CONTINUOUS
 10
396.190002
 20
230.607498
 11
396.190002
 21
232.607498
  0
ARC
  8
0
  6
CONTINUOUS
 10
401.690094
 20
237.107498
 40
1.000000
 50
-90.000000
 51
0.000000
  0
ARC
  8
0
  6
CONTINUOUS
 10
375.690002
 20
232.607498
 40
3.500000
 50
0.000000
 51
90.000000
  0
LINE
  8
0
  6
CONTINUOUS
 10
379.190002
 20
230.607498
 11
379.190002
 21
232.607498
  0
LINE
  8
0
  6
CONTINUOUS
 10
373.689911
 20
236.107498
 11
375.690002
 21
236.107498
  0
ARC
  8
0
  6
CONTINUOUS
 10
373.689911
 20
237.107498
 40
1.000000
 50
180.000000
 51
270.000000
  0
LINE
  8
0
  6
CONTINUOUS
 10
374.690002
 20
229.607498
 11
400.690094
 21
229.607498
  0
ARC
  8
0
  6
CONTINUOUS
 10
380.190002
 20
230.607498
 40
1.000000
 50
180.000000
 51
270.000000
  0
ARC
  8
0
  6
CONTINUOUS
 10
395.190002
 20
230.607498
 40
1.000000
 50
-90.000000
 51
0.000000
  0
ARC
  8
0
  6
CONTINUOUS
 10
400.690094
 20
231.607498
 40
2.000000
 50
-90.000000
 51
0.000000
  0
ARC
  8
0
  6
CONTINUOUS
 10
374.690002
 20
231.607498
 40
2.000000
 50
180.000000
 51
270.000000
  0
LINE
  8
0
  6
CONTINUOUS
 10
403.190002
 20
246.607498
 11
403.690002
 21
246.607498
  0
ARC
  8
0
  6
CONTINUOUS
 10
403.690002
 20
247.607498
 40
1.000000
 50
-90.000000
 51
0.000000
  0
ARC
  8
0
  6
CONTINUOUS
 10
403.190002
 20
246.107498
 40
0.500000
 50
90.000000
 51
180.000000
  0
LINE
  8
0
  6
CONTINUOUS
 10
403.190002
 20
258.607513
 11
403.690002
 21
258.607513
  0
ARC
  8
0
  6
CONTINUOUS
 10
403.690002
 20
257.607513
 40
1.000000
 50
0.000000
 51
90.000000
  0
ARC
  8
0
  6
CONTINUOUS
 10
403.190002
 20
259.107513
 40
0.500000
 50
180.000000
 51
270.000000
  0
LINE
  8
0
  6
CONTINUOUS
 10
372.190002
 20
246.607498
 11
371.690002
 21
246.607498
  0
ARC
  8
0
  6
CONTINUOUS
 10
371.690002
 20
247.607498
 40
1.000000
 50
180.000000
 51
270.000000
  0
ARC
  8
0
  6
CONTINUOUS
 10
372.190002
 20
246.107498
 40
0.500000
 50
0.000000
 51
90.000000
  0
LINE
  8
0
  6
CONTINUOUS
 10
372.190002
 20
258.607513
 11
371.690002
 21
258.607513
  0
ARC
  8
0
  6
CONTINUOUS
 10
371.690002
 20
257.607513
 40
1.000000
 50
90.000000
 51
180.000000
  0
ARC
  8
0
  6
CONTINUOUS
 10
372.190002
 20
259.107513
 40
0.500000
 50
-90.000000
 51
0.000000
  0
LINE
  8
0
  6
CONTINUOUS
 10
397.940002
 20
272.207520
 11
397.940002
 21
273.007538
  0
LINE
  8
0
  6
CONTINUOUS
 10
400.090027
 20
270.857513
 11
399.290009
 21
270.857513
  0
LINE
  8
0
  6
CONTINUOUS
 10
400.090027
 20
274.357513
 11
399.290009
 21
274.357513
  0
LINE
  8
0
  6
CONTINUOUS
 10
401.440002
 20
272.207520
 11
401.440002
 21
273.007538
  0
CIRCLE
  8
0
  6
CONTINUOUS
 10
399.690002
 20
272.607513
 40
2.750000
  0
ARC
  8
0
  6
CONTINUOUS
 10
401.440002
 20
270.857513
 40
1.350000
 50
90.000000
 51
180.000000
  0
ARC
  8
0
  6
CONTINUOUS
 10
401.440002
 20
274.357513
 40
1.350000
 50
180.000000
 51
270.000000
  0
ARC
  8
0
  6
CONTINUOUS
 10
397.940002
 20
270.857513
 40
1.350000
 50
0.000000
 51
90.000000
  0
ARC
  8
0
  6
CONTINUOUS
 10
397.940002
 20
274.357513
 40
1.350000
 50
-90.000000
 51
0.000000
  0
LINE
  8
0
  6
CONTINUOUS
 10
373.940002
 20
272.207520
 11
373.940002
 21
273.007538
  0
LINE
  8
0
  6
CONTINUOUS
 10
376.090027
 20
270.857513
 11
375.290009
 21
270.857513
  0
LINE
  8
0
  6
CONTINUOUS
 10
376.090027
 20
274.357513
 11
375.290009
 21
274.357513
  0
LINE
  8
0
  6
CONTINUOUS
 10
377.440002
 20
272.207520
 11
377.440002
 21
273.007538
  0
CIRCLE
  8
0
  6
CONTINUOUS
 10
375.690002
 20
272.607513
 40
2.750000
  0
ARC
  8
0
  6
CONTINUOUS
 10
377.440002
 20
270.857513
 40
1.350000
 50
90.000000
 51
180.000000
  0
ARC
  8
0
  6
CONTINUOUS
 10
377.440002
 20
274.357513
 40
1.350000
 50
180.000000
 51
270.000000
  0
ARC
  8
0
  6
CONTINUOUS
 10
373.940002
 20
270.857513
 40
1.350000
 50
0.000000
 51
90.000000
  0
ARC
  8
0
  6
CONTINUOUS
 10
373.940002
 20
274.357513
 40
1.350000
 50
-90.000000
 51
0.000000
  0
LINE
  8
0
  6
CONTINUOUS
 10
373.940002
 20
232.207504
 11
373.940002
 21
233.007523
  0
LINE
  8
0
  6
CONTINUOUS
 10
376.090027
 20
230.857498
 11
375.290009
 21
230.857498
  0
LINE
  8
0
  6
CONTINUOUS
 10
376.090027
 20
234.357498
 11
375.290009
 21
234.357498
  0
LINE
  8
0
  6
CONTINUOUS
 10
377.440002
 20
232.207504
 11
377.440002
 21
233.007523
  0
CIRCLE
  8
0
  6
CONTINUOUS
 10
375.690002
 20
232.607498
 40
2.750000
  0
ARC
  8
0
  6
CONTINUOUS
 10
377.440002
 20
230.857498
 40
1.350000
 50
90.000000
 51
180.000000
  0
ARC
  8
0
  6
CONTINUOUS
 10
377.440002
 20
234.357498
 40
1.350000
 50
180.000000
 51
270.000000
  0
ARC
  8
0
  6
CONTINUOUS
 10
373.940002
 20
230.857498
 40
1.350000
 50
0.000000
 51
90.000000
  0
ARC
  8
0
  6
CONTINUOUS
 10
373.940002
 20
234.357498
 40
1.350000
 50
-90.000000
 51
0.000000
  0
LINE
  8
0
  6
CONTINUOUS
 10
397.940002
 20
232.207504
 11
397.940002
 21
233.007523
  0
LINE
  8
0
  6
CONTINUOUS
 10
400.090027
 20
230.857498
 11
399.290009
 21
230.857498
  0
LINE
  8
0
  6
CONTINUOUS
 10
400.090027
 20
234.357498
 11
399.290009
 21
234.357498
  0
LINE
  8
0
  6
CONTINUOUS
 10
401.440002
 20
232.207504
 11
401.440002
 21
233.007523
  0
CIRCLE
  8
0
  6
CONTINUOUS
 10
399.690002
 20
232.607498
 40
2.750000
  0
ARC
  8
0
  6
CONTINUOUS
 10
401.440002
 20
230.857498
 40
1.350000
 50
90.000000
 51
180.000000
  0
ARC
  8
0
  6
CONTINUOUS
 10
401.440002
 20
234.357498
 40
1.350000
 50
180.000000
 51
270.000000
  0
ARC
  8
0
  6
CONTINUOUS
 10
397.940002
 20
230.857498
 40
1.350000
 50
0.000000
 51
90.000000
  0
ARC
  8
0
  6
CONTINUOUS
 10
397.940002
 20
234.357498
 40
1.350000
 50
-90.000000
 51
0.000000
  0
LINE
  8
0
  6
CONTINUOUS
 10
419.838684
 20
256.457489
 11
404.689880
 21
256.457489
  0
LINE
  8
0
  6
CONTINUOUS
 10
418.986877
 20
248.757507
 11
419.722687
 21
251.592606
  0
LINE
  8
0
  6
CONTINUOUS
 10
419.722687
 20
251.592606
 11
418.910583
 21
254.067596
  0
LINE
  8
0
  6
CONTINUOUS
 10
418.910583
 20
254.067596
 11
419.838684
 21
256.457489
  0
LINE
  8
0
  6
CONTINUOUS
 10
418.986877
 20
248.757507
 11
404.689880
 21
248.757507
  0
LINE
  8
0
  6
CONTINUOUS
 10
385.190002
 20
229.607498
 11
385.190002
 21
225.107498
  0
LINE
  8
0
  6
CONTINUOUS
 10
384.190002
 20
225.107498
 11
386.169006
 21
225.107498
  0
ARC
  8
0
  6
CONTINUOUS
 10
378.789978
 20
228.607498
 40
8.999999
 50
-16.601009
 51
6.379371
  0
ARC
  8
0
  6
CONTINUOUS
 10
386.169006
 20
226.407486
 40
1.300000
 50
270.000000
 51
343.399109
  0
LINE
  8
0
  6
CONTINUOUS
 10
385.190002
 20
275.607513
 11
385.190002
 21
280.107513
  0
LINE
  8
0
  6
CONTINUOUS
 10
384.190002
 20
280.107513
 11
386.169006
 21
280.107513
  0
ARC
  8
0
  6
CONTINUOUS
 10
378.789978
 20
276.607513
 40
8.999999
 50
-6.379371
 51
16.601009
  0
ARC
  8
0
  6
CONTINUOUS
 10
386.169006
 20
278.807526
 40
1.300000
 50
16.600901
 51
90.000000
  0
ARC
  8
0
  6
DASHED
 10
38.189999
 20
117.673698
 40
0.500000
 50
95.173981
 51
180.000000
  0
ARC
  8
0
  6
CONTINUOUS
 10
44.689999
 20
118.176743
 40
0.500000
 50
93.676804
 51
162.961609
  0
ARC
  8
0
  6
DASHED
 10
60.689999
 20
-130.809692
 40
250.000000
 50
94.598679
 51
95.173981
  0
TEXT
  8
0
 10
-10.000000
 20
-3.000000
 40
4.000000
 41
1.000000
  1
HFW-18L-10~240-S40
 50
0.000000
  0
ENDSEC
  0
EOF
