  0
SECTION
  2
HEADER
  9
$CLAYER
  8
1
  9
$LTSCALE
 40
3.0
  0
ENDSEC
  0
SECTION
  2
TABLES
  0
TABLE
  2
LTYPE
 70
     4
  0
LTYPE
  2
CONTINUOUS
  3
solid line
 70
    64
 72
    65
 73
     0
 40
0.0
  0
LTYPE
  2
DASHED
  3
__ __ __ __ __ __ __ __ __ __ __ __ __ __ __
 70
    64
 72
    65
 73
     2
 40
0.75
 49
0.5
 49
-0.25
  0
LTYPE
  2
CENTER
  3
____ _ ____ _ ____ _ ____ _ ____ _ ____ _ ____
 70
    64
 72
    65
 73
     4
 40
2.0
 49
1.25
 49
-0.25
 49
0.25
 49
-0.25
  0
LTYPE
  2
PHANTOM
  3
_____ _ _ _____ _ _ _____ _ _ _____ _ _ ____
 70
    64
 72
    65
 73
     6
 40
2.5
 49
1.25
 49
-0.25
 49
0.25
 49
-0.25
 49
0.25
 49
-0.25
  0
ENDTAB
  0
TABLE
  2
LAYER
 70
     1
  0
LAYER
  2
0
 70
    64
 62
     7
  6
CONTINUOUS
  0
ENDTAB
  0
TABLE
  2
STYLE
 70
     1
  0
STYLE
  2
STANDARD
 70
     0
 40
0.000000
 41
1.000000
 50
0.000000
 71
     0
 42
3.000000
  3
txt
  4
BIGFONT
  0
ENDTAB
  0
ENDSEC
  0
SECTION
  2
BLOCKS
  0
ENDSEC
  0
SECTION
  2
ENTITIES
  0
LINE
  8
0
  6
CENTER
 10
-6.103125
 20
50.110001
 11
126.347954
 21
50.110001
  0
LINE
  8
0
  6
CONTINUOUS
 10
204.961243
 20
31.309999
 11
204.961243
 21
90.309998
  0
LINE
  8
0
  6
CONTINUOUS
 10
31.461250
 20
95.110001
 11
104.307007
 21
95.110001
  0
LINE
  8
0
  6
CONTINUOUS
 10
101.961250
 20
5.110000
 11
31.461250
 21
5.110000
  0
LINE
  8
0
  6
CENTER
 10
118.684998
 20
75.809998
 11
190.769058
 21
75.809998
  0
LINE
  8
0
  6
CENTER
 10
154.461243
 20
128.360001
 11
154.461243
 21
-7.630300
  0
LINE
  8
0
  6
CONTINUOUS
 10
114.461250
 20
119.809998
 11
194.461243
 21
119.809998
  0
LINE
  8
0
  6
CONTINUOUS
 10
114.461250
 20
1.810000
 11
194.461243
 21
1.810000
  0
LINE
  8
0
  6
CENTER
 10
187.461243
 20
110.809998
 11
201.336243
 21
110.809998
  0
LINE
  8
0
  6
CENTER
 10
194.461243
 20
104.110001
 11
194.461243
 21
117.610001
  0
CIRCLE
  8
0
  6
CONTINUOUS
 10
194.461243
 20
110.809998
 40
4.250000
  0
LINE
  8
0
  6
CENTER
 10
187.461243
 20
10.810000
 11
201.336243
 21
10.810000
  0
LINE
  8
0
  6
CENTER
 10
194.461243
 20
17.510000
 11
194.461243
 21
4.010000
  0
CIRCLE
  8
0
  6
CONTINUOUS
 10
194.461243
 20
10.810000
 40
4.250000
  0
LINE
  8
0
  6
CENTER
 10
121.461250
 20
110.809998
 11
107.586250
 21
110.809998
  0
LINE
  8
0
  6
CENTER
 10
114.461250
 20
104.110001
 11
114.461250
 21
117.610001
  0
CIRCLE
  8
0
  6
CONTINUOUS
 10
114.461250
 20
110.809998
 40
4.250000
  0
LINE
  8
0
  6
CENTER
 10
121.461250
 20
10.810000
 11
107.586250
 21
10.810000
  0
LINE
  8
0
  6
CENTER
 10
114.461250
 20
17.510000
 11
114.461250
 21
4.010000
  0
CIRCLE
  8
0
  6
CONTINUOUS
 10
114.461250
 20
10.810000
 40
4.250000
  0
LINE
  8
0
  6
CONTINUOUS
 10
203.437943
 20
111.456627
 11
204.961243
 21
90.309998
  0
LINE
  8
0
  6
CONTINUOUS
 10
203.437943
 20
10.163440
 11
204.961243
 21
31.309999
  0
LINE
  8
0
  6
CONTINUOUS
 10
128.461243
 20
115.809998
 11
180.461243
 21
115.809998
  0
LINE
  8
0
  6
CONTINUOUS
 10
180.461243
 20
5.810000
 11
128.461243
 21
5.810000
  0
LINE
  8
0
  6
CONTINUOUS
 10
106.461250
 20
76.502190
 11
106.461250
 21
45.117481
  0
ARC
  8
0
  6
CONTINUOUS
 10
154.461243
 20
60.810001
 40
50.500000
 50
18.103800
 51
161.896194
  0
ARC
  8
0
  6
CONTINUOUS
 10
154.461243
 20
60.810001
 40
50.500000
 50
198.103806
 51
341.896210
  0
LINE
  8
0
  6
CONTINUOUS
 10
202.461243
 20
76.502357
 11
202.461243
 21
45.117966
  0
ARC
  8
0
  6
CONTINUOUS
 10
180.461243
 20
110.809998
 40
5.000000
 50
0.000000
 51
90.000000
  0
ARC
  8
0
  6
CONTINUOUS
 10
195.467148
 20
96.846184
 40
5.000000
 50
4.120544
 51
94.120201
  0
ARC
  8
0
  6
CONTINUOUS
 10
194.461243
 20
110.809998
 40
9.000000
 50
180.000000
 51
274.120697
  0
ARC
  8
0
  6
CONTINUOUS
 10
194.461243
 20
110.809998
 40
9.000000
 50
4.120065
 51
90.000000
  0
ARC
  8
0
  6
CONTINUOUS
 10
180.461243
 20
10.810000
 40
5.000000
 50
-90.000000
 51
0.000000
  0
ARC
  8
0
  6
CONTINUOUS
 10
195.467148
 20
24.773821
 40
5.000000
 50
265.879791
 51
355.879486
  0
ARC
  8
0
  6
CONTINUOUS
 10
194.461243
 20
10.810000
 40
9.000000
 50
270.000000
 51
355.879913
  0
ARC
  8
0
  6
CONTINUOUS
 10
194.461243
 20
10.810000
 40
9.000000
 50
85.879837
 51
180.000000
  0
LINE
  8
0
  6
CONTINUOUS
 10
200.454147
 20
97.205460
 11
202.461243
 21
76.502357
  0
LINE
  8
0
  6
CONTINUOUS
 10
200.454147
 20
24.414579
 11
202.461349
 21
45.117962
  0
ARC
  8
0
  6
CONTINUOUS
 10
128.461243
 20
110.809998
 40
5.000000
 50
90.000000
 51
180.000000
  0
ARC
  8
0
  6
CONTINUOUS
 10
114.461250
 20
110.809998
 40
9.000000
 50
-94.120667
 51
0.000000
  0
ARC
  8
0
  6
CONTINUOUS
 10
113.455353
 20
96.846184
 40
5.000000
 50
85.879799
 51
175.879501
  0
LINE
  8
0
  6
CONTINUOUS
 10
108.468353
 20
97.205460
 11
106.461250
 21
76.502357
  0
ARC
  8
0
  6
CONTINUOUS
 10
113.455353
 20
24.773821
 40
5.000000
 50
-175.879501
 51
-85.879791
  0
ARC
  8
0
  6
CONTINUOUS
 10
114.461250
 20
10.810000
 40
9.000000
 50
0.000000
 51
94.120163
  0
ARC
  8
0
  6
CONTINUOUS
 10
128.461243
 20
10.810000
 40
5.000000
 50
180.000000
 51
270.000000
  0
LINE
  8
0
  6
CONTINUOUS
 10
108.468353
 20
24.414579
 11
106.461151
 21
45.117962
  0
ARC
  8
0
  6
CONTINUOUS
 10
114.461250
 20
110.809998
 40
9.000000
 50
90.000000
 51
175.879898
  0
LINE
  8
0
  6
CONTINUOUS
 10
105.484451
 20
111.456627
 11
103.961250
 21
90.309998
  0
LINE
  8
0
  6
CONTINUOUS
 10
105.484451
 20
10.163440
 11
103.961250
 21
31.309999
  0
ARC
  8
0
  6
CONTINUOUS
 10
114.461250
 20
10.810000
 40
9.000000
 50
-175.879898
 51
-90.000000
  0
ARC
  8
0
  6
CONTINUOUS
 10
108.961250
 20
15.110030
 40
5.000000
 50
143.994797
 51
180.000000
  0
ARC
  8
0
  6
CONTINUOUS
 10
101.961250
 20
7.110000
 40
2.000000
 50
-90.000000
 51
0.000000
  0
LINE
  8
0
  6
CONTINUOUS
 10
103.961250
 20
7.110000
 11
103.961250
 21
15.110030
  0
LINE
  8
0
  6
CONTINUOUS
 10
103.961250
 20
90.309998
 11
103.961250
 21
31.309990
  0
LINE
  8
0
  6
CONTINUOUS
 10
31.461250
 20
84.519302
 11
101.961250
 21
84.519302
  0
LINE
  8
0
  6
CONTINUOUS
 10
31.461250
 20
15.700690
 11
102.461250
 21
15.700690
  0
CIRCLE
  8
0
  6
CONTINUOUS
 10
154.461243
 20
75.809998
 40
23.500000
  0
LINE
  8
0
  6
CONTINUOUS
 10
148.086243
 20
38.363232
 11
148.086243
 21
32.810001
  0
LINE
  8
0
  6
CONTINUOUS
 10
151.273743
 20
40.380318
 11
151.273743
 21
42.372505
  0
LINE
  8
0
  6
CONTINUOUS
 10
157.648743
 20
40.380318
 11
157.648743
 21
42.372505
  0
LINE
  8
0
  6
CONTINUOUS
 10
153.838654
 20
41.202095
 11
153.838654
 21
33.855900
  0
LINE
  8
0
  6
CONTINUOUS
 10
155.034058
 20
41.202095
 11
155.034058
 21
33.855900
  0
LINE
  8
0
  6
CONTINUOUS
 10
161.309357
 20
41.202095
 11
161.309357
 21
33.806099
  0
LINE
  8
0
  6
CONTINUOUS
 10
162.405045
 20
37.279980
 11
162.405045
 21
33.806099
  0
LINE
  8
0
  6
CONTINUOUS
 10
146.573746
 20
41.102486
 11
143.501846
 21
41.102486
  0
LINE
  8
0
  6
CONTINUOUS
 10
143.501846
 20
41.102486
 11
142.782043
 21
40.209991
  0
LINE
  8
0
  6
CONTINUOUS
 10
142.868652
 20
42.372505
 11
141.711243
 21
40.890511
  0
LINE
  8
0
  6
CONTINUOUS
 10
142.782043
 20
34.700932
 11
143.513351
 21
33.930611
  0
LINE
  8
0
  6
CONTINUOUS
 10
141.711243
 20
34.050861
 11
142.941055
 21
32.810001
  0
LINE
  8
0
  6
CONTINUOUS
 10
141.711243
 20
40.890511
 11
141.711243
 21
34.050861
  0
LINE
  8
0
  6
CONTINUOUS
 10
142.782043
 20
40.209991
 11
142.782043
 21
34.700932
  0
LINE
  8
0
  6
CONTINUOUS
 10
147.164856
 20
40.531044
 11
146.561646
 21
41.102486
  0
LINE
  8
0
  6
CONTINUOUS
 10
147.155243
 20
42.372505
 11
148.086243
 21
41.339363
  0
LINE
  8
0
  6
CONTINUOUS
 10
147.164856
 20
40.380318
 11
148.086243
 21
40.380318
  0
LINE
  8
0
  6
CONTINUOUS
 10
142.868652
 20
42.372505
 11
147.155243
 21
42.372505
  0
LINE
  8
0
  6
CONTINUOUS
 10
147.164856
 20
37.317329
 11
145.496445
 21
37.317329
  0
LINE
  8
0
  6
CONTINUOUS
 10
147.164856
 20
36.321239
 11
147.164856
 21
37.118111
  0
LINE
  8
0
  6
CONTINUOUS
 10
145.172653
 20
33.930611
 11
143.513351
 21
33.930611
  0
ARC
  8
0
  6
CONTINUOUS
 10
145.172653
 20
35.922798
 40
1.992187
 50
-89.999786
 51
0.000109
  0
LINE
  8
0
  6
CONTINUOUS
 10
147.164856
 20
33.572269
 11
147.164856
 21
32.810001
  0
LINE
  8
0
  6
CONTINUOUS
 10
148.086243
 20
41.339363
 11
148.086243
 21
40.380318
  0
LINE
  8
0
  6
CONTINUOUS
 10
147.164856
 20
37.317329
 11
147.164856
 21
35.922798
  0
LINE
  8
0
  6
CONTINUOUS
 10
145.496445
 20
38.363232
 11
145.496445
 21
37.317329
  0
LINE
  8
0
  6
CONTINUOUS
 10
147.164856
 20
32.810001
 11
148.086243
 21
32.810001
  0
LINE
  8
0
  6
CONTINUOUS
 10
147.164856
 20
33.572269
 11
146.256348
 21
32.810001
  0
LINE
  8
0
  6
CONTINUOUS
 10
155.034058
 20
33.855900
 11
155.432449
 21
33.855900
  0
LINE
  8
0
  6
CONTINUOUS
 10
153.365555
 20
33.855900
 11
153.365555
 21
32.810001
  0
LINE
  8
0
  6
CONTINUOUS
 10
155.432449
 20
33.855900
 11
155.432449
 21
32.810001
  0
LINE
  8
0
  6
CONTINUOUS
 10
156.983749
 20
40.380318
 11
157.648743
 21
40.380318
  0
LINE
  8
0
  6
CONTINUOUS
 10
151.273743
 20
40.380318
 11
151.981354
 21
40.380318
  0
LINE
  8
0
  6
CONTINUOUS
 10
151.273743
 20
42.372505
 11
157.648743
 21
42.372505
  0
LINE
  8
0
  6
CONTINUOUS
 10
153.365555
 20
32.810001
 11
155.432449
 21
32.810001
  0
LINE
  8
0
  6
CONTINUOUS
 10
153.365555
 20
33.855900
 11
153.838654
 21
33.855900
  0
ARC
  8
0
  6
CONTINUOUS
 10
164.658752
 20
39.820011
 40
2.552490
 50
-73.981873
 51
90.003510
  0
ARC
  8
0
  6
CONTINUOUS
 10
164.658752
 20
39.820011
 40
1.557193
 50
-82.585274
 51
62.411850
  0
LINE
  8
0
  6
CONTINUOUS
 10
160.836243
 20
42.372505
 11
164.658752
 21
42.372505
  0
LINE
  8
0
  6
CONTINUOUS
 10
160.836243
 20
42.372505
 11
160.836243
 21
41.202095
  0
LINE
  8
0
  6
CONTINUOUS
 10
162.405045
 20
41.202095
 11
162.405045
 21
38.275841
  0
LINE
  8
0
  6
CONTINUOUS
 10
165.363144
 20
37.366631
 11
166.942947
 21
33.806099
  0
LINE
  8
0
  6
CONTINUOUS
 10
164.445557
 20
37.279980
 11
165.940643
 21
33.806099
  0
LINE
  8
0
  6
CONTINUOUS
 10
160.836243
 20
33.806099
 11
161.309357
 21
33.806099
  0
LINE
  8
0
  6
CONTINUOUS
 10
162.405045
 20
33.806099
 11
162.840851
 21
33.806099
  0
LINE
  8
0
  6
CONTINUOUS
 10
162.840851
 20
32.810001
 11
160.836243
 21
32.810001
  0
LINE
  8
0
  6
CONTINUOUS
 10
165.742050
 20
33.806099
 11
165.940643
 21
33.806099
  0
LINE
  8
0
  6
CONTINUOUS
 10
166.942947
 20
33.806099
 11
167.211243
 21
33.806099
  0
LINE
  8
0
  6
CONTINUOUS
 10
165.742050
 20
32.810001
 11
167.211243
 21
32.810001
  0
LINE
  8
0
  6
CONTINUOUS
 10
167.211243
 20
33.806099
 11
167.211243
 21
32.810001
  0
LINE
  8
0
  6
CONTINUOUS
 10
165.742050
 20
33.806099
 11
165.742050
 21
32.810001
  0
LINE
  8
0
  6
CONTINUOUS
 10
162.840851
 20
33.806099
 11
162.840851
 21
32.810001
  0
LINE
  8
0
  6
CONTINUOUS
 10
160.836243
 20
33.806099
 11
160.836243
 21
32.810001
  0
LINE
  8
0
  6
CONTINUOUS
 10
152.323746
 20
41.202095
 11
151.981354
 21
40.380318
  0
LINE
  8
0
  6
CONTINUOUS
 10
156.695053
 20
41.202095
 11
156.983749
 21
40.380318
  0
LINE
  8
0
  6
CONTINUOUS
 10
155.034058
 20
41.202095
 11
156.695053
 21
41.202095
  0
LINE
  8
0
  6
CONTINUOUS
 10
153.838654
 20
41.202095
 11
152.323746
 21
41.202095
  0
LINE
  8
0
  6
CONTINUOUS
 10
160.836243
 20
41.202095
 11
161.309357
 21
41.202095
  0
LINE
  8
0
  6
CONTINUOUS
 10
162.405045
 20
41.202095
 11
165.379944
 21
41.200157
  0
LINE
  8
0
  6
CONTINUOUS
 10
147.164856
 20
40.531044
 11
147.164856
 21
40.380318
  0
LINE
  8
0
  6
CONTINUOUS
 10
142.941055
 20
32.810001
 11
146.256348
 21
32.810001
  0
LINE
  8
0
  6
CONTINUOUS
 10
162.405045
 20
38.275841
 11
164.859756
 21
38.275841
  0
LINE
  8
0
  6
CONTINUOUS
 10
162.405045
 20
37.279980
 11
164.445557
 21
37.279980
  0
LINE
  8
0
  6
CONTINUOUS
 10
145.496445
 20
38.363232
 11
148.086243
 21
38.363232
  0
LINE
  8
0
  6
CONTINUOUS
 10
140.461243
 20
114.878799
 11
140.461243
 21
109.330612
  0
LINE
  8
0
  6
CONTINUOUS
 10
168.461243
 20
114.878799
 11
168.461243
 21
109.330620
  0
LINE
  8
0
  6
CONTINUOUS
 10
140.461243
 20
12.289390
 11
140.461243
 21
7.015370
  0
LINE
  8
0
  6
CONTINUOUS
 10
168.461243
 20
12.289390
 11
168.461243
 21
7.015370
  0
LINE
  8
0
  6
CONTINUOUS
 10
159.961243
 20
72.810020
 11
159.961243
 21
78.810020
  0
LINE
  8
0
  6
CONTINUOUS
 10
165.961243
 20
72.810043
 11
165.961243
 21
78.810043
  0
LINE
  8
0
  6
CONTINUOUS
 10
165.961243
 20
72.810043
 11
159.961243
 21
72.810020
  0
LINE
  8
0
  6
CONTINUOUS
 10
165.961243
 20
78.810043
 11
159.961243
 21
78.810020
  0
ARC
  8
0
  6
CONTINUOUS
 10
154.461243
 20
75.809998
 40
9.000000
 50
19.471210
 51
340.528809
  0
LINE
  8
0
  6
CENTER
 10
154.461243
 20
310.319366
 11
154.461243
 21
174.856873
  0
LINE
  8
0
  6
CENTER
 10
-26.493437
 20
255.149994
 11
218.602493
 21
255.149994
  0
LINE
  8
0
  6
CONTINUOUS
 10
200.787140
 20
292.149994
 11
105.909561
 21
292.149994
  0
LINE
  8
0
  6
CONTINUOUS
 10
103.751831
 20
284.152740
 11
103.910248
 21
290.202362
  0
LINE
  8
0
  6
CONTINUOUS
 10
101.803452
 20
300.149994
 11
31.461250
 21
300.149994
  0
LINE
  8
0
  6
CONTINUOUS
 10
31.461250
 20
284.149994
 11
110.803802
 21
284.149994
  0
LINE
  8
0
  6
CONTINUOUS
 10
31.461250
 20
226.149994
 11
102.078125
 21
226.149994
  0
LINE
  8
0
  6
CONTINUOUS
 10
101.934380
 20
210.149994
 11
31.461250
 21
210.149994
  0
LINE
  8
0
  6
CONTINUOUS
 10
102.704323
 20
255.149994
 11
103.961250
 21
207.149994
  0
LINE
  8
0
  6
CONTINUOUS
 10
137.461243
 20
287.149994
 11
137.461243
 21
219.149994
  0
LINE
  8
0
  6
CONTINUOUS
 10
171.461243
 20
287.149994
 11
171.461243
 21
219.149994
  0
LINE
  8
0
  6
CONTINUOUS
 10
110.803802
 20
282.149994
 11
110.803802
 21
218.684998
  0
LINE
  8
0
  6
CONTINUOUS
 10
176.961258
 20
297.149994
 11
131.961243
 21
297.149994
  0
LINE
  8
0
  6
CONTINUOUS
 10
130.961243
 20
296.149994
 11
130.961243
 21
294.149994
  0
LINE
  8
0
  6
CONTINUOUS
 10
177.961258
 20
296.149994
 11
177.961258
 21
294.149994
  0
ARC
  8
0
  6
CONTINUOUS
 10
128.961243
 20
294.149994
 40
2.000000
 50
-90.000000
 51
0.000000
  0
ARC
  8
0
  6
CONTINUOUS
 10
179.961243
 20
294.149994
 40
2.000000
 50
180.000000
 51
270.000000
  0
ARC
  8
0
  6
CONTINUOUS
 10
131.961258
 20
296.149994
 40
1.000000
 50
90.000000
 51
180.000000
  0
ARC
  8
0
  6
CONTINUOUS
 10
176.961258
 20
296.149994
 40
1.000000
 50
0.000000
 51
90.000000
  0
LINE
  8
0
  6
CONTINUOUS
 10
165.961243
 20
181.149994
 11
145.461243
 21
181.149994
  0
LINE
  8
0
  6
CONTINUOUS
 10
145.461243
 20
207.149994
 11
145.461243
 21
181.149994
  0
LINE
  8
0
  6
CONTINUOUS
 10
165.961243
 20
181.149994
 11
165.961243
 21
205.149994
  0
LINE
  8
0
  6
CONTINUOUS
 10
162.946243
 20
181.149994
 11
162.946243
 21
205.149994
  0
LINE
  8
0
  6
CONTINUOUS
 10
103.961250
 20
207.149994
 11
204.961243
 21
207.149994
  0
LINE
  8
0
  6
CONTINUOUS
 10
202.786453
 20
290.202362
 11
204.961243
 21
207.149994
  0
LINE
  8
0
  6
CONTINUOUS
 10
105.752449
 20
217.149994
 11
202.751083
 21
217.149994
  0
ARC
  8
0
  6
CONTINUOUS
 10
202.751083
 20
215.149994
 40
2.000000
 50
1.500000
 51
90.000000
  0
ARC
  8
0
  6
CONTINUOUS
 10
200.787140
 20
290.149994
 40
2.000000
 50
1.500000
 51
90.000000
  0
ARC
  8
0
  6
CONTINUOUS
 10
173.461243
 20
219.149994
 40
2.000000
 50
180.000000
 51
270.000000
  0
ARC
  8
0
  6
CONTINUOUS
 10
135.461243
 20
219.149994
 40
2.000000
 50
-90.000000
 51
0.000000
  0
LINE
  8
0
  6
CONTINUOUS
 10
137.319321
 20
218.410004
 11
171.603180
 21
218.410004
  0
ARC
  8
0
  6
CONTINUOUS
 10
105.752449
 20
215.149994
 40
2.000000
 50
90.000000
 51
181.500000
  0
ARC
  8
0
  6
CONTINUOUS
 10
101.934380
 20
208.149994
 40
2.000000
 50
1.500000
 51
90.000000
  0
LINE
  8
0
  6
CONTINUOUS
 10
103.802765
 20
298.202362
 11
103.910248
 21
294.097656
  0
ARC
  8
0
  6
CONTINUOUS
 10
101.803452
 20
298.149994
 40
2.000000
 50
1.500000
 51
90.000000
  0
ARC
  8
0
  6
CONTINUOUS
 10
105.909561
 20
294.149994
 40
2.000000
 50
181.500000
 51
270.000000
  0
ARC
  8
0
  6
CONTINUOUS
 10
105.909561
 20
290.149994
 40
2.000000
 50
90.000000
 51
178.500000
  0
LINE
  8
0
  6
CENTER
 10
194.461243
 20
199.461411
 11
194.461243
 21
223.324066
  0
LINE
  8
0
  6
DASHED
 10
198.711243
 20
217.149994
 11
198.711243
 21
207.149994
  0
LINE
  8
0
  6
DASHED
 10
190.211243
 20
217.149994
 11
190.211243
 21
207.149994
  0
LINE
  8
0
  6
CENTER
 10
114.461250
 20
199.461411
 11
114.461250
 21
223.324066
  0
LINE
  8
0
  6
DASHED
 10
110.211250
 20
217.149994
 11
110.211250
 21
207.149994
  0
LINE
  8
0
  6
DASHED
 10
118.711250
 20
217.149994
 11
118.711250
 21
207.149994
  0
LINE
  8
0
  6
CENTER
 10
354.461243
 20
-4.890000
 11
354.461243
 21
125.610001
  0
LINE
  8
0
  6
CONTINUOUS
 10
312.461243
 20
98.309990
 11
312.461243
 21
53.309994
  0
LINE
  8
0
  6
CONTINUOUS
 10
391.461243
 20
110.861877
 11
391.461243
 21
10.758080
  0
LINE
  8
0
  6
CENTER
 10
272.961243
 20
75.809998
 11
400.773224
 21
75.809998
  0
LINE
  8
0
  6
CONTINUOUS
 10
316.461243
 20
99.309998
 11
313.461243
 21
99.309998
  0
LINE
  8
0
  6
CONTINUOUS
 10
316.461243
 20
52.309998
 11
313.461243
 21
52.309998
  0
LINE
  8
0
  6
CONTINUOUS
 10
314.926636
 20
119.809998
 11
306.461243
 21
119.809998
  0
LINE
  8
0
  6
CONTINUOUS
 10
314.926636
 20
1.810000
 11
306.461243
 21
1.810000
  0
LINE
  8
0
  6
CONTINUOUS
 10
388.513550
 20
113.861443
 11
318.426361
 21
115.084541
  0
LINE
  8
0
  6
CONTINUOUS
 10
388.513641
 20
7.758550
 11
318.426361
 21
6.534920
  0
LINE
  8
0
  6
CONTINUOUS
 10
389.509064
 20
90.309998
 11
321.627045
 21
90.309998
  0
LINE
  8
0
  6
CONTINUOUS
 10
389.509064
 20
31.309999
 11
319.461243
 21
31.309999
  0
ARC
  8
0
  6
CONTINUOUS
 10
388.461243
 20
110.861877
 40
3.000000
 50
0.000000
 51
89.000359
  0
ARC
  8
0
  6
CONTINUOUS
 10
388.461243
 20
10.758080
 40
3.000000
 50
-88.999687
 51
0.000000
  0
ARC
  8
0
  6
CONTINUOUS
 10
319.461243
 20
28.310020
 40
3.000000
 50
90.000000
 51
180.000000
  0
LINE
  8
0
  6
CENTER
 10
301.398743
 20
10.810000
 11
321.148743
 21
10.810000
  0
LINE
  8
0
  6
CENTER
 10
303.148743
 20
110.809998
 11
320.148743
 21
110.809998
  0
LINE
  8
0
  6
DASHED
 10
306.461243
 20
106.559998
 11
316.461243
 21
106.559998
  0
LINE
  8
0
  6
DASHED
 10
306.461243
 20
115.059998
 11
316.461243
 21
115.059998
  0
LINE
  8
0
  6
DASHED
 10
306.461243
 20
15.060000
 11
316.461243
 21
15.060000
  0
LINE
  8
0
  6
DASHED
 10
306.461243
 20
6.560000
 11
316.461243
 21
6.560000
  0
LINE
  8
0
  6
CONTINUOUS
 10
328.461243
 20
5.110000
 11
380.461243
 21
5.110000
  0
ARC
  8
0
  6
CONTINUOUS
 10
380.461243
 20
8.110000
 40
3.000000
 50
270.000000
 51
351.561859
  0
ARC
  8
0
  6
CONTINUOUS
 10
328.461243
 20
8.110000
 40
3.000000
 50
208.811234
 51
270.000000
  0
ARC
  8
0
  6
CONTINUOUS
 10
313.461243
 20
53.309994
 40
1.000000
 50
180.000000
 51
270.000000
  0
ARC
  8
0
  6
CONTINUOUS
 10
313.461243
 20
98.309990
 40
1.000000
 50
90.000000
 51
180.000000
  0
ARC
  8
0
  6
CONTINUOUS
 10
354.461243
 20
50.110001
 40
45.000000
 50
-34.692131
 51
20.419371
  0
LINE
  8
0
  6
CONTINUOUS
 10
396.461243
 20
98.309990
 11
396.461243
 21
53.309994
  0
LINE
  8
0
  6
CONTINUOUS
 10
393.461243
 20
99.309998
 11
395.461243
 21
99.309998
  0
LINE
  8
0
  6
CONTINUOUS
 10
393.461243
 20
52.309998
 11
395.461243
 21
52.309998
  0
ARC
  8
0
  6
CONTINUOUS
 10
393.461243
 20
101.309998
 40
2.000000
 50
180.000000
 51
270.000000
  0
ARC
  8
0
  6
CONTINUOUS
 10
393.461243
 20
50.310005
 40
2.000000
 50
90.000000
 51
180.000000
  0
ARC
  8
0
  6
CONTINUOUS
 10
395.461243
 20
53.309994
 40
1.000000
 50
-90.000000
 51
0.000000
  0
ARC
  8
0
  6
CONTINUOUS
 10
395.461243
 20
98.309990
 40
1.000000
 50
0.000000
 51
90.000000
  0
LINE
  8
0
  6
CONTINUOUS
 10
316.461243
 20
117.809998
 11
316.461243
 21
47.422497
  0
LINE
  8
0
  6
CONTINUOUS
 10
316.461243
 20
3.810000
 11
316.461243
 21
28.310011
  0
LINE
  8
0
  6
CONTINUOUS
 10
306.461243
 20
119.809998
 11
306.461243
 21
84.809998
  0
LINE
  8
0
  6
CONTINUOUS
 10
306.461243
 20
1.810000
 11
306.461243
 21
66.809998
  0
LINE
  8
0
  6
CENTER
 10
300.756653
 20
50.110001
 11
406.466156
 21
50.110001
  0
LINE
  8
0
  6
CONTINUOUS
 10
316.858459
 20
118.327637
 11
317.139038
 21
117.280411
  0
ARC
  8
0
  6
CONTINUOUS
 10
314.461243
 20
117.809990
 40
2.000000
 50
0.000000
 51
90.000000
  0
ARC
  8
0
  6
CONTINUOUS
 10
314.926636
 20
117.809990
 40
2.000000
 50
15.000500
 51
90.000000
  0
ARC
  8
0
  6
CONTINUOUS
 10
318.461243
 20
117.084251
 40
2.000000
 50
180.000000
 51
269.000610
  0
ARC
  8
0
  6
CONTINUOUS
 10
320.036865
 20
118.056900
 40
3.000000
 50
195.000504
 51
269.000610
  0
LINE
  8
0
  6
CONTINUOUS
 10
316.858459
 20
3.292370
 11
317.138855
 21
4.339020
  0
ARC
  8
0
  6
CONTINUOUS
 10
314.461243
 20
3.810000
 40
2.000000
 50
-90.000000
 51
0.000000
  0
ARC
  8
0
  6
CONTINUOUS
 10
314.926636
 20
3.810000
 40
2.000000
 50
270.000000
 51
345.000000
  0
ARC
  8
0
  6
CONTINUOUS
 10
318.461243
 20
4.535220
 40
2.000000
 50
91.000526
 51
180.000000
  0
ARC
  8
0
  6
CONTINUOUS
 10
320.036652
 20
3.562580
 40
3.000000
 50
91.000458
 51
165.000305
  0
LINE
  8
0
  6
CONTINUOUS
 10
280.461243
 20
66.809998
 11
280.461243
 21
84.809998
  0
LINE
  8
0
  6
CONTINUOUS
 10
310.461243
 20
84.809998
 11
280.461243
 21
84.809998
  0
LINE
  8
0
  6
CONTINUOUS
 10
310.461243
 20
66.809998
 11
280.461243
 21
66.809998
  0
LINE
  8
0
  6
CONTINUOUS
 10
310.461243
 20
85.809998
 11
310.461243
 21
65.809998
  0
LINE
  8
0
  6
CONTINUOUS
 10
312.461243
 20
85.809998
 11
310.461243
 21
85.809998
  0
LINE
  8
0
  6
CONTINUOUS
 10
312.461243
 20
65.809998
 11
310.461243
 21
65.809998
  0
ARC
  8
0
  6
CONTINUOUS
 10
304.461243
 20
75.809998
 40
3.000000
 50
-90.000000
 51
90.000000
  0
LINE
  8
0
  6
CONTINUOUS
 10
304.461243
 20
78.809998
 11
280.461243
 21
78.809998
  0
LINE
  8
0
  6
CONTINUOUS
 10
304.461243
 20
72.809998
 11
280.461243
 21
72.809998
  0
LINE
  8
0
  6
DASHED
 10
381.496155
 20
94.639801
 11
354.461243
 21
95.111687
  0
ARC
  8
0
  6
DASHED
 10
381.461243
 20
92.640099
 40
2.000000
 50
0.000000
 51
89.000191
  0
LINE
  8
0
  6
DASHED
 10
383.461243
 20
92.640106
 11
383.461243
 21
85.887085
  0
LINE
  8
0
  6
DASHED
 10
327.426361
 20
94.639801
 11
354.461243
 21
95.111687
  0
ARC
  8
0
  6
DASHED
 10
327.461243
 20
92.640099
 40
2.000000
 50
90.999809
 51
180.000000
  0
LINE
  8
0
  6
DASHED
 10
325.461243
 20
92.640106
 11
325.461243
 21
85.887085
  0
ARC
  8
0
  6
DASHED
 10
354.461243
 20
50.110001
 40
45.000000
 50
131.810318
 51
228.189682
  0
LINE
  8
0
  6
DASHED
 10
325.461243
 20
8.110000
 11
325.461243
 21
14.332912
  0
ARC
  8
0
  6
DASHED
 10
328.461243
 20
8.110000
 40
3.000000
 50
180.000000
 51
208.811234
  0
ARC
  8
0
  6
DASHED
 10
380.461243
 20
8.110000
 40
3.000000
 50
-8.438150
 51
0.000000
  0
LINE
  8
0
  6
DASHED
 10
383.461243
 20
8.110000
 11
383.461243
 21
14.332912
  0
ARC
  8
0
  6
DASHED
 10
354.461243
 20
50.110001
 40
45.000000
 50
-48.189686
 51
-34.692131
  0
ARC
  8
0
  6
DASHED
 10
386.461243
 20
85.887085
 40
3.000000
 50
180.000000
 51
228.189682
  0
ARC
  8
0
  6
DASHED
 10
322.461243
 20
85.887085
 40
3.000000
 50
-48.189686
 51
0.000000
  0
ARC
  8
0
  6
DASHED
 10
322.461243
 20
14.332912
 40
3.000000
 50
0.000000
 51
48.189686
  0
ARC
  8
0
  6
DASHED
 10
386.461243
 20
14.332912
 40
3.000000
 50
131.810318
 51
180.000000
  0
ARC
  8
0
  6
DASHED
 10
354.461243
 20
50.110001
 40
45.000000
 50
20.419371
 51
48.189686
  0
LINE
  8
0
  6
DASHED
 10
377.461243
 20
107.110298
 11
377.461243
 21
94.708527
  0
LINE
  8
0
  6
DASHED
 10
331.461243
 20
107.110298
 11
331.461243
 21
94.708527
  0
LINE
  8
0
  6
DASHED
 10
376.961243
 20
107.110298
 11
376.961243
 21
108.110298
  0
LINE
  8
0
  6
DASHED
 10
331.961243
 20
107.110298
 11
331.961243
 21
108.110298
  0
LINE
  8
0
  6
DASHED
 10
331.461243
 20
114.093697
 11
331.461243
 21
108.110298
  0
LINE
  8
0
  6
DASHED
 10
377.461243
 20
114.093697
 11
377.461243
 21
108.110298
  0
ARC
  8
0
  6
CONTINUOUS
 10
374.461243
 20
107.810204
 40
7.000000
 50
73.041977
 51
106.956497
  0
ARC
  8
0
  6
CONTINUOUS
 10
372.711243
 20
113.549500
 40
1.000000
 50
106.956902
 51
143.012054
  0
ARC
  8
0
  6
CONTINUOUS
 10
376.211243
 20
113.549500
 40
1.000000
 50
30.772787
 51
73.041847
  0
LINE
  8
0
  6
CONTINUOUS
 10
370.961243
 20
114.596748
 11
370.961243
 21
114.167747
  0
ARC
  8
0
  6
CONTINUOUS
 10
354.461243
 20
-134.389694
 40
250.000000
 50
84.826019
 51
94.598679
  0
ARC
  8
0
  6
CONTINUOUS
 10
376.961243
 20
114.093697
 40
0.500000
 50
0.000000
 51
84.826019
  0
ARC
  8
0
  6
CONTINUOUS
 10
370.461243
 20
114.596748
 40
0.500000
 50
0.000000
 51
86.323196
  0
LINE
  8
0
  6
DASHED
 10
376.961243
 20
107.110298
 11
377.461243
 21
107.110298
  0
LINE
  8
0
  6
DASHED
 10
376.961243
 20
108.110298
 11
377.461243
 21
108.110298
  0
LINE
  8
0
  6
DASHED
 10
331.961243
 20
107.110298
 11
331.461243
 21
107.110298
  0
LINE
  8
0
  6
DASHED
 10
331.961243
 20
108.110298
 11
331.461243
 21
108.110298
  0
LINE
  8
0
  6
CONTINUOUS
 10
304.461243
 20
78.809998
 11
304.461243
 21
72.809998
  0
LINE
  8
0
  6
CONTINUOUS
 10
162.946243
 20
205.149994
 11
165.961243
 21
205.149994
  0
LINE
  8
0
  6
CONTINUOUS
 10
163.461243
 20
207.149994
 11
163.461243
 21
205.149994
  0
LINE
  8
0
  6
CONTINUOUS
 10
31.461241
 20
5.110000
 11
31.461241
 21
95.110001
  0
LINE
  8
0
  6
CONTINUOUS
 10
17.461241
 20
5.845720
 11
17.461241
 21
15.700710
  0
LINE
  8
0
  6
CONTINUOUS
 10
4.461240
 20
88.136147
 11
4.461240
 21
6.799773
  0
LINE
  8
0
  6
CENTER
 10
13.961240
 20
97.048279
 11
13.961240
 21
118.310783
  0
ARC
  8
0
  6
CONTINUOUS
 10
29.961241
 20
96.110001
 40
1.000000
 50
180.000000
 51
270.000000
  0
LINE
  8
0
  6
CONTINUOUS
 10
31.461241
 20
15.700710
 11
17.461241
 21
15.700710
  0
LINE
  8
0
  6
CONTINUOUS
 10
17.461241
 20
94.610001
 11
17.461241
 21
84.610001
  0
LINE
  8
0
  6
CONTINUOUS
 10
31.461241
 20
84.519302
 11
17.461241
 21
84.519302
  0
LINE
  8
0
  6
CONTINUOUS
 10
31.461241
 20
95.110001
 11
-1.038690
 21
95.110001
  0
ARC
  8
0
  6
CONTINUOUS
 10
17.961241
 20
94.610001
 40
0.500000
 50
90.000000
 51
180.000000
  0
LINE
  8
0
  6
CONTINUOUS
 10
-1.038414
 20
107.110237
 11
-1.038711
 21
95.112740
  0
LINE
  8
0
  6
CONTINUOUS
 10
28.961241
 20
107.110298
 11
28.961241
 21
96.110001
  0
LINE
  8
0
  6
CONTINUOUS
 10
28.961241
 20
108.110298
 11
28.961241
 21
114.688599
  0
LINE
  8
0
  6
CONTINUOUS
 10
-14.926330
 20
104.060303
 11
-3.038760
 21
104.060303
  0
LINE
  8
0
  6
CONTINUOUS
 10
-1.038960
 20
108.110298
 11
-1.038960
 21
114.688599
  0
LINE
  8
0
  6
CONTINUOUS
 10
30.961241
 20
112.610298
 11
30.961241
 21
108.110298
  0
LINE
  8
0
  6
CONTINUOUS
 10
-3.038760
 20
108.110298
 11
30.961241
 21
108.110298
  0
LINE
  8
0
  6
CONTINUOUS
 10
-3.038760
 20
107.110298
 11
30.961241
 21
107.110298
  0
LINE
  8
0
  6
CONTINUOUS
 10
-3.038760
 20
112.610298
 11
-3.038760
 21
111.860298
  0
LINE
  8
0
  6
CONTINUOUS
 10
-3.038760
 20
111.860298
 11
-3.038760
 21
108.110298
  0
LINE
  8
0
  6
CONTINUOUS
 10
-14.074530
 20
111.760300
 11
-3.038760
 21
111.760300
  0
ARC
  8
0
  6
CONTINUOUS
 10
13.961240
 20
-134.389694
 40
250.000000
 50
86.668304
 51
93.331696
  0
LINE
  8
0
  6
CONTINUOUS
 10
29.461241
 20
113.610298
 11
29.961241
 21
113.610298
  0
ARC
  8
0
  6
CONTINUOUS
 10
29.961241
 20
112.610298
 40
1.000000
 50
0.000000
 51
90.000000
  0
ARC
  8
0
  6
CONTINUOUS
 10
29.461241
 20
114.110298
 40
0.500000
 50
180.000000
 51
270.000000
  0
LINE
  8
0
  6
CONTINUOUS
 10
29.461241
 20
101.610298
 11
29.961241
 21
101.610298
  0
ARC
  8
0
  6
CONTINUOUS
 10
29.961241
 20
102.610298
 40
1.000000
 50
-90.000000
 51
0.000000
  0
ARC
  8
0
  6
CONTINUOUS
 10
29.461241
 20
101.110298
 40
0.500000
 50
-270.000000
 51
-180.000000
  0
LINE
  8
0
  6
CONTINUOUS
 10
-1.538760
 20
113.610298
 11
-2.038760
 21
113.610298
  0
ARC
  8
0
  6
CONTINUOUS
 10
-2.038760
 20
112.610298
 40
1.000000
 50
90.000000
 51
180.000000
  0
ARC
  8
0
  6
CONTINUOUS
 10
-1.538760
 20
114.110298
 40
0.500000
 50
-90.000000
 51
0.000000
  0
LINE
  8
0
  6
CONTINUOUS
 10
-1.538760
 20
101.610298
 11
-2.038760
 21
101.610298
  0
ARC
  8
0
  6
CONTINUOUS
 10
-2.038760
 20
102.610298
 40
1.000000
 50
-180.000000
 51
-90.000000
  0
ARC
  8
0
  6
CONTINUOUS
 10
-1.538760
 20
101.110298
 40
0.500000
 50
0.000000
 51
90.000000
  0
LINE
  8
0
  6
CONTINUOUS
 10
30.461241
 20
108.110298
 11
30.461241
 21
107.110298
  0
LINE
  8
0
  6
CONTINUOUS
 10
30.961241
 20
107.110298
 11
30.961241
 21
102.610298
  0
ARC
  8
0
  6
CONTINUOUS
 10
28.461241
 20
114.688599
 40
0.500000
 50
0.000000
 51
86.668304
  0
LINE
  8
0
  6
CONTINUOUS
 10
-3.038760
 20
107.110298
 11
-3.038760
 21
102.610298
  0
LINE
  8
0
  6
CONTINUOUS
 10
-0.538414
 20
108.110298
 11
-0.538414
 21
107.110237
  0
LINE
  8
0
  6
CONTINUOUS
 10
22.961241
 20
112.110298
 11
28.711241
 21
112.110298
  0
LINE
  8
0
  6
CONTINUOUS
 10
22.461241
 20
112.610298
 11
22.461241
 21
114.982010
  0
LINE
  8
0
  6
CONTINUOUS
 10
23.211241
 20
112.110298
 11
23.211241
 21
113.549500
  0
LINE
  8
0
  6
CONTINUOUS
 10
28.711241
 20
112.110100
 11
28.711241
 21
113.549500
  0
LINE
  8
0
  6
CONTINUOUS
 10
23.211241
 20
112.810204
 11
28.711241
 21
112.810204
  0
ARC
  8
0
  6
CONTINUOUS
 10
25.961241
 20
107.810204
 40
7.000000
 50
73.043503
 51
106.958000
  0
ARC
  8
0
  6
CONTINUOUS
 10
27.711241
 20
113.549500
 40
1.000000
 50
0.000000
 51
73.043098
  0
ARC
  8
0
  6
CONTINUOUS
 10
24.211241
 20
113.549500
 40
1.000000
 50
106.958199
 51
180.000000
  0
ARC
  8
0
  6
CONTINUOUS
 10
22.961241
 20
112.610298
 40
0.500000
 50
180.000000
 51
270.000000
  0
ARC
  8
0
  6
CONTINUOUS
 10
28.461241
 20
111.610298
 40
0.500000
 50
0.000000
 51
90.000000
  0
ARC
  8
0
  6
CONTINUOUS
 10
21.961241
 20
114.982010
 40
0.500000
 50
0.000000
 51
88.162544
  0
ARC
  8
0
  6
CONTINUOUS
 10
-0.538760
 20
114.688599
 40
0.500000
 50
93.331696
 51
180.000000
  0
LINE
  8
0
  6
CONTINUOUS
 10
4.961240
 20
112.110298
 11
-0.788760
 21
112.110298
  0
LINE
  8
0
  6
CONTINUOUS
 10
5.461240
 20
112.610298
 11
5.461240
 21
114.982010
  0
LINE
  8
0
  6
CONTINUOUS
 10
4.711240
 20
112.110298
 11
4.711240
 21
113.549500
  0
LINE
  8
0
  6
CONTINUOUS
 10
-0.788760
 20
112.110100
 11
-0.788760
 21
113.549500
  0
LINE
  8
0
  6
CONTINUOUS
 10
4.711240
 20
112.810204
 11
-0.788760
 21
112.810204
  0
ARC
  8
0
  6
CONTINUOUS
 10
1.961240
 20
107.810204
 40
7.000000
 50
73.042000
 51
106.956497
  0
ARC
  8
0
  6
CONTINUOUS
 10
0.211240
 20
113.549500
 40
1.000000
 50
106.956902
 51
180.000000
  0
ARC
  8
0
  6
CONTINUOUS
 10
3.711240
 20
113.549500
 40
1.000000
 50
0.000000
 51
73.041801
  0
ARC
  8
0
  6
CONTINUOUS
 10
4.961240
 20
112.610298
 40
0.500000
 50
-90.000000
 51
0.000000
  0
ARC
  8
0
  6
CONTINUOUS
 10
-0.538760
 20
111.610298
 40
0.500000
 50
90.000000
 51
180.000000
  0
ARC
  8
0
  6
CONTINUOUS
 10
5.961240
 20
114.982010
 40
0.500000
 50
91.837456
 51
180.000000
  0
LINE
  8
0
  6
CONTINUOUS
 10
-1.038690
 20
91.202637
 11
-1.038690
 21
95.110001
  0
LINE
  8
0
  6
CONTINUOUS
 10
6.429223
 20
5.507619
 11
31.461241
 21
5.110000
  0
ARC
  8
0
  6
CONTINUOUS
 10
17.961241
 20
5.845720
 40
0.500000
 50
180.000000
 51
269.000000
  0
LINE
  8
0
  6
CONTINUOUS
 10
5.204255
 20
5.833358
 11
6.460988
 21
5.499173
  0
ARC
  8
0
  6
CONTINUOUS
 10
5.461240
 20
6.799773
 40
1.000000
 50
180.000000
 51
255.108749
  0
LINE
  8
0
  6
CONTINUOUS
 10
6.460988
 20
14.609590
 11
17.461241
 21
14.609590
  0
LINE
  8
0
  6
CONTINUOUS
 10
5.204255
 20
14.943775
 11
6.460988
 21
14.609590
  0
ARC
  8
0
  6
CONTINUOUS
 10
5.461240
 20
15.910191
 40
1.000000
 50
180.000000
 51
255.108749
  0
LINE
  8
0
  6
CONTINUOUS
 10
6.460988
 20
85.610413
 11
17.461241
 21
85.610413
  0
LINE
  8
0
  6
CONTINUOUS
 10
5.204255
 20
85.276222
 11
6.460988
 21
85.610413
  0
ARC
  8
0
  6
CONTINUOUS
 10
5.461240
 20
84.309807
 40
1.000000
 50
-255.108749
 51
-180.000000
  0
LINE
  8
0
  6
CONTINUOUS
 10
0.908956
 20
89.203323
 11
3.487417
 21
89.135803
  0
ARC
  8
0
  6
CONTINUOUS
 10
3.461240
 20
88.136147
 40
1.000000
 50
0.000000
 51
88.500000
  0
ARC
  8
0
  6
CONTINUOUS
 10
0.961310
 20
91.202637
 40
2.000000
 50
180.000000
 51
268.500000
  0
LINE
  8
0
  6
CONTINUOUS
 10
-14.074530
 20
111.760300
 11
-14.810330
 21
108.925201
  0
LINE
  8
0
  6
CONTINUOUS
 10
-14.810330
 20
108.925201
 11
-13.998230
 21
106.450203
  0
LINE
  8
0
  6
CONTINUOUS
 10
-13.998230
 20
106.450203
 11
-14.926330
 21
104.060303
  0
LINE
  8
0
  6
CONTINUOUS
 10
16.461241
 20
86.610397
 11
16.461241
 21
93.610397
  0
LINE
  8
0
  6
CONTINUOUS
 10
17.461241
 20
86.610397
 11
15.482230
 21
86.610397
  0
LINE
  8
0
  6
CONTINUOUS
 10
17.461241
 20
93.610397
 11
15.482230
 21
93.610397
  0
ARC
  8
0
  6
CONTINUOUS
 10
22.861271
 20
90.110397
 40
8.999999
 50
163.398987
 51
196.601517
  0
ARC
  8
0
  6
CONTINUOUS
 10
15.482230
 20
87.910416
 40
1.300000
 50
196.601578
 51
270.000000
  0
ARC
  8
0
  6
CONTINUOUS
 10
15.482230
 20
92.310410
 40
1.300000
 50
90.000000
 51
163.399094
  0
LINE
  8
0
  6
CONTINUOUS
 10
16.461241
 20
6.609590
 11
16.461241
 21
13.609590
  0
LINE
  8
0
  6
CONTINUOUS
 10
17.461241
 20
6.609590
 11
15.482230
 21
6.609590
  0
LINE
  8
0
  6
CONTINUOUS
 10
17.461241
 20
13.609590
 11
15.482230
 21
13.609590
  0
ARC
  8
0
  6
CONTINUOUS
 10
22.861271
 20
10.109590
 40
8.999999
 50
163.398987
 51
196.601517
  0
ARC
  8
0
  6
CONTINUOUS
 10
15.482230
 20
7.909608
 40
1.300000
 50
196.601578
 51
270.000000
  0
ARC
  8
0
  6
CONTINUOUS
 10
15.482230
 20
12.309602
 40
1.300000
 50
90.000000
 51
163.399094
  0
LINE
  8
0
  6
CONTINUOUS
 10
3.661240
 20
88.359894
 11
3.661240
 21
6.960104
  0
LINE
  8
0
  6
CONTINUOUS
 10
3.990230
 20
6.490257
 11
4.476725
 21
6.313188
  0
ARC
  8
0
  6
CONTINUOUS
 10
4.305715
 20
5.843342
 40
0.500000
 50
39.614651
 51
70.000000
  0
ARC
  8
0
  6
CONTINUOUS
 10
4.161240
 20
6.960104
 40
0.500000
 50
180.000000
 51
250.000000
  0
LINE
  8
0
  6
CONTINUOUS
 10
3.990230
 20
88.829742
 11
4.129213
 21
88.880325
  0
ARC
  8
0
  6
CONTINUOUS
 10
4.161240
 20
88.359894
 40
0.500000
 50
110.000000
 51
180.000000
  0
LINE
  8
0
  6
CONTINUOUS
 10
30.961250
 20
260.033691
 11
30.961250
 21
250.266296
  0
LINE
  8
0
  6
CONTINUOUS
 10
31.461250
 20
210.149994
 11
31.461250
 21
300.149994
  0
LINE
  8
0
  6
CONTINUOUS
 10
4.461250
 20
298.419708
 11
4.461250
 21
278.149994
  0
LINE
  8
0
  6
CONTINUOUS
 10
4.461250
 20
211.880295
 11
4.461250
 21
232.149994
  0
LINE
  8
0
  6
CONTINUOUS
 10
31.461250
 20
284.149994
 11
17.948151
 21
283.796112
  0
LINE
  8
0
  6
CONTINUOUS
 10
17.948151
 20
226.503906
 11
31.461250
 21
226.149994
  0
LINE
  8
0
  6
CONTINUOUS
 10
-3.038750
 20
260.033691
 11
-3.038750
 21
250.266296
  0
LINE
  8
0
  6
CONTINUOUS
 10
17.461250
 20
227.003799
 11
17.461250
 21
232.149994
  0
ARC
  8
0
  6
CONTINUOUS
 10
17.961250
 20
227.003799
 40
0.500000
 50
180.000000
 51
268.496399
  0
LINE
  8
0
  6
CONTINUOUS
 10
17.461250
 20
283.296204
 11
17.461250
 21
278.149994
  0
ARC
  8
0
  6
CONTINUOUS
 10
17.961250
 20
283.296204
 40
0.500000
 50
-268.496399
 51
-180.000000
  0
LINE
  8
0
  6
CONTINUOUS
 10
17.461250
 20
227.500000
 11
4.461250
 21
227.840500
  0
LINE
  8
0
  6
CONTINUOUS
 10
17.461250
 20
282.799988
 11
4.461250
 21
282.459503
  0
ARC
  8
0
  6
CONTINUOUS
 10
26.961250
 20
234.167496
 40
2.000000
 50
-90.500061
 51
0.000000
  0
LINE
  8
0
  6
CONTINUOUS
 10
6.426038
 20
210.587036
 11
31.461250
 21
210.149994
  0
LINE
  8
0
  6
CONTINUOUS
 10
5.202850
 20
210.914200
 11
6.426038
 21
210.587036
  0
ARC
  8
0
  6
CONTINUOUS
 10
5.461250
 20
211.880295
 40
1.000000
 50
180.000000
 51
255.023895
  0
LINE
  8
0
  6
CONTINUOUS
 10
6.426049
 20
299.712952
 11
31.461250
 21
300.149994
  0
LINE
  8
0
  6
CONTINUOUS
 10
5.202850
 20
299.385712
 11
6.426049
 21
299.712952
  0
ARC
  8
0
  6
CONTINUOUS
 10
5.461250
 20
298.419708
 40
1.000000
 50
-255.023895
 51
-180.000000
  0
LINE
  8
0
  6
CONTINUOUS
 10
3.661250
 20
232.149994
 11
3.661250
 21
217.261261
  0
LINE
  8
0
  6
CONTINUOUS
 10
3.990240
 20
216.791412
 11
4.132260
 21
216.739716
  0
ARC
  8
0
  6
CONTINUOUS
 10
3.961250
 20
216.269882
 40
0.500000
 50
0.000000
 51
70.000000
  0
ARC
  8
0
  6
CONTINUOUS
 10
4.161250
 20
217.261261
 40
0.500000
 50
180.000000
 51
250.000000
  0
LINE
  8
0
  6
CONTINUOUS
 10
3.990240
 20
293.508575
 11
4.132260
 21
293.560272
  0
ARC
  8
0
  6
CONTINUOUS
 10
3.961250
 20
294.030121
 40
0.500000
 50
-70.000000
 51
0.000000
  0
ARC
  8
0
  6
CONTINUOUS
 10
4.161250
 20
293.038727
 40
0.500000
 50
-250.000000
 51
-180.000000
  0
LINE
  8
0
  6
CONTINUOUS
 10
3.661250
 20
293.038727
 11
3.661250
 21
278.149994
  0
LINE
  8
0
  6
CONTINUOUS
 10
-1.038850
 20
234.149994
 11
-1.038850
 21
276.149994
  0
LINE
  8
0
  6
CENTER
 10
13.961250
 20
286.959991
 11
13.961250
 21
223.425003
  0
LINE
  8
0
  6
CONTINUOUS
 10
28.961250
 20
276.149994
 11
28.961250
 21
234.149994
  0
LINE
  8
0
  6
CONTINUOUS
 10
30.961250
 20
260.149994
 11
30.961250
 21
250.149994
  0
LINE
  8
0
  6
CONTINUOUS
 10
-3.038750
 20
260.149994
 11
-3.038750
 21
250.149994
  0
ARC
  8
0
  6
CONTINUOUS
 10
1.961250
 20
235.149994
 40
3.500000
 50
0.000000
 51
90.000000
  0
LINE
  8
0
  6
CONTINUOUS
 10
-0.038850
 20
238.649994
 11
1.961250
 21
238.649994
  0
LINE
  8
0
  6
CONTINUOUS
 10
5.461250
 20
233.149994
 11
5.461250
 21
235.149994
  0
ARC
  8
0
  6
CONTINUOUS
 10
-0.038850
 20
239.649994
 40
1.000000
 50
180.000000
 51
270.000000
  0
ARC
  8
0
  6
CONTINUOUS
 10
25.961250
 20
235.149994
 40
3.500000
 50
90.000000
 51
180.000000
  0
LINE
  8
0
  6
CONTINUOUS
 10
22.461250
 20
233.149994
 11
22.461250
 21
235.149994
  0
LINE
  8
0
  6
CONTINUOUS
 10
27.961349
 20
238.649994
 11
25.961250
 21
238.649994
  0
ARC
  8
0
  6
CONTINUOUS
 10
27.961349
 20
239.649994
 40
1.000000
 50
-90.000000
 51
0.000000
  0
LINE
  8
0
  6
CONTINUOUS
 10
26.961250
 20
232.149994
 11
0.961150
 21
232.149994
  0
ARC
  8
0
  6
CONTINUOUS
 10
21.461250
 20
233.149994
 40
1.000000
 50
-90.000000
 51
0.000000
  0
ARC
  8
0
  6
CONTINUOUS
 10
6.461250
 20
233.149994
 40
1.000000
 50
180.000000
 51
270.000000
  0
ARC
  8
0
  6
CONTINUOUS
 10
0.961150
 20
234.149994
 40
2.000000
 50
180.000000
 51
270.000000
  0
ARC
  8
0
  6
CONTINUOUS
 10
26.961250
 20
234.149994
 40
2.000000
 50
-90.000000
 51
0.000000
  0
ARC
  8
0
  6
CONTINUOUS
 10
1.961250
 20
275.149994
 40
3.500000
 50
-90.000000
 51
0.000000
  0
LINE
  8
0
  6
CONTINUOUS
 10
-0.038850
 20
271.649994
 11
1.961250
 21
271.649994
  0
LINE
  8
0
  6
CONTINUOUS
 10
5.461250
 20
277.149994
 11
5.461250
 21
275.149994
  0
ARC
  8
0
  6
CONTINUOUS
 10
-0.038850
 20
270.649994
 40
1.000000
 50
-270.000000
 51
-180.000000
  0
ARC
  8
0
  6
CONTINUOUS
 10
25.961250
 20
275.149994
 40
3.500000
 50
-180.000000
 51
-90.000000
  0
LINE
  8
0
  6
CONTINUOUS
 10
22.461250
 20
277.149994
 11
22.461250
 21
275.149994
  0
LINE
  8
0
  6
CONTINUOUS
 10
27.961349
 20
271.649994
 11
25.961250
 21
271.649994
  0
ARC
  8
0
  6
CONTINUOUS
 10
27.961349
 20
270.649994
 40
1.000000
 50
0.000000
 51
90.000000
  0
LINE
  8
0
  6
CONTINUOUS
 10
26.961250
 20
278.149994
 11
0.961150
 21
278.149994
  0
ARC
  8
0
  6
CONTINUOUS
 10
21.461250
 20
277.149994
 40
1.000000
 50
0.000000
 51
90.000000
  0
ARC
  8
0
  6
CONTINUOUS
 10
6.461250
 20
277.149994
 40
1.000000
 50
-270.000000
 51
-180.000000
  0
ARC
  8
0
  6
CONTINUOUS
 10
0.961150
 20
276.149994
 40
2.000000
 50
-270.000000
 51
-180.000000
  0
ARC
  8
0
  6
CONTINUOUS
 10
26.961250
 20
276.149994
 40
2.000000
 50
0.000000
 51
90.000000
  0
LINE
  8
0
  6
CONTINUOUS
 10
-1.538750
 20
261.149994
 11
-2.038750
 21
261.149994
  0
ARC
  8
0
  6
CONTINUOUS
 10
-2.038750
 20
260.149994
 40
1.000000
 50
90.000000
 51
180.000000
  0
ARC
  8
0
  6
CONTINUOUS
 10
-1.538750
 20
261.649994
 40
0.500000
 50
-90.000000
 51
0.000000
  0
LINE
  8
0
  6
CONTINUOUS
 10
-1.538750
 20
249.149994
 11
-2.038750
 21
249.149994
  0
ARC
  8
0
  6
CONTINUOUS
 10
-2.038750
 20
250.149994
 40
1.000000
 50
-180.000000
 51
-90.000000
  0
ARC
  8
0
  6
CONTINUOUS
 10
-1.538750
 20
248.649994
 40
0.500000
 50
0.000000
 51
90.000000
  0
LINE
  8
0
  6
CONTINUOUS
 10
29.461250
 20
261.149994
 11
29.961250
 21
261.149994
  0
ARC
  8
0
  6
CONTINUOUS
 10
29.961250
 20
260.149994
 40
1.000000
 50
0.000000
 51
90.000000
  0
ARC
  8
0
  6
CONTINUOUS
 10
29.461250
 20
261.649994
 40
0.500000
 50
180.000000
 51
270.000000
  0
LINE
  8
0
  6
CONTINUOUS
 10
29.461250
 20
249.149994
 11
29.961250
 21
249.149994
  0
ARC
  8
0
  6
CONTINUOUS
 10
29.961250
 20
250.149994
 40
1.000000
 50
-90.000000
 51
0.000000
  0
ARC
  8
0
  6
CONTINUOUS
 10
29.461250
 20
248.649994
 40
0.500000
 50
90.000000
 51
180.000000
  0
LINE
  8
0
  6
CONTINUOUS
 10
3.711250
 20
235.549988
 11
3.711250
 21
234.749969
  0
LINE
  8
0
  6
CONTINUOUS
 10
1.561226
 20
236.899994
 11
2.361244
 21
236.899994
  0
LINE
  8
0
  6
CONTINUOUS
 10
1.561226
 20
233.399994
 11
2.361244
 21
233.399994
  0
LINE
  8
0
  6
CONTINUOUS
 10
0.211250
 20
235.549988
 11
0.211250
 21
234.749969
  0
CIRCLE
  8
0
  6
CONTINUOUS
 10
1.961250
 20
235.149994
 40
2.750000
  0
ARC
  8
0
  6
CONTINUOUS
 10
0.211250
 20
236.899994
 40
1.350000
 50
-90.000000
 51
0.000000
  0
ARC
  8
0
  6
CONTINUOUS
 10
0.211250
 20
233.399994
 40
1.350000
 50
0.000000
 51
90.000000
  0
ARC
  8
0
  6
CONTINUOUS
 10
3.711250
 20
236.899994
 40
1.350000
 50
180.000000
 51
270.000000
  0
ARC
  8
0
  6
CONTINUOUS
 10
3.711250
 20
233.399994
 40
1.350000
 50
90.000000
 51
180.000000
  0
LINE
  8
0
  6
CONTINUOUS
 10
27.711250
 20
235.549988
 11
27.711250
 21
234.749969
  0
LINE
  8
0
  6
CONTINUOUS
 10
25.561226
 20
236.899994
 11
26.361244
 21
236.899994
  0
LINE
  8
0
  6
CONTINUOUS
 10
25.561226
 20
233.399994
 11
26.361244
 21
233.399994
  0
LINE
  8
0
  6
CONTINUOUS
 10
24.211250
 20
235.549988
 11
24.211250
 21
234.749969
  0
CIRCLE
  8
0
  6
CONTINUOUS
 10
25.961250
 20
235.149994
 40
2.750000
  0
ARC
  8
0
  6
CONTINUOUS
 10
24.211250
 20
236.899994
 40
1.350000
 50
-90.000000
 51
0.000000
  0
ARC
  8
0
  6
CONTINUOUS
 10
24.211250
 20
233.399994
 40
1.350000
 50
0.000000
 51
90.000000
  0
ARC
  8
0
  6
CONTINUOUS
 10
27.711250
 20
236.899994
 40
1.350000
 50
180.000000
 51
270.000000
  0
ARC
  8
0
  6
CONTINUOUS
 10
27.711250
 20
233.399994
 40
1.350000
 50
90.000000
 51
180.000000
  0
LINE
  8
0
  6
CONTINUOUS
 10
27.711250
 20
275.549988
 11
27.711250
 21
274.749969
  0
LINE
  8
0
  6
CONTINUOUS
 10
25.561226
 20
276.899994
 11
26.361244
 21
276.899994
  0
LINE
  8
0
  6
CONTINUOUS
 10
25.561226
 20
273.399994
 11
26.361244
 21
273.399994
  0
LINE
  8
0
  6
CONTINUOUS
 10
24.211250
 20
275.549988
 11
24.211250
 21
274.749969
  0
CIRCLE
  8
0
  6
CONTINUOUS
 10
25.961250
 20
275.149994
 40
2.750000
  0
ARC
  8
0
  6
CONTINUOUS
 10
24.211250
 20
276.899994
 40
1.350000
 50
-90.000000
 51
0.000000
  0
ARC
  8
0
  6
CONTINUOUS
 10
24.211250
 20
273.399994
 40
1.350000
 50
0.000000
 51
90.000000
  0
ARC
  8
0
  6
CONTINUOUS
 10
27.711250
 20
276.899994
 40
1.350000
 50
180.000000
 51
270.000000
  0
ARC
  8
0
  6
CONTINUOUS
 10
27.711250
 20
273.399994
 40
1.350000
 50
90.000000
 51
180.000000
  0
LINE
  8
0
  6
CONTINUOUS
 10
3.711250
 20
275.549988
 11
3.711250
 21
274.749969
  0
LINE
  8
0
  6
CONTINUOUS
 10
1.561226
 20
276.899994
 11
2.361244
 21
276.899994
  0
LINE
  8
0
  6
CONTINUOUS
 10
1.561226
 20
273.399994
 11
2.361244
 21
273.399994
  0
LINE
  8
0
  6
CONTINUOUS
 10
0.211250
 20
275.549988
 11
0.211250
 21
274.749969
  0
CIRCLE
  8
0
  6
CONTINUOUS
 10
1.961250
 20
275.149994
 40
2.750000
  0
ARC
  8
0
  6
CONTINUOUS
 10
0.211250
 20
276.899994
 40
1.350000
 50
-90.000000
 51
0.000000
  0
ARC
  8
0
  6
CONTINUOUS
 10
0.211250
 20
273.399994
 40
1.350000
 50
0.000000
 51
90.000000
  0
ARC
  8
0
  6
CONTINUOUS
 10
3.711250
 20
276.899994
 40
1.350000
 50
180.000000
 51
270.000000
  0
ARC
  8
0
  6
CONTINUOUS
 10
3.711250
 20
273.399994
 40
1.350000
 50
90.000000
 51
180.000000
  0
LINE
  8
0
  6
CONTINUOUS
 10
-18.187429
 20
251.300003
 11
-3.038630
 21
251.300003
  0
LINE
  8
0
  6
CONTINUOUS
 10
-17.335630
 20
259.000000
 11
-18.071430
 21
256.164886
  0
LINE
  8
0
  6
CONTINUOUS
 10
-18.071430
 20
256.164886
 11
-17.259331
 21
253.689896
  0
LINE
  8
0
  6
CONTINUOUS
 10
-17.259331
 20
253.689896
 11
-18.187429
 21
251.300003
  0
LINE
  8
0
  6
CONTINUOUS
 10
-17.335630
 20
259.000000
 11
-3.038630
 21
259.000000
  0
LINE
  8
0
  6
CONTINUOUS
 10
16.461250
 20
278.149994
 11
16.461250
 21
282.649994
  0
LINE
  8
0
  6
CONTINUOUS
 10
17.461250
 20
282.649994
 11
15.482240
 21
282.649994
  0
ARC
  8
0
  6
CONTINUOUS
 10
22.861280
 20
279.149994
 40
8.999999
 50
163.398987
 51
186.379364
  0
ARC
  8
0
  6
CONTINUOUS
 10
15.482240
 20
281.350006
 40
1.300000
 50
90.000000
 51
163.399094
  0
LINE
  8
0
  6
CONTINUOUS
 10
16.461250
 20
232.149994
 11
16.461250
 21
227.649994
  0
LINE
  8
0
  6
CONTINUOUS
 10
17.461250
 20
227.649994
 11
15.482240
 21
227.649994
  0
ARC
  8
0
  6
CONTINUOUS
 10
22.861280
 20
231.149994
 40
8.999999
 50
-186.379364
 51
-163.398987
  0
ARC
  8
0
  6
CONTINUOUS
 10
15.482240
 20
228.949982
 40
1.300000
 50
-163.399094
 51
-90.000000
  0
LINE
  8
0
  6
CONTINUOUS
 10
306.461243
 20
103.526123
 11
313.898743
 21
102.547501
  0
LINE
  8
0
  6
CONTINUOUS
 10
313.898743
 20
102.547501
 11
318.898743
 21
99.297501
  0
LINE
  8
0
  6
CONTINUOUS
 10
318.898743
 20
99.297501
 11
319.648743
 21
94.860001
  0
LINE
  8
0
  6
CONTINUOUS
 10
319.648743
 20
94.860001
 11
321.812836
 21
89.882500
  0
LINE
  8
0
  6
CONTINUOUS
 10
321.812836
 20
89.882500
 11
323.273743
 21
88.922501
  0
LINE
  8
0
  6
CONTINUOUS
 10
323.273743
 20
88.922501
 11
322.773743
 21
82.922501
  0
LINE
  8
0
  6
CONTINUOUS
 10
322.773743
 20
82.922501
 11
320.773743
 21
79.422501
  0
LINE
  8
0
  6
CONTINUOUS
 10
320.773743
 20
79.422501
 11
322.648743
 21
73.922501
  0
LINE
  8
0
  6
CONTINUOUS
 10
322.648743
 20
73.922501
 11
322.023743
 21
68.172501
  0
LINE
  8
0
  6
CONTINUOUS
 10
321.398743
 20
61.922501
 11
322.523743
 21
57.297501
  0
LINE
  8
0
  6
CONTINUOUS
 10
322.023743
 20
68.172501
 11
321.398743
 21
61.922501
  0
LINE
  8
0
  6
CONTINUOUS
 10
322.523743
 20
57.297501
 11
321.398743
 21
53.047501
  0
LINE
  8
0
  6
CONTINUOUS
 10
321.398743
 20
53.047501
 11
318.148743
 21
48.172501
  0
LINE
  8
0
  6
CONTINUOUS
 10
318.148743
 20
48.172501
 11
313.648743
 21
46.172501
  0
LINE
  8
0
  6
CONTINUOUS
 10
313.648743
 20
46.172501
 11
309.398743
 21
43.547501
  0
LINE
  8
0
  6
CONTINUOUS
 10
309.398743
 20
43.547501
 11
306.461243
 21
43.150539
  0
ARC
  8
0
  6
DASHED
 10
331.961243
 20
114.093697
 40
0.500000
 50
95.173981
 51
180.000000
  0
ARC
  8
0
  6
CONTINUOUS
 10
338.461243
 20
114.596748
 40
0.500000
 50
93.676804
 51
162.961609
  0
ARC
  8
0
  6
DASHED
 10
354.461243
 20
-134.389694
 40
250.000000
 50
94.598679
 51
95.173981
  0
TEXT
  8
0
 10
-26.000000
 20
-7.000000
 40
4.000000
 41
1.000000
  1
HFW-18R-10~240-T60
 50
0.000000
  0
ENDSEC
  0
EOF
