  0
SECTION
  2
HEADER
  9
$CLAYER
  8
1
  9
$LTSCALE
 40
3.0
  0
ENDSEC
  0
SECTION
  2
TABLES
  0
TABLE
  2
LTYPE
 70
     4
  0
LTYPE
  2
CONTINUOUS
  3
solid line
 70
    64
 72
    65
 73
     0
 40
0.0
  0
LTYPE
  2
DASHED
  3
__ __ __ __ __ __ __ __ __ __ __ __ __ __ __
 70
    64
 72
    65
 73
     2
 40
0.75
 49
0.5
 49
-0.25
  0
LTYPE
  2
CENTER
  3
____ _ ____ _ ____ _ ____ _ ____ _ ____ _ ____
 70
    64
 72
    65
 73
     4
 40
2.0
 49
1.25
 49
-0.25
 49
0.25
 49
-0.25
  0
LTYPE
  2
PHANTOM
  3
_____ _ _ _____ _ _ _____ _ _ _____ _ _ ____
 70
    64
 72
    65
 73
     6
 40
2.5
 49
1.25
 49
-0.25
 49
0.25
 49
-0.25
 49
0.25
 49
-0.25
  0
ENDTAB
  0
TABLE
  2
LAYER
 70
     1
  0
LAYER
  2
0
 70
    64
 62
     7
  6
CONTINUOUS
  0
ENDTAB
  0
TABLE
  2
STYLE
 70
     1
  0
STYLE
  2
STANDARD
 70
     0
 40
0.000000
 41
1.000000
 50
0.000000
 71
     0
 42
3.000000
  3
txt
  4
BIGFONT
  0
ENDTAB
  0
ENDSEC
  0
SECTION
  2
BLOCKS
  0
ENDSEC
  0
SECTION
  2
ENTITIES
  0
LINE
  8
0
  6
CENTER
 10
-5.368125
 20
53.639999
 11
128.524200
 21
53.639999
  0
LINE
  8
0
  6
CONTINUOUS
 10
207.137497
 20
34.840000
 11
207.137497
 21
93.839996
  0
LINE
  8
0
  6
CONTINUOUS
 10
33.637501
 20
98.639999
 11
106.483261
 21
98.639999
  0
LINE
  8
0
  6
CONTINUOUS
 10
104.137497
 20
8.640000
 11
33.637501
 21
8.640000
  0
LINE
  8
0
  6
CENTER
 10
121.687202
 20
79.339996
 11
186.099396
 21
79.339996
  0
LINE
  8
0
  6
CENTER
 10
156.637497
 20
131.889999
 11
156.637497
 21
-4.100300
  0
LINE
  8
0
  6
CONTINUOUS
 10
116.637497
 20
123.339996
 11
196.637497
 21
123.339996
  0
LINE
  8
0
  6
CONTINUOUS
 10
116.637497
 20
5.340000
 11
196.637497
 21
5.340000
  0
LINE
  8
0
  6
CENTER
 10
189.637497
 20
114.339996
 11
203.512497
 21
114.339996
  0
LINE
  8
0
  6
CENTER
 10
196.637497
 20
107.639999
 11
196.637497
 21
121.406876
  0
CIRCLE
  8
0
  6
CONTINUOUS
 10
196.637497
 20
114.339996
 40
4.250000
  0
LINE
  8
0
  6
CENTER
 10
189.637497
 20
14.340000
 11
203.512497
 21
14.340000
  0
LINE
  8
0
  6
CENTER
 10
196.637497
 20
21.040001
 11
196.637497
 21
7.540000
  0
CIRCLE
  8
0
  6
CONTINUOUS
 10
196.637497
 20
14.340000
 40
4.250000
  0
LINE
  8
0
  6
CENTER
 10
123.637497
 20
114.339996
 11
109.762497
 21
114.339996
  0
LINE
  8
0
  6
CENTER
 10
116.637497
 20
107.639999
 11
116.637497
 21
121.139999
  0
CIRCLE
  8
0
  6
CONTINUOUS
 10
116.637497
 20
114.339996
 40
4.250000
  0
LINE
  8
0
  6
CENTER
 10
123.637497
 20
14.340000
 11
109.762497
 21
14.340000
  0
LINE
  8
0
  6
CENTER
 10
116.637497
 20
21.040001
 11
116.637497
 21
7.540000
  0
CIRCLE
  8
0
  6
CONTINUOUS
 10
116.637497
 20
14.340000
 40
4.250000
  0
LINE
  8
0
  6
CONTINUOUS
 10
205.614197
 20
114.986633
 11
207.137497
 21
93.839996
  0
LINE
  8
0
  6
CONTINUOUS
 10
205.614197
 20
13.693440
 11
207.137497
 21
34.840000
  0
LINE
  8
0
  6
CONTINUOUS
 10
130.637497
 20
119.339996
 11
182.637497
 21
119.339996
  0
LINE
  8
0
  6
CONTINUOUS
 10
182.637497
 20
9.340000
 11
130.637497
 21
9.340000
  0
LINE
  8
0
  6
CONTINUOUS
 10
108.637497
 20
80.032188
 11
108.637497
 21
48.647480
  0
ARC
  8
0
  6
CONTINUOUS
 10
156.637497
 20
64.339996
 40
50.500000
 50
18.103800
 51
161.896194
  0
ARC
  8
0
  6
CONTINUOUS
 10
156.637497
 20
64.339996
 40
50.500000
 50
198.103806
 51
341.896210
  0
LINE
  8
0
  6
CONTINUOUS
 10
204.637497
 20
80.032356
 11
204.637497
 21
48.647964
  0
ARC
  8
0
  6
CONTINUOUS
 10
182.637497
 20
114.339996
 40
5.000000
 50
0.000000
 51
90.000000
  0
ARC
  8
0
  6
CONTINUOUS
 10
197.643402
 20
100.376183
 40
5.000000
 50
4.120544
 51
94.120201
  0
ARC
  8
0
  6
CONTINUOUS
 10
196.637497
 20
114.339996
 40
9.000000
 50
180.000000
 51
274.120697
  0
ARC
  8
0
  6
CONTINUOUS
 10
196.637497
 20
114.339996
 40
9.000000
 50
4.120065
 51
90.000000
  0
ARC
  8
0
  6
CONTINUOUS
 10
182.637497
 20
14.340000
 40
5.000000
 50
-90.000000
 51
0.000000
  0
ARC
  8
0
  6
CONTINUOUS
 10
197.643402
 20
28.303820
 40
5.000000
 50
265.879791
 51
355.879486
  0
ARC
  8
0
  6
CONTINUOUS
 10
196.637497
 20
14.340000
 40
9.000000
 50
270.000000
 51
355.879913
  0
ARC
  8
0
  6
CONTINUOUS
 10
196.637497
 20
14.340000
 40
9.000000
 50
85.879837
 51
180.000000
  0
LINE
  8
0
  6
CONTINUOUS
 10
202.630402
 20
100.735458
 11
204.637497
 21
80.032356
  0
LINE
  8
0
  6
CONTINUOUS
 10
202.630402
 20
27.944580
 11
204.637604
 21
48.647964
  0
ARC
  8
0
  6
CONTINUOUS
 10
130.637497
 20
114.339996
 40
5.000000
 50
90.000000
 51
180.000000
  0
ARC
  8
0
  6
CONTINUOUS
 10
116.637497
 20
114.339996
 40
9.000000
 50
-94.120667
 51
0.000000
  0
ARC
  8
0
  6
CONTINUOUS
 10
115.631599
 20
100.376183
 40
5.000000
 50
85.879799
 51
175.879501
  0
LINE
  8
0
  6
CONTINUOUS
 10
110.644600
 20
100.735458
 11
108.637497
 21
80.032356
  0
ARC
  8
0
  6
CONTINUOUS
 10
115.631599
 20
28.303820
 40
5.000000
 50
-175.879501
 51
-85.879791
  0
ARC
  8
0
  6
CONTINUOUS
 10
116.637497
 20
14.340000
 40
9.000000
 50
0.000000
 51
94.120163
  0
ARC
  8
0
  6
CONTINUOUS
 10
130.637497
 20
14.340000
 40
5.000000
 50
180.000000
 51
270.000000
  0
LINE
  8
0
  6
CONTINUOUS
 10
110.644600
 20
27.944580
 11
108.637398
 21
48.647964
  0
ARC
  8
0
  6
CONTINUOUS
 10
116.637497
 20
114.339996
 40
9.000000
 50
90.000000
 51
175.879898
  0
LINE
  8
0
  6
CONTINUOUS
 10
107.660698
 20
114.986633
 11
106.137497
 21
93.839996
  0
LINE
  8
0
  6
CONTINUOUS
 10
107.660698
 20
13.693440
 11
106.137497
 21
34.840000
  0
ARC
  8
0
  6
CONTINUOUS
 10
116.637497
 20
14.340000
 40
9.000000
 50
-175.879898
 51
-90.000000
  0
ARC
  8
0
  6
CONTINUOUS
 10
111.137497
 20
18.640030
 40
5.000000
 50
143.994797
 51
180.000000
  0
ARC
  8
0
  6
CONTINUOUS
 10
104.137497
 20
10.640000
 40
2.000000
 50
-90.000000
 51
0.000000
  0
LINE
  8
0
  6
CONTINUOUS
 10
106.137497
 20
10.640000
 11
106.137497
 21
18.640030
  0
LINE
  8
0
  6
CONTINUOUS
 10
106.137497
 20
93.839996
 11
106.137497
 21
34.839989
  0
LINE
  8
0
  6
CONTINUOUS
 10
33.637501
 20
88.049301
 11
104.137497
 21
88.049301
  0
LINE
  8
0
  6
CONTINUOUS
 10
33.637501
 20
19.230690
 11
104.637497
 21
19.230690
  0
CIRCLE
  8
0
  6
CONTINUOUS
 10
156.637497
 20
79.339996
 40
23.500000
  0
LINE
  8
0
  6
CONTINUOUS
 10
150.262497
 20
41.893230
 11
150.262497
 21
36.340000
  0
LINE
  8
0
  6
CONTINUOUS
 10
153.449997
 20
43.910316
 11
153.449997
 21
45.902504
  0
LINE
  8
0
  6
CONTINUOUS
 10
159.824997
 20
43.910316
 11
159.824997
 21
45.902504
  0
LINE
  8
0
  6
CONTINUOUS
 10
156.014893
 20
44.732094
 11
156.014893
 21
37.385899
  0
LINE
  8
0
  6
CONTINUOUS
 10
157.210297
 20
44.732094
 11
157.210297
 21
37.385899
  0
LINE
  8
0
  6
CONTINUOUS
 10
163.485596
 20
44.732094
 11
163.485596
 21
37.336102
  0
LINE
  8
0
  6
CONTINUOUS
 10
164.581299
 20
40.809978
 11
164.581299
 21
37.336102
  0
LINE
  8
0
  6
CONTINUOUS
 10
148.750000
 20
44.632484
 11
145.678101
 21
44.632484
  0
LINE
  8
0
  6
CONTINUOUS
 10
145.678101
 20
44.632484
 11
144.958298
 21
43.739990
  0
LINE
  8
0
  6
CONTINUOUS
 10
145.044907
 20
45.902504
 11
143.887497
 21
44.420509
  0
LINE
  8
0
  6
CONTINUOUS
 10
144.958298
 20
38.230930
 11
145.689606
 21
37.460609
  0
LINE
  8
0
  6
CONTINUOUS
 10
143.887497
 20
37.580860
 11
145.117294
 21
36.340000
  0
LINE
  8
0
  6
CONTINUOUS
 10
143.887497
 20
44.420509
 11
143.887497
 21
37.580860
  0
LINE
  8
0
  6
CONTINUOUS
 10
144.958298
 20
43.739990
 11
144.958298
 21
38.230930
  0
LINE
  8
0
  6
CONTINUOUS
 10
149.341095
 20
44.061043
 11
148.737900
 21
44.632484
  0
LINE
  8
0
  6
CONTINUOUS
 10
149.331497
 20
45.902504
 11
150.262497
 21
44.869362
  0
LINE
  8
0
  6
CONTINUOUS
 10
149.341095
 20
43.910316
 11
150.262497
 21
43.910316
  0
LINE
  8
0
  6
CONTINUOUS
 10
145.044907
 20
45.902504
 11
149.331497
 21
45.902504
  0
LINE
  8
0
  6
CONTINUOUS
 10
149.341095
 20
40.847328
 11
147.672699
 21
40.847328
  0
LINE
  8
0
  6
CONTINUOUS
 10
149.341095
 20
39.851238
 11
149.341095
 21
40.648109
  0
LINE
  8
0
  6
CONTINUOUS
 10
147.348907
 20
37.460609
 11
145.689606
 21
37.460609
  0
ARC
  8
0
  6
CONTINUOUS
 10
147.348907
 20
39.452801
 40
1.992187
 50
-89.999786
 51
0.000109
  0
LINE
  8
0
  6
CONTINUOUS
 10
149.341095
 20
37.102268
 11
149.341095
 21
36.340000
  0
LINE
  8
0
  6
CONTINUOUS
 10
150.262497
 20
44.869362
 11
150.262497
 21
43.910316
  0
LINE
  8
0
  6
CONTINUOUS
 10
149.341095
 20
40.847328
 11
149.341095
 21
39.452801
  0
LINE
  8
0
  6
CONTINUOUS
 10
147.672699
 20
41.893230
 11
147.672699
 21
40.847328
  0
LINE
  8
0
  6
CONTINUOUS
 10
149.341095
 20
36.340000
 11
150.262497
 21
36.340000
  0
LINE
  8
0
  6
CONTINUOUS
 10
149.341095
 20
37.102268
 11
148.432602
 21
36.340000
  0
LINE
  8
0
  6
CONTINUOUS
 10
157.210297
 20
37.385899
 11
157.608704
 21
37.385899
  0
LINE
  8
0
  6
CONTINUOUS
 10
155.541794
 20
37.385899
 11
155.541794
 21
36.340000
  0
LINE
  8
0
  6
CONTINUOUS
 10
157.608704
 20
37.385899
 11
157.608704
 21
36.340000
  0
LINE
  8
0
  6
CONTINUOUS
 10
159.160004
 20
43.910316
 11
159.824997
 21
43.910316
  0
LINE
  8
0
  6
CONTINUOUS
 10
153.449997
 20
43.910316
 11
154.157593
 21
43.910316
  0
LINE
  8
0
  6
CONTINUOUS
 10
153.449997
 20
45.902504
 11
159.824997
 21
45.902504
  0
LINE
  8
0
  6
CONTINUOUS
 10
155.541794
 20
36.340000
 11
157.608704
 21
36.340000
  0
LINE
  8
0
  6
CONTINUOUS
 10
155.541794
 20
37.385899
 11
156.014893
 21
37.385899
  0
ARC
  8
0
  6
CONTINUOUS
 10
166.835007
 20
43.350010
 40
2.552490
 50
-73.981873
 51
90.003510
  0
ARC
  8
0
  6
CONTINUOUS
 10
166.835007
 20
43.350010
 40
1.557193
 50
-82.585274
 51
62.411850
  0
LINE
  8
0
  6
CONTINUOUS
 10
163.012497
 20
45.902504
 11
166.835007
 21
45.902504
  0
LINE
  8
0
  6
CONTINUOUS
 10
163.012497
 20
45.902504
 11
163.012497
 21
44.732094
  0
LINE
  8
0
  6
CONTINUOUS
 10
164.581299
 20
44.732094
 11
164.581299
 21
41.805840
  0
LINE
  8
0
  6
CONTINUOUS
 10
167.539398
 20
40.896629
 11
169.119202
 21
37.336102
  0
LINE
  8
0
  6
CONTINUOUS
 10
166.621796
 20
40.809978
 11
168.116898
 21
37.336102
  0
LINE
  8
0
  6
CONTINUOUS
 10
163.012497
 20
37.336102
 11
163.485596
 21
37.336102
  0
LINE
  8
0
  6
CONTINUOUS
 10
164.581299
 20
37.336102
 11
165.017105
 21
37.336102
  0
LINE
  8
0
  6
CONTINUOUS
 10
165.017105
 20
36.340000
 11
163.012497
 21
36.340000
  0
LINE
  8
0
  6
CONTINUOUS
 10
167.918304
 20
37.336102
 11
168.116898
 21
37.336102
  0
LINE
  8
0
  6
CONTINUOUS
 10
169.119202
 20
37.336102
 11
169.387497
 21
37.336102
  0
LINE
  8
0
  6
CONTINUOUS
 10
167.918304
 20
36.340000
 11
169.387497
 21
36.340000
  0
LINE
  8
0
  6
CONTINUOUS
 10
169.387497
 20
37.336102
 11
169.387497
 21
36.340000
  0
LINE
  8
0
  6
CONTINUOUS
 10
167.918304
 20
37.336102
 11
167.918304
 21
36.340000
  0
LINE
  8
0
  6
CONTINUOUS
 10
165.017105
 20
37.336102
 11
165.017105
 21
36.340000
  0
LINE
  8
0
  6
CONTINUOUS
 10
163.012497
 20
37.336102
 11
163.012497
 21
36.340000
  0
LINE
  8
0
  6
CONTINUOUS
 10
154.500000
 20
44.732094
 11
154.157593
 21
43.910316
  0
LINE
  8
0
  6
CONTINUOUS
 10
158.871307
 20
44.732094
 11
159.160004
 21
43.910316
  0
LINE
  8
0
  6
CONTINUOUS
 10
157.210297
 20
44.732094
 11
158.871307
 21
44.732094
  0
LINE
  8
0
  6
CONTINUOUS
 10
156.014893
 20
44.732094
 11
154.500000
 21
44.732094
  0
LINE
  8
0
  6
CONTINUOUS
 10
163.012497
 20
44.732094
 11
163.485596
 21
44.732094
  0
LINE
  8
0
  6
CONTINUOUS
 10
164.581299
 20
44.732094
 11
167.556198
 21
44.730156
  0
LINE
  8
0
  6
CONTINUOUS
 10
149.341095
 20
44.061043
 11
149.341095
 21
43.910316
  0
LINE
  8
0
  6
CONTINUOUS
 10
145.117294
 20
36.340000
 11
148.432602
 21
36.340000
  0
LINE
  8
0
  6
CONTINUOUS
 10
164.581299
 20
41.805840
 11
167.035995
 21
41.805840
  0
LINE
  8
0
  6
CONTINUOUS
 10
164.581299
 20
40.809978
 11
166.621796
 21
40.809978
  0
LINE
  8
0
  6
CONTINUOUS
 10
147.672699
 20
41.893230
 11
150.262497
 21
41.893230
  0
LINE
  8
0
  6
CONTINUOUS
 10
142.637497
 20
118.408798
 11
142.637497
 21
112.860611
  0
LINE
  8
0
  6
CONTINUOUS
 10
170.637497
 20
118.408798
 11
170.637497
 21
112.860619
  0
LINE
  8
0
  6
CONTINUOUS
 10
142.637497
 20
15.819390
 11
142.637497
 21
10.545370
  0
LINE
  8
0
  6
CONTINUOUS
 10
170.637497
 20
15.819390
 11
170.637497
 21
10.545370
  0
LINE
  8
0
  6
CONTINUOUS
 10
162.137497
 20
76.340019
 11
162.137497
 21
82.340019
  0
LINE
  8
0
  6
CONTINUOUS
 10
168.137497
 20
76.340042
 11
168.137497
 21
82.340042
  0
LINE
  8
0
  6
CONTINUOUS
 10
168.137497
 20
76.340042
 11
162.137497
 21
76.340019
  0
LINE
  8
0
  6
CONTINUOUS
 10
168.137497
 20
82.340042
 11
162.137497
 21
82.340019
  0
ARC
  8
0
  6
CONTINUOUS
 10
156.637497
 20
79.339996
 40
9.000000
 50
19.471210
 51
340.528809
  0
LINE
  8
0
  6
CENTER
 10
156.637497
 20
336.330627
 11
156.637497
 21
175.160004
  0
LINE
  8
0
  6
CENTER
 10
-25.758436
 20
255.453125
 11
220.778748
 21
255.453125
  0
LINE
  8
0
  6
CONTINUOUS
 10
202.963379
 20
292.453125
 11
108.085815
 21
292.453125
  0
LINE
  8
0
  6
CONTINUOUS
 10
105.928085
 20
284.455872
 11
106.086502
 21
290.505493
  0
LINE
  8
0
  6
CONTINUOUS
 10
103.979698
 20
300.453125
 11
33.637501
 21
300.453125
  0
LINE
  8
0
  6
CONTINUOUS
 10
33.637501
 20
284.453125
 11
112.980049
 21
284.453125
  0
LINE
  8
0
  6
CONTINUOUS
 10
33.637501
 20
226.453125
 11
104.254372
 21
226.453125
  0
LINE
  8
0
  6
CONTINUOUS
 10
104.110626
 20
210.453125
 11
33.637501
 21
210.453125
  0
LINE
  8
0
  6
CONTINUOUS
 10
104.880577
 20
255.453125
 11
106.137497
 21
207.453125
  0
LINE
  8
0
  6
CONTINUOUS
 10
139.637497
 20
287.453125
 11
139.637497
 21
219.453125
  0
LINE
  8
0
  6
CONTINUOUS
 10
173.637497
 20
287.453125
 11
173.637497
 21
219.453125
  0
LINE
  8
0
  6
CONTINUOUS
 10
112.980049
 20
282.453125
 11
112.980049
 21
218.988129
  0
LINE
  8
0
  6
CONTINUOUS
 10
179.137497
 20
297.453125
 11
134.137497
 21
297.453125
  0
LINE
  8
0
  6
CONTINUOUS
 10
133.137497
 20
296.453125
 11
133.137497
 21
294.453125
  0
LINE
  8
0
  6
CONTINUOUS
 10
180.137497
 20
296.453125
 11
180.137497
 21
294.453125
  0
ARC
  8
0
  6
CONTINUOUS
 10
131.137497
 20
294.453125
 40
2.000000
 50
-90.000000
 51
0.000000
  0
ARC
  8
0
  6
CONTINUOUS
 10
182.137497
 20
294.453125
 40
2.000000
 50
180.000000
 51
270.000000
  0
ARC
  8
0
  6
CONTINUOUS
 10
134.137512
 20
296.453125
 40
1.000000
 50
90.000000
 51
180.000000
  0
ARC
  8
0
  6
CONTINUOUS
 10
179.137512
 20
296.453125
 40
1.000000
 50
0.000000
 51
90.000000
  0
LINE
  8
0
  6
CONTINUOUS
 10
168.137497
 20
329.453125
 11
147.637497
 21
329.453125
  0
LINE
  8
0
  6
CONTINUOUS
 10
147.637497
 20
299.453125
 11
147.637497
 21
329.453125
  0
LINE
  8
0
  6
CONTINUOUS
 10
165.637497
 20
299.453125
 11
165.637497
 21
305.453125
  0
LINE
  8
0
  6
CONTINUOUS
 10
146.637497
 20
299.453125
 11
166.637497
 21
299.453125
  0
LINE
  8
0
  6
CONTINUOUS
 10
146.637497
 20
297.453125
 11
146.637497
 21
299.453125
  0
LINE
  8
0
  6
CONTINUOUS
 10
166.637497
 20
297.453125
 11
166.637497
 21
299.453125
  0
LINE
  8
0
  6
CONTINUOUS
 10
168.137497
 20
329.453125
 11
168.137497
 21
305.453125
  0
LINE
  8
0
  6
CONTINUOUS
 10
168.137497
 20
305.453125
 11
165.122498
 21
305.453125
  0
LINE
  8
0
  6
CONTINUOUS
 10
165.122498
 20
329.453125
 11
165.122498
 21
305.453125
  0
LINE
  8
0
  6
CONTINUOUS
 10
168.137497
 20
181.453125
 11
147.637497
 21
181.453125
  0
LINE
  8
0
  6
CONTINUOUS
 10
147.637497
 20
207.453125
 11
147.637497
 21
181.453125
  0
LINE
  8
0
  6
CONTINUOUS
 10
168.137497
 20
181.453125
 11
168.137497
 21
205.453125
  0
LINE
  8
0
  6
CONTINUOUS
 10
165.122498
 20
181.453125
 11
165.122498
 21
205.453125
  0
LINE
  8
0
  6
CONTINUOUS
 10
106.137497
 20
207.453125
 11
207.137497
 21
207.453125
  0
LINE
  8
0
  6
CONTINUOUS
 10
204.962692
 20
290.505493
 11
207.137497
 21
207.453125
  0
LINE
  8
0
  6
CONTINUOUS
 10
107.928696
 20
217.453125
 11
204.927322
 21
217.453125
  0
ARC
  8
0
  6
CONTINUOUS
 10
204.927322
 20
215.453125
 40
2.000000
 50
1.500000
 51
90.000000
  0
ARC
  8
0
  6
CONTINUOUS
 10
202.963379
 20
290.453125
 40
2.000000
 50
1.500000
 51
90.000000
  0
ARC
  8
0
  6
CONTINUOUS
 10
175.637497
 20
219.453125
 40
2.000000
 50
180.000000
 51
270.000000
  0
ARC
  8
0
  6
CONTINUOUS
 10
137.637497
 20
219.453125
 40
2.000000
 50
-90.000000
 51
0.000000
  0
LINE
  8
0
  6
CONTINUOUS
 10
139.495560
 20
218.713120
 11
173.779434
 21
218.713120
  0
ARC
  8
0
  6
CONTINUOUS
 10
107.928696
 20
215.453125
 40
2.000000
 50
90.000000
 51
181.500000
  0
ARC
  8
0
  6
CONTINUOUS
 10
104.110626
 20
208.453125
 40
2.000000
 50
1.500000
 51
90.000000
  0
LINE
  8
0
  6
CONTINUOUS
 10
105.979012
 20
298.505493
 11
106.086502
 21
294.400757
  0
ARC
  8
0
  6
CONTINUOUS
 10
103.979698
 20
298.453125
 40
2.000000
 50
1.500000
 51
90.000000
  0
ARC
  8
0
  6
CONTINUOUS
 10
108.085815
 20
294.453125
 40
2.000000
 50
181.500000
 51
270.000000
  0
ARC
  8
0
  6
CONTINUOUS
 10
108.085815
 20
290.453125
 40
2.000000
 50
90.000000
 51
178.500000
  0
LINE
  8
0
  6
CENTER
 10
196.637497
 20
199.764526
 11
196.637497
 21
223.627182
  0
LINE
  8
0
  6
DASHED
 10
200.887497
 20
217.453125
 11
200.887497
 21
207.453125
  0
LINE
  8
0
  6
DASHED
 10
192.387497
 20
217.453125
 11
192.387497
 21
207.453125
  0
LINE
  8
0
  6
CENTER
 10
116.637497
 20
199.764526
 11
116.637497
 21
223.627182
  0
LINE
  8
0
  6
DASHED
 10
112.387497
 20
217.453125
 11
112.387497
 21
207.453125
  0
LINE
  8
0
  6
DASHED
 10
120.887497
 20
217.453125
 11
120.887497
 21
207.453125
  0
LINE
  8
0
  6
CENTER
 10
342.500000
 20
-1.360000
 11
342.500000
 21
129.139999
  0
LINE
  8
0
  6
CONTINUOUS
 10
300.500000
 20
101.839989
 11
300.500000
 21
56.839993
  0
LINE
  8
0
  6
CONTINUOUS
 10
379.500000
 20
114.391876
 11
379.500000
 21
14.288080
  0
LINE
  8
0
  6
CENTER
 10
261.000000
 20
79.339996
 11
423.000000
 21
79.339996
  0
LINE
  8
0
  6
CONTINUOUS
 10
304.500000
 20
102.839996
 11
301.500000
 21
102.839996
  0
LINE
  8
0
  6
CONTINUOUS
 10
304.500000
 20
55.839996
 11
301.500000
 21
55.839996
  0
LINE
  8
0
  6
CONTINUOUS
 10
302.965393
 20
123.339996
 11
294.500000
 21
123.339996
  0
LINE
  8
0
  6
CONTINUOUS
 10
302.965393
 20
5.340000
 11
294.500000
 21
5.340000
  0
LINE
  8
0
  6
CONTINUOUS
 10
376.552307
 20
117.391441
 11
306.465088
 21
118.614540
  0
LINE
  8
0
  6
CONTINUOUS
 10
376.552399
 20
11.288550
 11
306.465088
 21
10.064920
  0
LINE
  8
0
  6
CONTINUOUS
 10
377.547791
 20
93.839996
 11
309.665802
 21
93.839996
  0
LINE
  8
0
  6
CONTINUOUS
 10
377.547791
 20
34.840000
 11
307.500000
 21
34.840000
  0
ARC
  8
0
  6
CONTINUOUS
 10
376.500000
 20
114.391876
 40
3.000000
 50
0.000000
 51
89.000359
  0
ARC
  8
0
  6
CONTINUOUS
 10
376.500000
 20
14.288080
 40
3.000000
 50
-88.999687
 51
0.000000
  0
ARC
  8
0
  6
CONTINUOUS
 10
307.500000
 20
31.840019
 40
3.000000
 50
90.000000
 51
180.000000
  0
LINE
  8
0
  6
CENTER
 10
289.437500
 20
14.340000
 11
309.187500
 21
14.340000
  0
LINE
  8
0
  6
CENTER
 10
291.187500
 20
114.339996
 11
308.187500
 21
114.339996
  0
LINE
  8
0
  6
DASHED
 10
294.500000
 20
110.089996
 11
304.500000
 21
110.089996
  0
LINE
  8
0
  6
DASHED
 10
294.500000
 20
118.589996
 11
304.500000
 21
118.589996
  0
LINE
  8
0
  6
DASHED
 10
294.500000
 20
18.590000
 11
304.500000
 21
18.590000
  0
LINE
  8
0
  6
DASHED
 10
294.500000
 20
10.090000
 11
304.500000
 21
10.090000
  0
LINE
  8
0
  6
CONTINUOUS
 10
316.500000
 20
8.640000
 11
368.500000
 21
8.640000
  0
ARC
  8
0
  6
CONTINUOUS
 10
368.500000
 20
11.640000
 40
3.000000
 50
270.000000
 51
351.561859
  0
ARC
  8
0
  6
CONTINUOUS
 10
316.500000
 20
11.640000
 40
3.000000
 50
208.811234
 51
270.000000
  0
ARC
  8
0
  6
CONTINUOUS
 10
301.500000
 20
56.839996
 40
1.000000
 50
180.000000
 51
270.000000
  0
ARC
  8
0
  6
CONTINUOUS
 10
301.500000
 20
101.839989
 40
1.000000
 50
90.000000
 51
180.000000
  0
ARC
  8
0
  6
CONTINUOUS
 10
342.500000
 20
53.639999
 40
45.000000
 50
-34.692131
 51
20.419371
  0
LINE
  8
0
  6
CONTINUOUS
 10
384.500000
 20
101.839989
 11
384.500000
 21
56.839993
  0
LINE
  8
0
  6
CONTINUOUS
 10
381.500000
 20
102.839996
 11
383.500000
 21
102.839996
  0
LINE
  8
0
  6
CONTINUOUS
 10
381.500000
 20
55.839996
 11
383.500000
 21
55.839996
  0
ARC
  8
0
  6
CONTINUOUS
 10
381.500000
 20
104.839996
 40
2.000000
 50
180.000000
 51
270.000000
  0
ARC
  8
0
  6
CONTINUOUS
 10
381.500000
 20
53.840008
 40
2.000000
 50
90.000000
 51
180.000000
  0
ARC
  8
0
  6
CONTINUOUS
 10
383.500000
 20
56.839996
 40
1.000000
 50
-90.000000
 51
0.000000
  0
ARC
  8
0
  6
CONTINUOUS
 10
383.500000
 20
101.839989
 40
1.000000
 50
0.000000
 51
90.000000
  0
LINE
  8
0
  6
CONTINUOUS
 10
304.500000
 20
121.339996
 11
304.500000
 21
50.952499
  0
LINE
  8
0
  6
CONTINUOUS
 10
304.500000
 20
7.340000
 11
304.500000
 21
31.840010
  0
LINE
  8
0
  6
CONTINUOUS
 10
294.500000
 20
123.339996
 11
294.500000
 21
88.339996
  0
LINE
  8
0
  6
CONTINUOUS
 10
294.500000
 20
5.340000
 11
294.500000
 21
70.339996
  0
LINE
  8
0
  6
CENTER
 10
288.795410
 20
53.639999
 11
394.504913
 21
53.639999
  0
LINE
  8
0
  6
CONTINUOUS
 10
304.897186
 20
121.857643
 11
305.177795
 21
120.810410
  0
ARC
  8
0
  6
CONTINUOUS
 10
302.500000
 20
121.339989
 40
2.000000
 50
0.000000
 51
90.000000
  0
ARC
  8
0
  6
CONTINUOUS
 10
302.965393
 20
121.339989
 40
2.000000
 50
15.000500
 51
90.000000
  0
ARC
  8
0
  6
CONTINUOUS
 10
306.500000
 20
120.614250
 40
2.000000
 50
180.000000
 51
269.000610
  0
ARC
  8
0
  6
CONTINUOUS
 10
308.075592
 20
121.586899
 40
3.000000
 50
195.000504
 51
269.000610
  0
LINE
  8
0
  6
CONTINUOUS
 10
304.897186
 20
6.822370
 11
305.177612
 21
7.869020
  0
ARC
  8
0
  6
CONTINUOUS
 10
302.500000
 20
7.340000
 40
2.000000
 50
-90.000000
 51
0.000000
  0
ARC
  8
0
  6
CONTINUOUS
 10
302.965393
 20
7.340000
 40
2.000000
 50
270.000000
 51
345.000000
  0
ARC
  8
0
  6
CONTINUOUS
 10
306.500000
 20
8.065220
 40
2.000000
 50
91.000526
 51
180.000000
  0
ARC
  8
0
  6
CONTINUOUS
 10
308.075409
 20
7.092580
 40
3.000000
 50
91.000458
 51
165.000305
  0
LINE
  8
0
  6
CONTINUOUS
 10
268.500000
 20
70.339996
 11
268.500000
 21
88.339996
  0
LINE
  8
0
  6
CONTINUOUS
 10
298.500000
 20
88.339996
 11
268.500000
 21
88.339996
  0
LINE
  8
0
  6
CONTINUOUS
 10
298.500000
 20
70.339996
 11
268.500000
 21
70.339996
  0
LINE
  8
0
  6
CONTINUOUS
 10
298.500000
 20
89.339996
 11
298.500000
 21
69.339996
  0
LINE
  8
0
  6
CONTINUOUS
 10
300.500000
 20
89.339996
 11
298.500000
 21
89.339996
  0
LINE
  8
0
  6
CONTINUOUS
 10
300.500000
 20
69.339996
 11
298.500000
 21
69.339996
  0
ARC
  8
0
  6
CONTINUOUS
 10
292.500000
 20
79.339996
 40
3.000000
 50
-90.000000
 51
90.000000
  0
LINE
  8
0
  6
CONTINUOUS
 10
292.500000
 20
82.339996
 11
268.500000
 21
82.339996
  0
LINE
  8
0
  6
CONTINUOUS
 10
292.500000
 20
76.339996
 11
268.500000
 21
76.339996
  0
LINE
  8
0
  6
CONTINUOUS
 10
416.500000
 20
70.339996
 11
416.500000
 21
88.339996
  0
LINE
  8
0
  6
CONTINUOUS
 10
386.500000
 20
88.339996
 11
416.500000
 21
88.339996
  0
LINE
  8
0
  6
CONTINUOUS
 10
386.500000
 20
70.339996
 11
416.500000
 21
70.339996
  0
LINE
  8
0
  6
CONTINUOUS
 10
386.500000
 20
89.339996
 11
386.500000
 21
69.339996
  0
LINE
  8
0
  6
CONTINUOUS
 10
384.500000
 20
89.339996
 11
386.500000
 21
89.339996
  0
LINE
  8
0
  6
CONTINUOUS
 10
384.500000
 20
69.339996
 11
386.500000
 21
69.339996
  0
ARC
  8
0
  6
CONTINUOUS
 10
392.500000
 20
79.339996
 40
3.000000
 50
90.000000
 51
270.000000
  0
LINE
  8
0
  6
CONTINUOUS
 10
392.500000
 20
82.339996
 11
416.500000
 21
82.339996
  0
LINE
  8
0
  6
CONTINUOUS
 10
392.500000
 20
76.339996
 11
416.500000
 21
76.339996
  0
LINE
  8
0
  6
DASHED
 10
369.534912
 20
98.169800
 11
342.500000
 21
98.641693
  0
ARC
  8
0
  6
DASHED
 10
369.500000
 20
96.170097
 40
2.000000
 50
0.000000
 51
89.000191
  0
LINE
  8
0
  6
DASHED
 10
371.500000
 20
96.170113
 11
371.500000
 21
89.417091
  0
LINE
  8
0
  6
DASHED
 10
315.465088
 20
98.169800
 11
342.500000
 21
98.641693
  0
ARC
  8
0
  6
DASHED
 10
315.500000
 20
96.170097
 40
2.000000
 50
90.999809
 51
180.000000
  0
LINE
  8
0
  6
DASHED
 10
313.500000
 20
96.170113
 11
313.500000
 21
89.417091
  0
ARC
  8
0
  6
DASHED
 10
342.500000
 20
53.639999
 40
45.000000
 50
131.810318
 51
228.189682
  0
LINE
  8
0
  6
DASHED
 10
313.500000
 20
11.640000
 11
313.500000
 21
17.862911
  0
ARC
  8
0
  6
DASHED
 10
316.500000
 20
11.640000
 40
3.000000
 50
180.000000
 51
208.811234
  0
ARC
  8
0
  6
DASHED
 10
368.500000
 20
11.640000
 40
3.000000
 50
-8.438150
 51
0.000000
  0
LINE
  8
0
  6
DASHED
 10
371.500000
 20
11.640000
 11
371.500000
 21
17.862911
  0
ARC
  8
0
  6
DASHED
 10
342.500000
 20
53.639999
 40
45.000000
 50
-48.189686
 51
-34.692131
  0
ARC
  8
0
  6
DASHED
 10
374.500000
 20
89.417091
 40
3.000000
 50
180.000000
 51
228.189682
  0
ARC
  8
0
  6
DASHED
 10
310.500000
 20
89.417091
 40
3.000000
 50
-48.189686
 51
0.000000
  0
ARC
  8
0
  6
DASHED
 10
310.500000
 20
17.862911
 40
3.000000
 50
0.000000
 51
48.189686
  0
ARC
  8
0
  6
DASHED
 10
374.500000
 20
17.862911
 40
3.000000
 50
131.810318
 51
180.000000
  0
ARC
  8
0
  6
DASHED
 10
342.500000
 20
53.639999
 40
45.000000
 50
20.419371
 51
48.189686
  0
LINE
  8
0
  6
DASHED
 10
365.500000
 20
110.640297
 11
365.500000
 21
98.238533
  0
LINE
  8
0
  6
DASHED
 10
319.500000
 20
110.640297
 11
319.500000
 21
98.238533
  0
LINE
  8
0
  6
DASHED
 10
365.000000
 20
110.640297
 11
365.000000
 21
111.640297
  0
LINE
  8
0
  6
DASHED
 10
320.000000
 20
110.640297
 11
320.000000
 21
111.640297
  0
LINE
  8
0
  6
DASHED
 10
319.500000
 20
117.623703
 11
319.500000
 21
111.640297
  0
LINE
  8
0
  6
DASHED
 10
365.500000
 20
117.623703
 11
365.500000
 21
111.640297
  0
ARC
  8
0
  6
CONTINUOUS
 10
362.500000
 20
111.340202
 40
7.000000
 50
73.041977
 51
106.956497
  0
ARC
  8
0
  6
CONTINUOUS
 10
360.750000
 20
117.079498
 40
1.000000
 50
106.956902
 51
143.012054
  0
ARC
  8
0
  6
CONTINUOUS
 10
364.250000
 20
117.079498
 40
1.000000
 50
30.772787
 51
73.041847
  0
LINE
  8
0
  6
CONTINUOUS
 10
359.000000
 20
118.126747
 11
359.000000
 21
117.697746
  0
ARC
  8
0
  6
CONTINUOUS
 10
342.500000
 20
-130.859695
 40
250.000000
 50
84.826019
 51
94.598679
  0
ARC
  8
0
  6
CONTINUOUS
 10
365.000000
 20
117.623703
 40
0.500000
 50
0.000000
 51
84.826019
  0
ARC
  8
0
  6
CONTINUOUS
 10
358.500000
 20
118.126747
 40
0.500000
 50
0.000000
 51
86.323196
  0
LINE
  8
0
  6
DASHED
 10
365.000000
 20
110.640297
 11
365.500000
 21
110.640297
  0
LINE
  8
0
  6
DASHED
 10
365.000000
 20
111.640297
 11
365.500000
 21
111.640297
  0
LINE
  8
0
  6
DASHED
 10
320.000000
 20
110.640297
 11
319.500000
 21
110.640297
  0
LINE
  8
0
  6
DASHED
 10
320.000000
 20
111.640297
 11
319.500000
 21
111.640297
  0
LINE
  8
0
  6
CONTINUOUS
 10
392.500000
 20
82.339996
 11
392.500000
 21
76.339996
  0
LINE
  8
0
  6
CONTINUOUS
 10
292.500000
 20
82.339996
 11
292.500000
 21
76.339996
  0
LINE
  8
0
  6
CONTINUOUS
 10
165.122498
 20
205.453125
 11
168.137497
 21
205.453125
  0
LINE
  8
0
  6
CONTINUOUS
 10
165.637497
 20
207.453125
 11
165.637497
 21
205.453125
  0
LINE
  8
0
  6
CONTINUOUS
 10
33.637489
 20
8.640000
 11
33.637489
 21
98.639999
  0
LINE
  8
0
  6
CONTINUOUS
 10
19.637489
 20
9.375720
 11
19.637489
 21
19.230709
  0
LINE
  8
0
  6
CONTINUOUS
 10
6.637490
 20
91.666145
 11
6.637490
 21
10.329773
  0
LINE
  8
0
  6
CENTER
 10
16.137489
 20
100.578278
 11
16.137489
 21
121.840782
  0
ARC
  8
0
  6
CONTINUOUS
 10
32.137489
 20
99.639999
 40
1.000000
 50
180.000000
 51
270.000000
  0
LINE
  8
0
  6
CONTINUOUS
 10
33.637489
 20
19.230709
 11
19.637489
 21
19.230709
  0
LINE
  8
0
  6
CONTINUOUS
 10
19.637489
 20
98.139999
 11
19.637489
 21
88.139999
  0
LINE
  8
0
  6
CONTINUOUS
 10
33.637489
 20
88.049301
 11
19.637489
 21
88.049301
  0
LINE
  8
0
  6
CONTINUOUS
 10
33.637489
 20
98.639999
 11
1.137560
 21
98.639999
  0
ARC
  8
0
  6
CONTINUOUS
 10
20.137489
 20
98.139999
 40
0.500000
 50
90.000000
 51
180.000000
  0
LINE
  8
0
  6
CONTINUOUS
 10
1.137836
 20
110.640236
 11
1.137539
 21
98.642746
  0
LINE
  8
0
  6
CONTINUOUS
 10
31.137489
 20
110.640297
 11
31.137489
 21
99.639999
  0
LINE
  8
0
  6
CONTINUOUS
 10
31.137489
 20
111.640297
 11
31.137489
 21
118.218597
  0
LINE
  8
0
  6
CONTINUOUS
 10
-12.750080
 20
107.590302
 11
-0.862510
 21
107.590302
  0
LINE
  8
0
  6
CONTINUOUS
 10
1.137290
 20
111.640297
 11
1.137290
 21
118.218597
  0
LINE
  8
0
  6
CONTINUOUS
 10
33.137489
 20
116.140297
 11
33.137489
 21
111.640297
  0
LINE
  8
0
  6
CONTINUOUS
 10
-0.862510
 20
111.640297
 11
33.137489
 21
111.640297
  0
LINE
  8
0
  6
CONTINUOUS
 10
-0.862510
 20
110.640297
 11
33.137489
 21
110.640297
  0
LINE
  8
0
  6
CONTINUOUS
 10
-0.862510
 20
116.140297
 11
-0.862510
 21
115.390297
  0
LINE
  8
0
  6
CONTINUOUS
 10
-0.862510
 20
115.390297
 11
-0.862510
 21
111.640297
  0
LINE
  8
0
  6
CONTINUOUS
 10
-11.898280
 20
115.290298
 11
-0.862510
 21
115.290298
  0
ARC
  8
0
  6
CONTINUOUS
 10
16.137489
 20
-130.859695
 40
250.000000
 50
86.668304
 51
93.331696
  0
LINE
  8
0
  6
CONTINUOUS
 10
31.637489
 20
117.140297
 11
32.137489
 21
117.140297
  0
ARC
  8
0
  6
CONTINUOUS
 10
32.137489
 20
116.140297
 40
1.000000
 50
0.000000
 51
90.000000
  0
ARC
  8
0
  6
CONTINUOUS
 10
31.637489
 20
117.640297
 40
0.500000
 50
180.000000
 51
270.000000
  0
LINE
  8
0
  6
CONTINUOUS
 10
31.637489
 20
105.140297
 11
32.137489
 21
105.140297
  0
ARC
  8
0
  6
CONTINUOUS
 10
32.137489
 20
106.140297
 40
1.000000
 50
-90.000000
 51
0.000000
  0
ARC
  8
0
  6
CONTINUOUS
 10
31.637489
 20
104.640297
 40
0.500000
 50
-270.000000
 51
-180.000000
  0
LINE
  8
0
  6
CONTINUOUS
 10
0.637490
 20
117.140297
 11
0.137490
 21
117.140297
  0
ARC
  8
0
  6
CONTINUOUS
 10
0.137490
 20
116.140297
 40
1.000000
 50
90.000000
 51
180.000000
  0
ARC
  8
0
  6
CONTINUOUS
 10
0.637490
 20
117.640297
 40
0.500000
 50
-90.000000
 51
0.000000
  0
LINE
  8
0
  6
CONTINUOUS
 10
0.637490
 20
105.140297
 11
0.137490
 21
105.140297
  0
ARC
  8
0
  6
CONTINUOUS
 10
0.137490
 20
106.140297
 40
1.000000
 50
-180.000000
 51
-90.000000
  0
ARC
  8
0
  6
CONTINUOUS
 10
0.637490
 20
104.640297
 40
0.500000
 50
0.000000
 51
90.000000
  0
LINE
  8
0
  6
CONTINUOUS
 10
32.637489
 20
111.640297
 11
32.637489
 21
110.640297
  0
LINE
  8
0
  6
CONTINUOUS
 10
33.137489
 20
110.640297
 11
33.137489
 21
106.140297
  0
ARC
  8
0
  6
CONTINUOUS
 10
30.637489
 20
118.218597
 40
0.500000
 50
0.000000
 51
86.668304
  0
LINE
  8
0
  6
CONTINUOUS
 10
-0.862510
 20
110.640297
 11
-0.862510
 21
106.140297
  0
LINE
  8
0
  6
CONTINUOUS
 10
1.637836
 20
111.640297
 11
1.637836
 21
110.640236
  0
LINE
  8
0
  6
CONTINUOUS
 10
25.137489
 20
115.640297
 11
30.887489
 21
115.640297
  0
LINE
  8
0
  6
CONTINUOUS
 10
24.637489
 20
116.140297
 11
24.637489
 21
118.512009
  0
LINE
  8
0
  6
CONTINUOUS
 10
25.387489
 20
115.640297
 11
25.387489
 21
117.079498
  0
LINE
  8
0
  6
CONTINUOUS
 10
30.887489
 20
115.640099
 11
30.887489
 21
117.079498
  0
LINE
  8
0
  6
CONTINUOUS
 10
25.387489
 20
116.340202
 11
30.887489
 21
116.340202
  0
ARC
  8
0
  6
CONTINUOUS
 10
28.137489
 20
111.340202
 40
7.000000
 50
73.043503
 51
106.958000
  0
ARC
  8
0
  6
CONTINUOUS
 10
29.887489
 20
117.079498
 40
1.000000
 50
0.000000
 51
73.043098
  0
ARC
  8
0
  6
CONTINUOUS
 10
26.387489
 20
117.079498
 40
1.000000
 50
106.958199
 51
180.000000
  0
ARC
  8
0
  6
CONTINUOUS
 10
25.137489
 20
116.140297
 40
0.500000
 50
180.000000
 51
270.000000
  0
ARC
  8
0
  6
CONTINUOUS
 10
30.637489
 20
115.140297
 40
0.500000
 50
0.000000
 51
90.000000
  0
ARC
  8
0
  6
CONTINUOUS
 10
24.137489
 20
118.512009
 40
0.500000
 50
0.000000
 51
88.162544
  0
ARC
  8
0
  6
CONTINUOUS
 10
1.637490
 20
118.218597
 40
0.500000
 50
93.331696
 51
180.000000
  0
LINE
  8
0
  6
CONTINUOUS
 10
7.137490
 20
115.640297
 11
1.387490
 21
115.640297
  0
LINE
  8
0
  6
CONTINUOUS
 10
7.637490
 20
116.140297
 11
7.637490
 21
118.512009
  0
LINE
  8
0
  6
CONTINUOUS
 10
6.887490
 20
115.640297
 11
6.887490
 21
117.079498
  0
LINE
  8
0
  6
CONTINUOUS
 10
1.387490
 20
115.640099
 11
1.387490
 21
117.079498
  0
LINE
  8
0
  6
CONTINUOUS
 10
6.887490
 20
116.340202
 11
1.387490
 21
116.340202
  0
ARC
  8
0
  6
CONTINUOUS
 10
4.137490
 20
111.340202
 40
7.000000
 50
73.042000
 51
106.956497
  0
ARC
  8
0
  6
CONTINUOUS
 10
2.387490
 20
117.079498
 40
1.000000
 50
106.956902
 51
180.000000
  0
ARC
  8
0
  6
CONTINUOUS
 10
5.887490
 20
117.079498
 40
1.000000
 50
0.000000
 51
73.041801
  0
ARC
  8
0
  6
CONTINUOUS
 10
7.137490
 20
116.140297
 40
0.500000
 50
-90.000000
 51
0.000000
  0
ARC
  8
0
  6
CONTINUOUS
 10
1.637490
 20
115.140297
 40
0.500000
 50
90.000000
 51
180.000000
  0
ARC
  8
0
  6
CONTINUOUS
 10
8.137490
 20
118.512009
 40
0.500000
 50
91.837456
 51
180.000000
  0
LINE
  8
0
  6
CONTINUOUS
 10
1.137560
 20
94.732635
 11
1.137560
 21
98.639999
  0
LINE
  8
0
  6
CONTINUOUS
 10
8.605473
 20
9.037619
 11
33.637489
 21
8.640000
  0
ARC
  8
0
  6
CONTINUOUS
 10
20.137489
 20
9.375720
 40
0.500000
 50
180.000000
 51
269.000000
  0
LINE
  8
0
  6
CONTINUOUS
 10
7.380505
 20
9.363358
 11
8.637238
 21
9.029173
  0
ARC
  8
0
  6
CONTINUOUS
 10
7.637490
 20
10.329773
 40
1.000000
 50
180.000000
 51
255.108749
  0
LINE
  8
0
  6
CONTINUOUS
 10
8.637238
 20
18.139589
 11
19.637489
 21
18.139589
  0
LINE
  8
0
  6
CONTINUOUS
 10
7.380505
 20
18.473776
 11
8.637238
 21
18.139589
  0
ARC
  8
0
  6
CONTINUOUS
 10
7.637490
 20
19.440191
 40
1.000000
 50
180.000000
 51
255.108749
  0
LINE
  8
0
  6
CONTINUOUS
 10
8.637238
 20
89.140411
 11
19.637489
 21
89.140411
  0
LINE
  8
0
  6
CONTINUOUS
 10
7.380505
 20
88.806229
 11
8.637238
 21
89.140411
  0
ARC
  8
0
  6
CONTINUOUS
 10
7.637490
 20
87.839806
 40
1.000000
 50
-255.108749
 51
-180.000000
  0
LINE
  8
0
  6
CONTINUOUS
 10
3.085206
 20
92.733322
 11
5.663667
 21
92.665802
  0
ARC
  8
0
  6
CONTINUOUS
 10
5.637490
 20
91.666145
 40
1.000000
 50
0.000000
 51
88.500000
  0
ARC
  8
0
  6
CONTINUOUS
 10
3.137560
 20
94.732635
 40
2.000000
 50
180.000000
 51
268.500000
  0
LINE
  8
0
  6
CONTINUOUS
 10
-11.898280
 20
115.290298
 11
-12.634080
 21
112.455200
  0
LINE
  8
0
  6
CONTINUOUS
 10
-12.634080
 20
112.455200
 11
-11.821980
 21
109.980202
  0
LINE
  8
0
  6
CONTINUOUS
 10
-11.821980
 20
109.980202
 11
-12.750080
 21
107.590302
  0
LINE
  8
0
  6
CONTINUOUS
 10
18.637489
 20
90.140404
 11
18.637489
 21
97.140404
  0
LINE
  8
0
  6
CONTINUOUS
 10
19.637489
 20
90.140404
 11
17.658480
 21
90.140404
  0
LINE
  8
0
  6
CONTINUOUS
 10
19.637489
 20
97.140404
 11
17.658480
 21
97.140404
  0
ARC
  8
0
  6
CONTINUOUS
 10
25.037519
 20
93.640404
 40
8.999999
 50
163.398987
 51
196.601517
  0
ARC
  8
0
  6
CONTINUOUS
 10
17.658480
 20
91.440414
 40
1.300000
 50
196.601578
 51
270.000000
  0
ARC
  8
0
  6
CONTINUOUS
 10
17.658480
 20
95.840408
 40
1.300000
 50
90.000000
 51
163.399094
  0
LINE
  8
0
  6
CONTINUOUS
 10
18.637489
 20
10.139590
 11
18.637489
 21
17.139589
  0
LINE
  8
0
  6
CONTINUOUS
 10
19.637489
 20
10.139590
 11
17.658480
 21
10.139590
  0
LINE
  8
0
  6
CONTINUOUS
 10
19.637489
 20
17.139589
 11
17.658480
 21
17.139589
  0
ARC
  8
0
  6
CONTINUOUS
 10
25.037519
 20
13.639590
 40
8.999999
 50
163.398987
 51
196.601517
  0
ARC
  8
0
  6
CONTINUOUS
 10
17.658480
 20
11.439608
 40
1.300000
 50
196.601578
 51
270.000000
  0
ARC
  8
0
  6
CONTINUOUS
 10
17.658480
 20
15.839602
 40
1.300000
 50
90.000000
 51
163.399094
  0
LINE
  8
0
  6
CONTINUOUS
 10
5.837490
 20
91.889893
 11
5.837490
 21
10.490104
  0
LINE
  8
0
  6
CONTINUOUS
 10
6.166480
 20
10.020257
 11
6.652975
 21
9.843188
  0
ARC
  8
0
  6
CONTINUOUS
 10
6.481965
 20
9.373342
 40
0.500000
 50
39.614651
 51
70.000000
  0
ARC
  8
0
  6
CONTINUOUS
 10
6.337490
 20
10.490104
 40
0.500000
 50
180.000000
 51
250.000000
  0
LINE
  8
0
  6
CONTINUOUS
 10
6.166480
 20
92.359741
 11
6.305463
 21
92.410332
  0
ARC
  8
0
  6
CONTINUOUS
 10
6.337490
 20
91.889893
 40
0.500000
 50
110.000000
 51
180.000000
  0
LINE
  8
0
  6
CONTINUOUS
 10
33.137501
 20
260.336823
 11
33.137501
 21
250.569427
  0
LINE
  8
0
  6
CONTINUOUS
 10
33.637501
 20
210.453125
 11
33.637501
 21
300.453125
  0
LINE
  8
0
  6
CONTINUOUS
 10
6.637500
 20
298.722839
 11
6.637500
 21
278.453125
  0
LINE
  8
0
  6
CONTINUOUS
 10
6.637500
 20
212.183426
 11
6.637500
 21
232.453125
  0
LINE
  8
0
  6
CONTINUOUS
 10
33.637501
 20
284.453125
 11
20.124399
 21
284.099213
  0
LINE
  8
0
  6
CONTINUOUS
 10
20.124399
 20
226.807022
 11
33.637501
 21
226.453125
  0
LINE
  8
0
  6
CONTINUOUS
 10
-0.862500
 20
260.336823
 11
-0.862500
 21
250.569427
  0
LINE
  8
0
  6
CONTINUOUS
 10
19.637501
 20
227.306931
 11
19.637501
 21
232.453125
  0
ARC
  8
0
  6
CONTINUOUS
 10
20.137501
 20
227.306931
 40
0.500000
 50
180.000000
 51
268.496399
  0
LINE
  8
0
  6
CONTINUOUS
 10
19.637501
 20
283.599335
 11
19.637501
 21
278.453125
  0
ARC
  8
0
  6
CONTINUOUS
 10
20.137501
 20
283.599335
 40
0.500000
 50
-268.496399
 51
-180.000000
  0
LINE
  8
0
  6
CONTINUOUS
 10
19.637501
 20
227.803131
 11
6.637500
 21
228.143616
  0
LINE
  8
0
  6
CONTINUOUS
 10
19.637501
 20
283.103119
 11
6.637500
 21
282.762634
  0
ARC
  8
0
  6
CONTINUOUS
 10
29.137501
 20
234.470627
 40
2.000000
 50
-90.500061
 51
0.000000
  0
LINE
  8
0
  6
CONTINUOUS
 10
8.602288
 20
210.890167
 11
33.637501
 21
210.453125
  0
LINE
  8
0
  6
CONTINUOUS
 10
7.379100
 20
211.217331
 11
8.602288
 21
210.890167
  0
ARC
  8
0
  6
CONTINUOUS
 10
7.637500
 20
212.183426
 40
1.000000
 50
180.000000
 51
255.023895
  0
LINE
  8
0
  6
CONTINUOUS
 10
8.602299
 20
300.016083
 11
33.637501
 21
300.453125
  0
LINE
  8
0
  6
CONTINUOUS
 10
7.379100
 20
299.688812
 11
8.602299
 21
300.016083
  0
ARC
  8
0
  6
CONTINUOUS
 10
7.637500
 20
298.722839
 40
1.000000
 50
-255.023895
 51
-180.000000
  0
LINE
  8
0
  6
CONTINUOUS
 10
5.837500
 20
232.453125
 11
5.837500
 21
217.564392
  0
LINE
  8
0
  6
CONTINUOUS
 10
6.166490
 20
217.094543
 11
6.308510
 21
217.042847
  0
ARC
  8
0
  6
CONTINUOUS
 10
6.137500
 20
216.572998
 40
0.500000
 50
0.000000
 51
70.000000
  0
ARC
  8
0
  6
CONTINUOUS
 10
6.337500
 20
217.564392
 40
0.500000
 50
180.000000
 51
250.000000
  0
LINE
  8
0
  6
CONTINUOUS
 10
6.166490
 20
293.811707
 11
6.308510
 21
293.863403
  0
ARC
  8
0
  6
CONTINUOUS
 10
6.137500
 20
294.333252
 40
0.500000
 50
-70.000000
 51
0.000000
  0
ARC
  8
0
  6
CONTINUOUS
 10
6.337500
 20
293.341858
 40
0.500000
 50
-250.000000
 51
-180.000000
  0
LINE
  8
0
  6
CONTINUOUS
 10
5.837500
 20
293.341858
 11
5.837500
 21
278.453125
  0
LINE
  8
0
  6
CONTINUOUS
 10
1.137400
 20
234.453125
 11
1.137400
 21
276.453125
  0
LINE
  8
0
  6
CENTER
 10
16.137501
 20
287.263123
 11
16.137501
 21
223.728119
  0
LINE
  8
0
  6
CONTINUOUS
 10
31.137501
 20
276.453125
 11
31.137501
 21
234.453125
  0
LINE
  8
0
  6
CONTINUOUS
 10
33.137501
 20
260.453125
 11
33.137501
 21
250.453125
  0
LINE
  8
0
  6
CONTINUOUS
 10
-0.862500
 20
260.453125
 11
-0.862500
 21
250.453125
  0
ARC
  8
0
  6
CONTINUOUS
 10
4.137500
 20
235.453125
 40
3.500000
 50
0.000000
 51
90.000000
  0
LINE
  8
0
  6
CONTINUOUS
 10
2.137400
 20
238.953125
 11
4.137500
 21
238.953125
  0
LINE
  8
0
  6
CONTINUOUS
 10
7.637500
 20
233.453125
 11
7.637500
 21
235.453125
  0
ARC
  8
0
  6
CONTINUOUS
 10
2.137400
 20
239.953125
 40
1.000000
 50
180.000000
 51
270.000000
  0
ARC
  8
0
  6
CONTINUOUS
 10
28.137501
 20
235.453125
 40
3.500000
 50
90.000000
 51
180.000000
  0
LINE
  8
0
  6
CONTINUOUS
 10
24.637501
 20
233.453125
 11
24.637501
 21
235.453125
  0
LINE
  8
0
  6
CONTINUOUS
 10
30.137600
 20
238.953125
 11
28.137501
 21
238.953125
  0
ARC
  8
0
  6
CONTINUOUS
 10
30.137600
 20
239.953125
 40
1.000000
 50
-90.000000
 51
0.000000
  0
LINE
  8
0
  6
CONTINUOUS
 10
29.137501
 20
232.453125
 11
3.137400
 21
232.453125
  0
ARC
  8
0
  6
CONTINUOUS
 10
23.637501
 20
233.453125
 40
1.000000
 50
-90.000000
 51
0.000000
  0
ARC
  8
0
  6
CONTINUOUS
 10
8.637500
 20
233.453125
 40
1.000000
 50
180.000000
 51
270.000000
  0
ARC
  8
0
  6
CONTINUOUS
 10
3.137400
 20
234.453125
 40
2.000000
 50
180.000000
 51
270.000000
  0
ARC
  8
0
  6
CONTINUOUS
 10
29.137501
 20
234.453125
 40
2.000000
 50
-90.000000
 51
0.000000
  0
ARC
  8
0
  6
CONTINUOUS
 10
4.137500
 20
275.453125
 40
3.500000
 50
-90.000000
 51
0.000000
  0
LINE
  8
0
  6
CONTINUOUS
 10
2.137400
 20
271.953125
 11
4.137500
 21
271.953125
  0
LINE
  8
0
  6
CONTINUOUS
 10
7.637500
 20
277.453125
 11
7.637500
 21
275.453125
  0
ARC
  8
0
  6
CONTINUOUS
 10
2.137400
 20
270.953125
 40
1.000000
 50
-270.000000
 51
-180.000000
  0
ARC
  8
0
  6
CONTINUOUS
 10
28.137501
 20
275.453125
 40
3.500000
 50
-180.000000
 51
-90.000000
  0
LINE
  8
0
  6
CONTINUOUS
 10
24.637501
 20
277.453125
 11
24.637501
 21
275.453125
  0
LINE
  8
0
  6
CONTINUOUS
 10
30.137600
 20
271.953125
 11
28.137501
 21
271.953125
  0
ARC
  8
0
  6
CONTINUOUS
 10
30.137600
 20
270.953125
 40
1.000000
 50
0.000000
 51
90.000000
  0
LINE
  8
0
  6
CONTINUOUS
 10
29.137501
 20
278.453125
 11
3.137400
 21
278.453125
  0
ARC
  8
0
  6
CONTINUOUS
 10
23.637501
 20
277.453125
 40
1.000000
 50
0.000000
 51
90.000000
  0
ARC
  8
0
  6
CONTINUOUS
 10
8.637500
 20
277.453125
 40
1.000000
 50
-270.000000
 51
-180.000000
  0
ARC
  8
0
  6
CONTINUOUS
 10
3.137400
 20
276.453125
 40
2.000000
 50
-270.000000
 51
-180.000000
  0
ARC
  8
0
  6
CONTINUOUS
 10
29.137501
 20
276.453125
 40
2.000000
 50
0.000000
 51
90.000000
  0
LINE
  8
0
  6
CONTINUOUS
 10
0.637500
 20
261.453125
 11
0.137500
 21
261.453125
  0
ARC
  8
0
  6
CONTINUOUS
 10
0.137500
 20
260.453125
 40
1.000000
 50
90.000000
 51
180.000000
  0
ARC
  8
0
  6
CONTINUOUS
 10
0.637500
 20
261.953125
 40
0.500000
 50
-90.000000
 51
0.000000
  0
LINE
  8
0
  6
CONTINUOUS
 10
0.637500
 20
249.453125
 11
0.137500
 21
249.453125
  0
ARC
  8
0
  6
CONTINUOUS
 10
0.137500
 20
250.453125
 40
1.000000
 50
-180.000000
 51
-90.000000
  0
ARC
  8
0
  6
CONTINUOUS
 10
0.637500
 20
248.953125
 40
0.500000
 50
0.000000
 51
90.000000
  0
LINE
  8
0
  6
CONTINUOUS
 10
31.637501
 20
261.453125
 11
32.137501
 21
261.453125
  0
ARC
  8
0
  6
CONTINUOUS
 10
32.137501
 20
260.453125
 40
1.000000
 50
0.000000
 51
90.000000
  0
ARC
  8
0
  6
CONTINUOUS
 10
31.637501
 20
261.953125
 40
0.500000
 50
180.000000
 51
270.000000
  0
LINE
  8
0
  6
CONTINUOUS
 10
31.637501
 20
249.453125
 11
32.137501
 21
249.453125
  0
ARC
  8
0
  6
CONTINUOUS
 10
32.137501
 20
250.453125
 40
1.000000
 50
-90.000000
 51
0.000000
  0
ARC
  8
0
  6
CONTINUOUS
 10
31.637501
 20
248.953125
 40
0.500000
 50
90.000000
 51
180.000000
  0
LINE
  8
0
  6
CONTINUOUS
 10
5.887500
 20
235.853119
 11
5.887500
 21
235.053101
  0
LINE
  8
0
  6
CONTINUOUS
 10
3.737476
 20
237.203125
 11
4.537494
 21
237.203125
  0
LINE
  8
0
  6
CONTINUOUS
 10
3.737476
 20
233.703125
 11
4.537494
 21
233.703125
  0
LINE
  8
0
  6
CONTINUOUS
 10
2.387500
 20
235.853119
 11
2.387500
 21
235.053101
  0
CIRCLE
  8
0
  6
CONTINUOUS
 10
4.137500
 20
235.453125
 40
2.750000
  0
ARC
  8
0
  6
CONTINUOUS
 10
2.387500
 20
237.203125
 40
1.350000
 50
-90.000000
 51
0.000000
  0
ARC
  8
0
  6
CONTINUOUS
 10
2.387500
 20
233.703125
 40
1.350000
 50
0.000000
 51
90.000000
  0
ARC
  8
0
  6
CONTINUOUS
 10
5.887500
 20
237.203125
 40
1.350000
 50
180.000000
 51
270.000000
  0
ARC
  8
0
  6
CONTINUOUS
 10
5.887500
 20
233.703125
 40
1.350000
 50
90.000000
 51
180.000000
  0
LINE
  8
0
  6
CONTINUOUS
 10
29.887501
 20
235.853119
 11
29.887501
 21
235.053101
  0
LINE
  8
0
  6
CONTINUOUS
 10
27.737476
 20
237.203125
 11
28.537495
 21
237.203125
  0
LINE
  8
0
  6
CONTINUOUS
 10
27.737476
 20
233.703125
 11
28.537495
 21
233.703125
  0
LINE
  8
0
  6
CONTINUOUS
 10
26.387501
 20
235.853119
 11
26.387501
 21
235.053101
  0
CIRCLE
  8
0
  6
CONTINUOUS
 10
28.137501
 20
235.453125
 40
2.750000
  0
ARC
  8
0
  6
CONTINUOUS
 10
26.387501
 20
237.203125
 40
1.350000
 50
-90.000000
 51
0.000000
  0
ARC
  8
0
  6
CONTINUOUS
 10
26.387501
 20
233.703125
 40
1.350000
 50
0.000000
 51
90.000000
  0
ARC
  8
0
  6
CONTINUOUS
 10
29.887501
 20
237.203125
 40
1.350000
 50
180.000000
 51
270.000000
  0
ARC
  8
0
  6
CONTINUOUS
 10
29.887501
 20
233.703125
 40
1.350000
 50
90.000000
 51
180.000000
  0
LINE
  8
0
  6
CONTINUOUS
 10
29.887501
 20
275.853119
 11
29.887501
 21
275.053101
  0
LINE
  8
0
  6
CONTINUOUS
 10
27.737476
 20
277.203125
 11
28.537495
 21
277.203125
  0
LINE
  8
0
  6
CONTINUOUS
 10
27.737476
 20
273.703125
 11
28.537495
 21
273.703125
  0
LINE
  8
0
  6
CONTINUOUS
 10
26.387501
 20
275.853119
 11
26.387501
 21
275.053101
  0
CIRCLE
  8
0
  6
CONTINUOUS
 10
28.137501
 20
275.453125
 40
2.750000
  0
ARC
  8
0
  6
CONTINUOUS
 10
26.387501
 20
277.203125
 40
1.350000
 50
-90.000000
 51
0.000000
  0
ARC
  8
0
  6
CONTINUOUS
 10
26.387501
 20
273.703125
 40
1.350000
 50
0.000000
 51
90.000000
  0
ARC
  8
0
  6
CONTINUOUS
 10
29.887501
 20
277.203125
 40
1.350000
 50
180.000000
 51
270.000000
  0
ARC
  8
0
  6
CONTINUOUS
 10
29.887501
 20
273.703125
 40
1.350000
 50
90.000000
 51
180.000000
  0
LINE
  8
0
  6
CONTINUOUS
 10
5.887500
 20
275.853119
 11
5.887500
 21
275.053101
  0
LINE
  8
0
  6
CONTINUOUS
 10
3.737476
 20
277.203125
 11
4.537494
 21
277.203125
  0
LINE
  8
0
  6
CONTINUOUS
 10
3.737476
 20
273.703125
 11
4.537494
 21
273.703125
  0
LINE
  8
0
  6
CONTINUOUS
 10
2.387500
 20
275.853119
 11
2.387500
 21
275.053101
  0
CIRCLE
  8
0
  6
CONTINUOUS
 10
4.137500
 20
275.453125
 40
2.750000
  0
ARC
  8
0
  6
CONTINUOUS
 10
2.387500
 20
277.203125
 40
1.350000
 50
-90.000000
 51
0.000000
  0
ARC
  8
0
  6
CONTINUOUS
 10
2.387500
 20
273.703125
 40
1.350000
 50
0.000000
 51
90.000000
  0
ARC
  8
0
  6
CONTINUOUS
 10
5.887500
 20
277.203125
 40
1.350000
 50
180.000000
 51
270.000000
  0
ARC
  8
0
  6
CONTINUOUS
 10
5.887500
 20
273.703125
 40
1.350000
 50
90.000000
 51
180.000000
  0
LINE
  8
0
  6
CONTINUOUS
 10
-16.011181
 20
251.603119
 11
-0.862380
 21
251.603119
  0
LINE
  8
0
  6
CONTINUOUS
 10
-15.159380
 20
259.303131
 11
-15.895180
 21
256.468018
  0
LINE
  8
0
  6
CONTINUOUS
 10
-15.895180
 20
256.468018
 11
-15.083080
 21
253.993027
  0
LINE
  8
0
  6
CONTINUOUS
 10
-15.083080
 20
253.993027
 11
-16.011181
 21
251.603119
  0
LINE
  8
0
  6
CONTINUOUS
 10
-15.159380
 20
259.303131
 11
-0.862380
 21
259.303131
  0
LINE
  8
0
  6
CONTINUOUS
 10
18.637501
 20
278.453125
 11
18.637501
 21
282.953125
  0
LINE
  8
0
  6
CONTINUOUS
 10
19.637501
 20
282.953125
 11
17.658489
 21
282.953125
  0
ARC
  8
0
  6
CONTINUOUS
 10
25.037531
 20
279.453125
 40
8.999999
 50
163.398987
 51
186.379364
  0
ARC
  8
0
  6
CONTINUOUS
 10
17.658489
 20
281.653137
 40
1.300000
 50
90.000000
 51
163.399094
  0
LINE
  8
0
  6
CONTINUOUS
 10
18.637501
 20
232.453125
 11
18.637501
 21
227.953125
  0
LINE
  8
0
  6
CONTINUOUS
 10
19.637501
 20
227.953125
 11
17.658489
 21
227.953125
  0
ARC
  8
0
  6
CONTINUOUS
 10
25.037531
 20
231.453125
 40
8.999999
 50
-186.379364
 51
-163.398987
  0
ARC
  8
0
  6
CONTINUOUS
 10
17.658489
 20
229.253113
 40
1.300000
 50
-163.399094
 51
-90.000000
  0
LINE
  8
0
  6
CONTINUOUS
 10
294.500000
 20
107.056122
 11
301.937500
 21
106.077499
  0
LINE
  8
0
  6
CONTINUOUS
 10
301.937500
 20
106.077499
 11
306.937500
 21
102.827499
  0
LINE
  8
0
  6
CONTINUOUS
 10
306.937500
 20
102.827499
 11
307.687500
 21
98.389999
  0
LINE
  8
0
  6
CONTINUOUS
 10
307.687500
 20
98.389999
 11
309.851593
 21
93.412498
  0
LINE
  8
0
  6
CONTINUOUS
 10
309.851593
 20
93.412498
 11
311.312500
 21
92.452499
  0
LINE
  8
0
  6
CONTINUOUS
 10
311.312500
 20
92.452499
 11
310.812500
 21
86.452499
  0
LINE
  8
0
  6
CONTINUOUS
 10
310.812500
 20
86.452499
 11
308.812500
 21
82.952499
  0
LINE
  8
0
  6
CONTINUOUS
 10
308.812500
 20
82.952499
 11
310.687500
 21
77.452499
  0
LINE
  8
0
  6
CONTINUOUS
 10
310.687500
 20
77.452499
 11
310.062500
 21
71.702499
  0
LINE
  8
0
  6
CONTINUOUS
 10
310.062500
 20
71.702499
 11
309.437500
 21
65.452499
  0
LINE
  8
0
  6
CONTINUOUS
 10
309.437500
 20
65.452499
 11
310.562500
 21
60.827499
  0
LINE
  8
0
  6
CONTINUOUS
 10
310.562500
 20
60.827499
 11
309.437500
 21
56.577499
  0
LINE
  8
0
  6
CONTINUOUS
 10
309.437500
 20
56.577499
 11
306.187500
 21
51.702499
  0
LINE
  8
0
  6
CONTINUOUS
 10
306.187500
 20
51.702499
 11
301.687500
 21
49.702499
  0
LINE
  8
0
  6
CONTINUOUS
 10
301.687500
 20
49.702499
 11
297.437500
 21
47.077499
  0
LINE
  8
0
  6
CONTINUOUS
 10
297.437500
 20
47.077499
 11
294.500000
 21
46.680542
  0
ARC
  8
0
  6
DASHED
 10
320.000000
 20
117.623703
 40
0.500000
 50
95.173981
 51
180.000000
  0
ARC
  8
0
  6
CONTINUOUS
 10
326.500000
 20
118.126747
 40
0.500000
 50
93.676804
 51
162.961609
  0
ARC
  8
0
  6
DASHED
 10
342.500000
 20
-130.859695
 40
250.000000
 50
94.598679
 51
95.173981
  0
TEXT
  8
0
 10
-25.000000
 20
-4.000000
 40
4.000000
 41
1.000000
  1
HFW-18T-10~240-S40
 50
0.000000
  0
ENDSEC
  0
EOF
