  0
SECTION
  2
HEADER
  9
$ACADVER
  1
AC1014
  9
$ACADMAINTVER
 70
     9
  9
$DWGCODEPAGE
  3
ANSI_932
  9
$INSBASE
 10
0.0
 20
0.0
 30
0.0
  9
$EXTMIN
 10
30.72263103161242
 20
45.08490652065811
 30
0.0
  9
$EXTMAX
 10
691.3057032782951
 20
368.6989229188256
 30
0.0
  9
$LIMMIN
 10
0.0
 20
0.0
  9
$LIMMAX
 10
297.0
 20
210.0
  9
$ORTHOMODE
 70
     1
  9
$REGENMODE
 70
     1
  9
$FILLMODE
 70
     1
  9
$QTEXTMODE
 70
     0
  9
$MIRRTEXT
 70
     0
  9
$DRAGMODE
 70
     2
  9
$LTSCALE
 40
2.0
  9
$OSMODE
 70
    37
  9
$ATTMODE
 70
     1
  9
$TEXTSIZE
 40
2.0
  9
$TRACEWID
 40
1.0
  9
$TEXTSTYLE
  7
STANDARD
  9
$CLAYER
  8
0
  9
$CELTYPE
  6
BYLAYER
  9
$CECOLOR
 62
   256
  9
$CELTSCALE
 40
1.0
  9
$DELOBJ
 70
     1
  9
$DISPSILH
 70
     0
  9
$DIMSCALE
 40
2.0
  9
$DIMASZ
 40
1.8
  9
$DIMEXO
 40
0.625
  9
$DIMDLI
 40
3.75
  9
$DIMRND
 40
0.0
  9
$DIMDLE
 40
0.0
  9
$DIMEXE
 40
0.8
  9
$DIMTP
 40
0.0
  9
$DIMTM
 40
0.0
  9
$DIMTXT
 40
1.8
  9
$DIMCEN
 40
2.5
  9
$DIMTSZ
 40
0.0
  9
$DIMTOL
 70
     0
  9
$DIMLIM
 70
     0
  9
$DIMTIH
 70
     0
  9
$DIMTOH
 70
     0
  9
$DIMSE1
 70
     0
  9
$DIMSE2
 70
     0
  9
$DIMTAD
 70
     1
  9
$DIMZIN
 70
     8
  9
$DIMBLK
  1

  9
$DIMASO
 70
     1
  9
$DIMSHO
 70
     1
  9
$DIMPOST
  1

  9
$DIMAPOST
  1

  9
$DIMALT
 70
     0
  9
$DIMALTD
 70
     4
  9
$DIMALTF
 40
0.0394
  9
$DIMLFAC
 40
1.0
  9
$DIMTOFL
 70
     1
  9
$DIMTVP
 40
0.0
  9
$DIMTIX
 70
     0
  9
$DIMSOXD
 70
     0
  9
$DIMSAH
 70
     0
  9
$DIMBLK1
  1

  9
$DIMBLK2
  1

  9
$DIMSTYLE
  2
STANDARD
  9
$DIMCLRD
 70
     0
  9
$DIMCLRE
 70
     0
  9
$DIMCLRT
 70
     0
  9
$DIMTFAC
 40
1.0
  9
$DIMGAP
 40
0.75
  9
$DIMJUST
 70
     0
  9
$DIMSD1
 70
     0
  9
$DIMSD2
 70
     0
  9
$DIMTOLJ
 70
     1
  9
$DIMTZIN
 70
     0
  9
$DIMALTZ
 70
     0
  9
$DIMALTTZ
 70
     0
  9
$DIMFIT
 70
     3
  9
$DIMUPT
 70
     0
  9
$DIMUNIT
 70
     8
  9
$DIMDEC
 70
     2
  9
$DIMTDEC
 70
     2
  9
$DIMALTU
 70
     8
  9
$DIMALTTD
 70
     4
  9
$DIMTXSTY
  7
STANDARD
  9
$DIMAUNIT
 70
     0
  9
$LUNITS
 70
     2
  9
$LUPREC
 70
     3
  9
$SKETCHINC
 40
1.0
  9
$FILLETRAD
 40
10.0
  9
$AUNITS
 70
     0
  9
$AUPREC
 70
     2
  9
$MENU
  1
.
  9
$ELEVATION
 40
0.0
  9
$PELEVATION
 40
0.0
  9
$THICKNESS
 40
0.0
  9
$LIMCHECK
 70
     0
  9
$BLIPMODE
 70
     0
  9
$CHAMFERA
 40
0.0
  9
$CHAMFERB
 40
0.0
  9
$CHAMFERC
 40
20.0
  9
$CHAMFERD
 40
0.0
  9
$SKPOLY
 70
     0
  9
$TDCREATE
 40
2453752.650871852
  9
$TDUPDATE
 40
2454399.552800555
  9
$TDINDWG
 40
0.2601328819
  9
$TDUSRTIMER
 40
0.2601326968
  9
$USRTIMER
 70
     1
  9
$ANGBASE
 50
0.0
  9
$ANGDIR
 70
     0
  9
$PDMODE
 70
     0
  9
$PDSIZE
 40
-10.0
  9
$PLINEWID
 40
0.0
  9
$COORDS
 70
     1
  9
$SPLFRAME
 70
     0
  9
$SPLINETYPE
 70
     6
  9
$SPLINESEGS
 70
     8
  9
$ATTDIA
 70
     0
  9
$ATTREQ
 70
     1
  9
$HANDLING
 70
-16383
  9
$HANDSEED
  5
1C9F
  9
$SURFTAB1
 70
     6
  9
$SURFTAB2
 70
     6
  9
$SURFTYPE
 70
     6
  9
$SURFU
 70
     6
  9
$SURFV
 70
     6
  9
$UCSNAME
  2

  9
$UCSORG
 10
0.0
 20
0.0
 30
0.0
  9
$UCSXDIR
 10
1.0
 20
0.0
 30
0.0
  9
$UCSYDIR
 10
0.0
 20
1.0
 30
0.0
  9
$PUCSNAME
  2

  9
$PUCSORG
 10
0.0
 20
0.0
 30
0.0
  9
$PUCSXDIR
 10
1.0
 20
0.0
 30
0.0
  9
$PUCSYDIR
 10
0.0
 20
1.0
 30
0.0
  9
$USERI1
 70
     0
  9
$USERI2
 70
     0
  9
$USERI3
 70
     0
  9
$USERI4
 70
     0
  9
$USERI5
 70
     0
  9
$USERR1
 40
0.0
  9
$USERR2
 40
0.0
  9
$USERR3
 40
0.0
  9
$USERR4
 40
0.0
  9
$USERR5
 40
0.0
  9
$WORLDVIEW
 70
     1
  9
$SHADEDGE
 70
     3
  9
$SHADEDIF
 70
    70
  9
$TILEMODE
 70
     1
  9
$MAXACTVP
 70
    48
  9
$PINSBASE
 10
0.0
 20
0.0
 30
0.0
  9
$PLIMCHECK
 70
     0
  9
$PEXTMIN
 10
0.0
 20
0.0
 30
0.0
  9
$PEXTMAX
 10
0.0
 20
0.0
 30
0.0
  9
$PLIMMIN
 10
0.0
 20
0.0
  9
$PLIMMAX
 10
12.0
 20
9.0
  9
$UNITMODE
 70
     0
  9
$VISRETAIN
 70
     1
  9
$PLINEGEN
 70
     0
  9
$PSLTSCALE
 70
     1
  9
$TREEDEPTH
 70
  3020
  9
$PICKSTYLE
 70
     1
  9
$CMLSTYLE
  2
STANDARD
  9
$CMLJUST
 70
     0
  9
$CMLSCALE
 40
1.0
  9
$PROXYGRAPHICS
 70
     1
  9
$MEASUREMENT
 70
     0
  0
ENDSEC
  0
SECTION
  2
CLASSES
  0
CLASS
  1
DICTIONARYVAR
  2
AcDbDictionaryVar
  3
AutoCAD 2000
 90
        0
280
     0
281
     0
  0
CLASS
  1
ACDBDICTIONARYWDFLT
  2
AcDbDictionaryWithDefault
  3
AutoCAD 2000
 90
        0
280
     0
281
     0
  0
CLASS
  1
ACDBPLACEHOLDER
  2
AcDbPlaceHolder
  3
AutoCAD 2000
 90
        0
280
     0
281
     0
  0
CLASS
  1
LAYOUT
  2
AcDbLayout
  3
AutoCAD 2000
 90
        0
280
     0
281
     0
  0
CLASS
  1
LONG_TRANSACTION
  2
AcDbLongTransaction
  3
AutoCAD 2000
 90
        0
280
     0
281
     0
  0
CLASS
  1
LWPOLYLINE
  2
AcDbPolyline
  3
AutoCAD 2000
 90
        0
280
     0
281
     1
  0
CLASS
  1
HATCH
  2
AcDbHatch
  3
AutoCAD 2000
 90
        0
280
     0
281
     1
  0
CLASS
  1
XRECORD
  2
AcDbXrecord
  3
AutoCAD 2000
 90
        0
280
     0
281
     0
  0
ENDSEC
  0
SECTION
  2
TABLES
  0
TABLE
  2
VPORT
  5
6E
330
0
100
AcDbSymbolTable
 70
     2
  0
VPORT
  5
1C79
330
6E
100
AcDbSymbolTableRecord
100
AcDbViewportTableRecord
  2
*ACTIVE
 70
     0
 10
0.0
 20
0.0
 11
1.0
 21
1.0
 12
354.3817269994631
 22
195.2215123265558
 13
0.0
 23
0.0
 14
10.0
 24
10.0
 15
10.0
 25
10.0
 16
0.0
 26
0.0
 36
1.0
 17
0.0
 27
0.0
 37
0.0
 40
439.5043345646073
 41
1.540920716112531
 42
50.0
 43
0.0
 44
0.0
 50
0.0
 51
0.0
 71
     0
 72
   100
 73
     1
 74
     3
 75
     0
 76
     0
 77
     0
 78
     0
  0
ENDTAB
  0
TABLE
  2
LTYPE
  5
69
330
0
100
AcDbSymbolTable
 70
     4
  0
LTYPE
  5
6A
330
69
100
AcDbSymbolTableRecord
100
AcDbLinetypeTableRecord
  2
BYBLOCK
 70
     0
  3

 72
    65
 73
     0
 40
0.0
  0
LTYPE
  5
6B
330
69
100
AcDbSymbolTableRecord
100
AcDbLinetypeTableRecord
  2
BYLAYER
 70
     0
  3

 72
    65
 73
     0
 40
0.0
  0
LTYPE
  5
8
330
69
100
AcDbSymbolTableRecord
100
AcDbLinetypeTableRecord
  2
CONTINUOUS
 70
     0
  3
Solid line
 72
    65
 73
     0
 40
0.0
  0
LTYPE
  5
27C
330
69
100
AcDbSymbolTableRecord
100
AcDbLinetypeTableRecord
  2
SEKKEI_A2_
 70
     0
  3
center(A2)  ____ _ ____ _ ____ _ ____ _ ____ _ 
 72
    65
 73
     4
 40
14.28749999999999
 49
9.525
 74
     0
 49
-1.587499999999999
 74
     0
 49
1.587499999999999
 74
     0
 49
-1.587499999999999
 74
     0
  0
LTYPE
  5
2B4
330
69
100
AcDbSymbolTableRecord
100
AcDbLinetypeTableRecord
  2
HIDDEN2
 70
     0
  3
Hidden (.5x) _ _ _ _ _ _ _ _ _ _ _ _ _ _ _ _ _
 72
    65
 73
     2
 40
4.762499999999999
 49
3.174999999999999
 74
     0
 49
-1.587499999999999
 74
     0
  0
LTYPE
  5
48F
330
69
100
AcDbSymbolTableRecord
100
AcDbLinetypeTableRecord
  2
SEKKEI_H
 70
     0
  3
Hidden-S _ _ _ _ _ _ _ _ _ _ _ _ _ _ _ _ _
 72
    65
 73
     2
 40
2.381249999999999
 49
1.587499999999999
 74
     0
 49
-0.79375
 74
     0
  0
ENDTAB
  0
TABLE
  2
LAYER
  5
66
330
0
100
AcDbSymbolTable
 70
     8
  0
LAYER
  5
5E
330
66
100
AcDbSymbolTableRecord
100
AcDbLayerTableRecord
  2
0
 70
     0
 62
     7
  6
CONTINUOUS
  0
LAYER
  5
3E
330
66
100
AcDbSymbolTableRecord
100
AcDbLayerTableRecord
  2
CENTER
 70
     0
 62
     3
  6
SEKKEI_A2_
  0
LAYER
  5
2B5
330
66
100
AcDbSymbolTableRecord
100
AcDbLayerTableRecord
  2
HIDS
 70
     0
 62
     1
  6
HIDDEN2
  0
LAYER
  5
3FA
330
66
100
AcDbSymbolTableRecord
100
AcDbLayerTableRecord
  2
TITLE
 70
     0
 62
     4
  6
CONTINUOUS
  0
ENDTAB
  0
TABLE
  2
STYLE
  5
67
330
0
100
AcDbSymbolTable
 70
     1
  0
STYLE
  5
16
330
67
100
AcDbSymbolTableRecord
100
AcDbTextStyleTableRecord
  2
STANDARD
 70
     0
 40
0.0
 41
1.0
 50
0.0
 71
     0
 42
2.0
  3
simplex.shx
  4
extfont.shx
  0
ENDTAB
  0
TABLE
  2
VIEW
  5
6C
330
0
100
AcDbSymbolTable
 70
     0
  0
ENDTAB
  0
TABLE
  2
UCS
  5
6D
330
0
100
AcDbSymbolTable
 70
     0
  0
ENDTAB
  0
TABLE
  2
APPID
  5
70
330
0
100
AcDbSymbolTable
 70
     1
  0
APPID
  5
71
330
70
100
AcDbSymbolTableRecord
100
AcDbRegAppTableRecord
  2
ACAD
 70
     0
  0
ENDTAB
  0
TABLE
  2
DIMSTYLE
  5
72
330
0
100
AcDbSymbolTable
 70
     2
  0
DIMSTYLE
105
73
330
72
100
AcDbSymbolTableRecord
100
AcDbDimStyleTableRecord
  2
STANDARD
 70
     0
  3

  4

  5

  6

  7

 40
2.0
 41
1.8
 42
0.625
 43
3.75
 44
0.8
 45
0.0
 46
0.0
 47
0.0
 48
0.0
140
1.8
141
2.5
142
0.0
143
0.0394
144
1.0
145
0.0
146
1.0
147
0.75
 71
     0
 72
     0
 73
     0
 74
     0
 75
     0
 76
     0
 77
     1
 78
     8
170
     0
171
     4
172
     1
173
     0
174
     0
175
     0
176
     0
177
     0
178
     0
270
     8
271
     2
272
     2
273
     8
274
     4
340
16
275
     0
280
     0
281
     0
282
     0
283
     1
284
     0
285
     0
286
     0
287
     3
288
     0
  0
ENDTAB
  0
TABLE
  2
BLOCK_RECORD
  5
1
330
0
100
AcDbSymbolTable
 70
    51
  0
BLOCK_RECORD
  5
2
102
{ACAD_XDICTIONARY
360
1C9B
102
}
330
1
100
AcDbSymbolTableRecord
100
AcDbBlockTableRecord
  2
*MODEL_SPACE
  0
BLOCK_RECORD
  5
1C74
102
{ACAD_XDICTIONARY
360
1C9D
102
}
330
1
100
AcDbSymbolTableRecord
100
AcDbBlockTableRecord
  2
*PAPER_SPACE
  0
ENDTAB
  0
ENDSEC
  0
SECTION
  2
BLOCKS
  0
BLOCK
  5
5D
330
2
100
AcDbEntity
  8
0
100
AcDbBlockBegin
  2
*MODEL_SPACE
 70
     0
 10
0.0
 20
0.0
 30
0.0
  3
*MODEL_SPACE
  1

  0
ENDBLK
  5
5F
330
2
100
AcDbEntity
  8
0
100
AcDbBlockEnd
  0
BLOCK
  5
1C76
330
1C74
100
AcDbEntity
 67
     1
  8
0
100
AcDbBlockBegin
  2
*PAPER_SPACE
 70
     0
 10
0.0
 20
0.0
 30
0.0
  3
*PAPER_SPACE
  1

  0
ENDBLK
  5
1C77
330
1C74
100
AcDbEntity
 67
     1
  8
0
100
AcDbBlockEnd
  0
ENDSEC
  0
SECTION
  2
ENTITIES
  0
ARC
  5
603
330
2
100
AcDbEntity
  8
0
100
AcDbCircle
 10
251.2161460316124
 20
268.6989389188257
 30
0.0
 40
2.0
100
AcDbArc
 50
270.0
 51
358.9999999999998
  0
ARC
  5
604
330
2
100
AcDbEntity
  8
0
100
AcDbCircle
 10
249.9541680316124
 20
253.6989389188257
 30
0.0
 40
3.0
100
AcDbArc
 50
270.0
 51
358.9999999999998
  0
LINE
  5
605
330
2
100
AcDbEntity
  8
0
100
AcDbLine
 10
252.9537100316124
 20
253.6465699188257
 30
0.0
 11
253.7226470316125
 21
297.6989229188257
 31
0.0
  0
ARC
  5
607
330
2
100
AcDbEntity
  8
0
100
AcDbCircle
 10
251.2161460316124
 20
326.6989229188257
 30
0.0
 40
2.0
100
AcDbArc
 50
1.000000000000156
 51
90.0
  0
ARC
  5
608
330
2
100
AcDbEntity
  8
0
100
AcDbCircle
 10
249.9541680316124
 20
341.6989229188256
 30
0.0
 40
3.0
100
AcDbArc
 50
1.000000000000156
 51
90.0
  0
LINE
  5
609
330
2
100
AcDbEntity
  8
0
100
AcDbLine
 10
252.9537100316124
 20
341.7512909188257
 30
0.0
 11
253.7226470316125
 21
297.6989229188257
 31
0.0
  0
LINE
  5
60A
330
2
100
AcDbEntity
  8
CENTER
100
AcDbLine
 10
30.72263103161242
 20
297.6989229188257
 30
0.0
 11
260.7226470316124
 21
297.6989229188257
 31
0.0
  0
ARC
  5
60B
330
2
100
AcDbEntity
  8
0
100
AcDbCircle
 10
470.305687278295
 20
58.0848965206581
 30
0.0
 40
2.0
100
AcDbArc
 50
90.0
 51
180.0
  0
ARC
  5
60C
330
2
100
AcDbEntity
  8
0
100
AcDbCircle
 10
473.3056872782951
 20
127.7854865206581
 30
0.0
 40
5.0
100
AcDbArc
 50
125.0615999999999
 51
180.0
  0
LINE
  5
60D
330
2
100
AcDbEntity
  8
0
100
AcDbLine
 10
553.305687278295
 20
52.08490652065811
 30
0.0
 11
468.305687278295
 21
52.08490652065811
 31
0.0
  0
LINE
  5
60E
330
2
100
AcDbEntity
  8
CENTER
100
AcDbLine
 10
301.8388430316124
 20
94.78490752065809
 30
0.0
 11
395.8388460316123
 21
94.78490752065809
 31
0.0
  0
ARC
  5
60F
330
2
100
AcDbEntity
  8
0
100
AcDbCircle
 10
319.8388540316124
 20
147.1783165206581
 30
0.0
 40
2.0
100
AcDbArc
 50
91.00064099999967
 51
180.0
  0
LINE
  5
610
330
2
100
AcDbEntity
  8
0
100
AcDbLine
 10
301.8388430316124
 20
52.08490652065811
 30
0.0
 11
395.8388460316123
 21
52.08490652065811
 31
0.0
  0
LINE
  5
611
330
2
100
AcDbEntity
  8
CENTER
100
AcDbLine
 10
301.8388430316124
 20
117.0849105206581
 30
0.0
 11
419.8388460316123
 21
117.0849105206581
 31
0.0
  0
LINE
  5
612
330
2
100
AcDbEntity
  8
0
100
AcDbLine
 10
308.8388430316124
 20
117.7849075206581
 30
0.0
 11
308.8388430316124
 21
72.85597652065812
 31
0.0
  0
LINE
  5
613
330
2
100
AcDbEntity
  8
0
100
AcDbLine
 10
313.8388430316124
 20
98.08490652065811
 30
0.0
 11
313.8388430316124
 21
136.0849105206581
 31
0.0
  0
ARC
  5
614
330
2
100
AcDbEntity
  8
0
100
AcDbCircle
 10
348.8388420316123
 20
94.78490752065813
 30
0.0
 40
38.0
100
AcDbArc
 50
157.0805049999997
 51
215.3343960000001
  0
LINE
  5
615
330
2
100
AcDbEntity
  8
0
100
AcDbLine
 10
317.8388540316124
 20
63.08490652065811
 30
0.0
 11
317.8388420316124
 21
147.1783095206581
 31
0.0
  0
LINE
  5
616
330
2
100
AcDbEntity
  8
HIDS
  6
SEKKEI_H
100
AcDbLine
 10
305.5888430316124
 20
60.08490652065811
 30
0.0
 11
305.5888430316124
 21
52.08490652065811
 31
0.0
  0
LINE
  5
617
330
2
100
AcDbEntity
  8
HIDS
  6
SEKKEI_H
100
AcDbLine
 10
312.0888430316123
 20
60.08490652065811
 30
0.0
 11
312.0888430316123
 21
52.08490652065811
 31
0.0
  0
LINE
  5
618
330
2
100
AcDbEntity
  8
CENTER
100
AcDbLine
 10
308.8388430316124
 20
63.5849065206581
 30
0.0
 11
308.8388430316123
 21
48.58490652065812
 31
0.0
  0
LINE
  5
619
330
2
100
AcDbEntity
  8
0
100
AcDbLine
 10
301.8388430316124
 20
58.08490652065811
 30
0.0
 11
301.8388430316124
 21
52.08490652065811
 31
0.0
  0
LINE
  5
61A
330
2
100
AcDbEntity
  8
0
100
AcDbLine
 10
310.3033130316124
 20
69.32044652065812
 30
0.0
 11
317.6324220316124
 21
61.9913265206581
 31
0.0
  0
LINE
  5
61B
330
2
100
AcDbEntity
  8
0
100
AcDbLine
 10
314.8388540316124
 20
60.08490652065811
 30
0.0
 11
303.8388430316124
 21
60.08490652065811
 31
0.0
  0
ARC
  5
61C
330
2
100
AcDbEntity
  8
0
100
AcDbCircle
 10
303.8388540316124
 20
58.08491652065811
 30
0.0
 40
2.0
100
AcDbArc
 50
90.0
 51
180.0
  0
ARC
  5
61D
330
2
100
AcDbEntity
  8
0
100
AcDbCircle
 10
314.8388420316123
 20
63.0848965206581
 30
0.0
 40
3.0
100
AcDbArc
 50
270.0
 51
0.0
  0
ARC
  5
61E
330
2
100
AcDbEntity
  8
0
100
AcDbCircle
 10
313.8388240316123
 20
72.85600752065811
 30
0.0
 40
5.0
100
AcDbArc
 50
180.0
 51
225.0003970000001
  0
ARC
  5
61F
330
2
100
AcDbEntity
  8
0
100
AcDbCircle
 10
314.8388420316123
 20
98.08490252065812
 30
0.0
 40
1.0
100
AcDbArc
 50
180.0
 51
270.0
  0
LINE
  5
620
330
2
100
AcDbEntity
  8
0
100
AcDbLine
 10
314.8388420316123
 20
97.08490652065812
 30
0.0
 11
315.8428380296072
 21
97.08490652065812
 31
0.0
  0
ARC
  5
621
330
2
100
AcDbEntity
  8
0
100
AcDbCircle
 10
311.8388620316124
 20
117.7849295206581
 30
0.0
 40
3.0
100
AcDbArc
 50
90.0
 51
180.0
  0
LINE
  5
622
330
2
100
AcDbEntity
  8
0
100
AcDbLine
 10
311.8388430316124
 20
120.7849075206581
 30
0.0
 11
313.8388430316124
 21
120.7849075206581
 31
0.0
  0
ARC
  5
623
330
2
100
AcDbEntity
  8
0
100
AcDbCircle
 10
314.8388420316123
 20
136.0849105206581
 30
0.0
 40
1.0
100
AcDbArc
 50
90.0
 51
180.0
  0
LINE
  5
624
330
2
100
AcDbEntity
  8
0
100
AcDbLine
 10
314.8388420316123
 20
137.0849105206581
 30
0.0
 11
315.8388380316122
 21
137.0849105206581
 31
0.0
  0
LINE
  5
625
330
2
100
AcDbEntity
  8
0
100
AcDbLine
 10
468.305687278295
 20
127.7854865206581
 30
0.0
 11
468.305687278295
 21
52.08490652065811
 31
0.0
  0
LINE
  5
626
330
2
100
AcDbEntity
  8
0
100
AcDbLine
 10
388.8388460316123
 20
71.78490752065811
 30
0.0
 11
388.8388460316123
 21
109.5849105206581
 31
0.0
  0
ARC
  5
627
330
2
100
AcDbEntity
  8
0
100
AcDbCircle
 10
348.8388420316123
 20
94.78490752065813
 30
0.0
 40
38.0
100
AcDbArc
 50
324.7999000000002
 51
21.29424099999966
  0
LINE
  5
628
330
2
100
AcDbEntity
  8
0
100
AcDbLine
 10
383.8388460316124
 20
98.08490652065811
 30
0.0
 11
383.8388460316124
 21
136.0849105206581
 31
0.0
  0
LINE
  5
629
330
2
100
AcDbEntity
  8
0
100
AcDbLine
 10
379.8388460316123
 20
63.08490652065811
 30
0.0
 11
379.8388460316123
 21
147.1784165206581
 31
0.0
  0
LINE
  5
62A
330
2
100
AcDbEntity
  8
CENTER
100
AcDbLine
 10
348.8388420316123
 20
45.08490652065815
 30
0.0
 11
348.8388420316123
 21
170.6724055206581
 31
0.0
  0
LINE
  5
62B
330
2
100
AcDbEntity
  8
0
100
AcDbLine
 10
382.8388460316123
 20
60.08490652065811
 30
0.0
 11
393.8388460316123
 21
60.08490652065811
 31
0.0
  0
LINE
  5
62C
330
2
100
AcDbEntity
  8
HIDS
  6
SEKKEI_H
100
AcDbLine
 10
385.5888460316123
 20
60.08490652065811
 30
0.0
 11
385.5888460316123
 21
52.08490652065811
 31
0.0
  0
LINE
  5
62D
330
2
100
AcDbEntity
  8
CENTER
100
AcDbLine
 10
388.8388460316123
 20
63.5849065206581
 30
0.0
 11
388.8388460316123
 21
48.58490652065812
 31
0.0
  0
ARC
  5
62E
330
2
100
AcDbEntity
  8
0
100
AcDbCircle
 10
382.8388460316123
 20
63.08490652065811
 30
0.0
 40
3.0
100
AcDbArc
 50
180.0
 51
270.0
  0
LINE
  5
62F
330
2
100
AcDbEntity
  8
0
100
AcDbLine
 10
379.8388460316123
 20
66.38793652065811
 30
0.0
 11
382.2358040316123
 21
68.78490752065811
 31
0.0
  0
ARC
  5
630
330
2
100
AcDbEntity
  8
0
100
AcDbCircle
 10
385.8388460316124
 20
71.78489552065811
 30
0.0
 40
3.0
100
AcDbArc
 50
270.0
 51
0.0
  0
LINE
  5
631
330
2
100
AcDbEntity
  8
0
100
AcDbLine
 10
385.8388460316124
 20
68.78490752065811
 30
0.0
 11
382.2358040316123
 21
68.78490752065811
 31
0.0
  0
LINE
  5
632
330
2
100
AcDbEntity
  8
0
100
AcDbLine
 10
382.8388460316123
 20
97.08490652065812
 30
0.0
 11
381.8348460336175
 21
97.08490652065812
 31
0.0
  0
ARC
  5
633
330
2
100
AcDbEntity
  8
0
100
AcDbCircle
 10
382.8388460316123
 20
98.08490252065812
 30
0.0
 40
1.0
100
AcDbArc
 50
270.0
 51
0.0
  0
LINE
  5
634
330
2
100
AcDbEntity
  8
HIDS
  6
SEKKEI_H
100
AcDbLine
 10
392.0888460316124
 20
60.08490652065811
 30
0.0
 11
392.0888460316124
 21
52.08490652065811
 31
0.0
  0
LINE
  5
635
330
2
100
AcDbEntity
  8
0
100
AcDbLine
 10
395.8388460316123
 20
58.08490652065811
 30
0.0
 11
395.8388460316123
 21
52.08490652065811
 31
0.0
  0
ARC
  5
636
330
2
100
AcDbEntity
  8
0
100
AcDbCircle
 10
393.8388620316123
 20
58.0848965206581
 30
0.0
 40
2.0
100
AcDbArc
 50
0.0
 51
90.0
  0
ARC
  5
637
330
2
100
AcDbEntity
  8
0
100
AcDbCircle
 10
391.3388460316123
 20
117.0849105206581
 30
0.0
 40
2.5
100
AcDbArc
 50
180.0
 51
270.0
  0
ARC
  5
638
330
2
100
AcDbEntity
  8
0
100
AcDbCircle
 10
391.3388230316123
 20
117.0848945206581
 30
0.0
 40
2.5
100
AcDbArc
 50
90.0
 51
180.0
  0
LINE
  5
639
330
2
100
AcDbEntity
  8
0
100
AcDbLine
 10
412.8388460316124
 20
109.5849105206581
 30
0.0
 11
385.8388460316124
 21
109.5849105206581
 31
0.0
  0
LINE
  5
63A
330
2
100
AcDbEntity
  8
0
100
AcDbLine
 10
412.8388460316124
 20
124.5849105206581
 30
0.0
 11
385.8388460316124
 21
124.5849105206581
 31
0.0
  0
ARC
  5
63B
330
2
100
AcDbEntity
  8
0
100
AcDbCircle
 10
377.8388540316124
 20
147.1784165206581
 30
0.0
 40
2.0
100
AcDbArc
 50
0.0
 51
89.00013700000007
  0
LINE
  5
63C
330
2
100
AcDbEntity
  8
0
100
AcDbLine
 10
319.1646540316123
 20
130.3849135206581
 30
0.0
 11
378.4592840316124
 21
130.3849135206581
 31
0.0
  0
LINE
  5
63D
330
2
100
AcDbEntity
  8
0
100
AcDbLine
 10
385.8388460316124
 20
125.5849105206581
 30
0.0
 11
385.8388460316124
 21
108.5849105206581
 31
0.0
  0
LINE
  5
63E
330
2
100
AcDbEntity
  8
0
100
AcDbLine
 10
383.8388460316124
 20
108.5849105206581
 30
0.0
 11
385.8388460316124
 21
108.5849105206581
 31
0.0
  0
LINE
  5
63F
330
2
100
AcDbEntity
  8
0
100
AcDbLine
 10
383.8388460316124
 20
125.5849105206581
 30
0.0
 11
385.8388460316124
 21
125.5849105206581
 31
0.0
  0
LINE
  5
640
330
2
100
AcDbEntity
  8
0
100
AcDbLine
 10
382.8388460316123
 20
137.0849105206581
 30
0.0
 11
381.8388460316125
 21
137.0849105206581
 31
0.0
  0
ARC
  5
641
330
2
100
AcDbEntity
  8
0
100
AcDbCircle
 10
382.8388460316123
 20
136.0849105206581
 30
0.0
 40
1.0
100
AcDbArc
 50
0.0
 51
90.0
  0
LINE
  5
642
330
2
100
AcDbEntity
  8
0
100
AcDbLine
 10
377.8737430316123
 20
149.1781185206581
 30
0.0
 11
348.8388420316123
 21
149.6849165206581
 31
0.0
  0
LINE
  5
643
330
2
100
AcDbEntity
  8
0
100
AcDbLine
 10
319.8039320316123
 20
149.1780045206581
 30
0.0
 11
348.8388420316123
 21
149.6849165206581
 31
0.0
  0
LINE
  5
644
330
2
100
AcDbEntity
  8
0
100
AcDbLine
 10
412.8388460316124
 20
124.5849105206581
 30
0.0
 11
412.8388460316124
 21
109.5849105206581
 31
0.0
  0
LINE
  5
645
330
2
100
AcDbEntity
  8
0
100
AcDbLine
 10
412.8388460316124
 20
114.5849105206581
 30
0.0
 11
391.3388620316124
 21
114.5849105206581
 31
0.0
  0
LINE
  5
646
330
2
100
AcDbEntity
  8
0
100
AcDbLine
 10
412.8388460316124
 20
119.5849105206581
 30
0.0
 11
391.3388230316123
 21
119.5849105206581
 31
0.0
  0
LINE
  5
648
330
2
100
AcDbEntity
  8
0
100
AcDbLine
 10
554.016884278295
 20
64.53590652065812
 30
0.0
 11
625.8057032782951
 21
64.53590652065812
 31
0.0
  0
LINE
  5
649
330
2
100
AcDbEntity
  8
0
100
AcDbLine
 10
553.689782278295
 20
125.0339075206581
 30
0.0
 11
625.8057032782951
 21
125.0339075206581
 31
0.0
  0
LINE
  5
64A
330
2
100
AcDbEntity
  8
0
100
AcDbLine
 10
625.8057032782951
 20
56.78490652065811
 30
0.0
 11
553.305687278295
 21
56.78490652065811
 31
0.0
  0
LINE
  5
64B
330
2
100
AcDbEntity
  8
0
100
AcDbLine
 10
625.8057032782951
 20
132.7849075206581
 30
0.0
 11
549.8859942782951
 21
132.7849075206581
 31
0.0
  0
LINE
  5
64C
330
2
100
AcDbEntity
  8
CENTER
100
AcDbLine
 10
691.3057032782951
 20
94.78490752065813
 30
0.0
 11
537.622994278295
 21
94.78490752065813
 31
0.0
  0
CIRCLE
  5
64D
330
2
100
AcDbEntity
  8
0
100
AcDbCircle
 10
510.8056872782951
 20
117.0849105206581
 30
0.0
 40
20.0
  0
LINE
  5
64E
330
2
100
AcDbEntity
  8
CENTER
100
AcDbLine
 10
510.8056872782951
 20
156.6849085206581
 30
0.0
 11
510.8056872782951
 21
45.08490652065811
 31
0.0
  0
LINE
  5
64F
330
2
100
AcDbEntity
  8
0
100
AcDbLine
 10
553.305687278295
 20
127.7855095206581
 30
0.0
 11
553.305687278295
 21
52.08490652065811
 31
0.0
  0
LINE
  5
650
330
2
100
AcDbEntity
  8
0
100
AcDbLine
 10
551.305687278295
 20
60.08490652065811
 30
0.0
 11
470.305687278295
 21
60.08490652065811
 31
0.0
  0
LINE
  5
651
330
2
100
AcDbEntity
  8
HIDS
  6
SEKKEI_H
100
AcDbLine
 10
480.0556872782951
 20
60.08490652065811
 30
0.0
 11
480.0556872782951
 21
52.08490652065811
 31
0.0
  0
LINE
  5
652
330
2
100
AcDbEntity
  8
HIDS
  6
SEKKEI_H
100
AcDbLine
 10
473.555687278295
 20
60.08490652065811
 30
0.0
 11
473.555687278295
 21
52.08490652065811
 31
0.0
  0
LINE
  5
653
330
2
100
AcDbEntity
  8
CENTER
100
AcDbLine
 10
476.805687278295
 20
63.58490652065809
 30
0.0
 11
476.8056872782952
 21
48.5849065206581
 31
0.0
  0
LINE
  5
654
330
2
100
AcDbEntity
  8
0
100
AcDbLine
 10
501.840889278295
 20
86.63812552065811
 30
0.0
 11
504.430687278295
 21
86.63812552065811
 31
0.0
  0
LINE
  5
655
330
2
100
AcDbEntity
  8
0
100
AcDbLine
 10
503.509285278295
 20
81.0849065206581
 30
0.0
 11
504.430687278295
 21
81.0849065206581
 31
0.0
  0
LINE
  5
656
330
2
100
AcDbEntity
  8
0
100
AcDbLine
 10
503.509285278295
 20
88.65521852065811
 30
0.0
 11
504.430687278295
 21
88.65521852065811
 31
0.0
  0
LINE
  5
657
330
2
100
AcDbEntity
  8
0
100
AcDbLine
 10
503.499688278295
 20
90.64740652065811
 30
0.0
 11
504.430687278295
 21
89.61426452065811
 31
0.0
  0
LINE
  5
658
330
2
100
AcDbEntity
  8
0
100
AcDbLine
 10
499.126488278295
 20
88.48488452065812
 30
0.0
 11
499.126488278295
 21
82.97581752065811
 31
0.0
  0
LINE
  5
659
330
2
100
AcDbEntity
  8
0
100
AcDbLine
 10
498.055687278295
 20
89.16540452065811
 30
0.0
 11
498.055687278295
 21
82.32575452065811
 31
0.0
  0
ARC
  5
65A
330
2
100
AcDbEntity
  8
0
100
AcDbCircle
 10
501.5170832782951
 20
84.19768752065811
 30
0.0
 40
1.992186999999999
100
AcDbArc
 50
270.0002139999998
 51
0.0001089999998967
  0
LINE
  5
65B
330
2
100
AcDbEntity
  8
0
100
AcDbLine
 10
498.055687278295
 20
82.32575452065811
 30
0.0
 11
499.2854852782951
 21
81.0849065206581
 31
0.0
  0
LINE
  5
65C
330
2
100
AcDbEntity
  8
0
100
AcDbLine
 10
499.2854852782951
 20
81.0849065206581
 30
0.0
 11
502.6007922782951
 21
81.0849065206581
 31
0.0
  0
LINE
  5
65D
330
2
100
AcDbEntity
  8
0
100
AcDbLine
 10
503.509285278295
 20
81.84716652065811
 30
0.0
 11
502.6007922782951
 21
81.0849065206581
 31
0.0
  0
LINE
  5
65E
330
2
100
AcDbEntity
  8
0
100
AcDbLine
 10
503.509285278295
 20
81.84716652065811
 30
0.0
 11
503.509285278295
 21
81.0849065206581
 31
0.0
  0
LINE
  5
65F
330
2
100
AcDbEntity
  8
0
100
AcDbLine
 10
501.5170832782951
 20
82.20550852065811
 30
0.0
 11
499.8577812782951
 21
82.20550852065811
 31
0.0
  0
LINE
  5
660
330
2
100
AcDbEntity
  8
0
100
AcDbLine
 10
499.126488278295
 20
82.97581752065811
 30
0.0
 11
499.8577812782951
 21
82.20550852065811
 31
0.0
  0
LINE
  5
661
330
2
100
AcDbEntity
  8
0
100
AcDbLine
 10
501.840889278295
 20
86.63812552065811
 30
0.0
 11
501.840889278295
 21
85.59222652065811
 31
0.0
  0
LINE
  5
662
330
2
100
AcDbEntity
  8
0
100
AcDbLine
 10
503.509285278295
 20
85.59222652065811
 30
0.0
 11
503.509285278295
 21
84.19768752065811
 31
0.0
  0
LINE
  5
663
330
2
100
AcDbEntity
  8
0
100
AcDbLine
 10
503.509285278295
 20
84.59613652065812
 30
0.0
 11
503.509285278295
 21
85.39300852065812
 31
0.0
  0
LINE
  5
664
330
2
100
AcDbEntity
  8
0
100
AcDbLine
 10
503.509285278295
 20
85.59222652065811
 30
0.0
 11
501.840889278295
 21
85.59222652065811
 31
0.0
  0
LINE
  5
665
330
2
100
AcDbEntity
  8
0
100
AcDbLine
 10
499.213082278295
 20
90.64740652065811
 30
0.0
 11
503.499688278295
 21
90.64740652065811
 31
0.0
  0
LINE
  5
666
330
2
100
AcDbEntity
  8
0
100
AcDbLine
 10
502.918190278295
 20
89.37738652065812
 30
0.0
 11
499.8462912782951
 21
89.37738652065812
 31
0.0
  0
LINE
  5
667
330
2
100
AcDbEntity
  8
0
100
AcDbLine
 10
499.213082278295
 20
90.64740652065811
 30
0.0
 11
498.055687278295
 21
89.16540452065811
 31
0.0
  0
LINE
  5
668
330
2
100
AcDbEntity
  8
0
100
AcDbLine
 10
499.8462912782951
 20
89.37738652065812
 30
0.0
 11
499.126488278295
 21
88.48488452065812
 31
0.0
  0
LINE
  5
669
330
2
100
AcDbEntity
  8
0
100
AcDbLine
 10
503.509285278295
 20
88.80593752065811
 30
0.0
 11
503.509285278295
 21
88.65521852065811
 31
0.0
  0
LINE
  5
66A
330
2
100
AcDbEntity
  8
0
100
AcDbLine
 10
503.509285278295
 20
88.80593752065811
 30
0.0
 11
502.906090278295
 21
89.37738652065812
 31
0.0
  0
LINE
  5
66B
330
2
100
AcDbEntity
  8
0
100
AcDbLine
 10
522.086495278295
 20
81.0849065206581
 30
0.0
 11
523.555687278295
 21
81.0849065206581
 31
0.0
  0
LINE
  5
66C
330
2
100
AcDbEntity
  8
0
100
AcDbLine
 10
522.086495278295
 20
82.08099652065811
 30
0.0
 11
522.285088278295
 21
82.08099652065811
 31
0.0
  0
LINE
  5
66D
330
2
100
AcDbEntity
  8
0
100
AcDbLine
 10
520.7899862782951
 20
85.5548735206581
 30
0.0
 11
522.285088278295
 21
82.08099652065811
 31
0.0
  0
LINE
  5
66E
330
2
100
AcDbEntity
  8
0
100
AcDbLine
 10
521.707482278295
 20
85.64152052065811
 30
0.0
 11
523.2873922782951
 21
82.08099652065811
 31
0.0
  0
ARC
  5
66F
330
2
100
AcDbEntity
  8
0
100
AcDbCircle
 10
521.003182278295
 20
88.0949165206581
 30
0.0
 40
1.557193
100
AcDbArc
 50
277.4147260000004
 51
62.41184999999949
  0
ARC
  5
670
330
2
100
AcDbEntity
  8
0
100
AcDbCircle
 10
521.003182278295
 20
88.0949165206581
 30
0.0
 40
2.55249
100
AcDbArc
 50
286.0181269999995
 51
90.00350999999964
  0
LINE
  5
671
330
2
100
AcDbEntity
  8
0
100
AcDbLine
 10
518.749489278295
 20
89.47699652065811
 30
0.0
 11
518.749489278295
 21
86.55073852065811
 31
0.0
  0
LINE
  5
672
330
2
100
AcDbEntity
  8
0
100
AcDbLine
 10
517.6537862782951
 20
89.47699652065811
 30
0.0
 11
517.6537862782951
 21
82.08099652065811
 31
0.0
  0
LINE
  5
673
330
2
100
AcDbEntity
  8
0
100
AcDbLine
 10
511.378487278295
 20
89.47699652065811
 30
0.0
 11
511.378487278295
 21
82.1307975206581
 31
0.0
  0
LINE
  5
674
330
2
100
AcDbEntity
  8
0
100
AcDbLine
 10
510.183083278295
 20
89.47699652065811
 30
0.0
 11
510.183083278295
 21
82.1307975206581
 31
0.0
  0
LINE
  5
675
330
2
100
AcDbEntity
  8
0
100
AcDbLine
 10
511.7768942782951
 20
82.1307975206581
 30
0.0
 11
511.7768942782951
 21
81.0849065206581
 31
0.0
  0
LINE
  5
676
330
2
100
AcDbEntity
  8
0
100
AcDbLine
 10
509.7099842782951
 20
82.1307975206581
 30
0.0
 11
509.7099842782951
 21
81.0849065206581
 31
0.0
  0
LINE
  5
677
330
2
100
AcDbEntity
  8
0
100
AcDbLine
 10
504.430687278295
 20
86.63812552065811
 30
0.0
 11
504.430687278295
 21
81.0849065206581
 31
0.0
  0
LINE
  5
678
330
2
100
AcDbEntity
  8
0
100
AcDbLine
 10
509.7099842782951
 20
81.0849065206581
 30
0.0
 11
511.7768942782951
 21
81.0849065206581
 31
0.0
  0
LINE
  5
679
330
2
100
AcDbEntity
  8
0
100
AcDbLine
 10
509.7099842782951
 20
82.1307975206581
 30
0.0
 11
510.183083278295
 21
82.1307975206581
 31
0.0
  0
LINE
  5
67A
330
2
100
AcDbEntity
  8
0
100
AcDbLine
 10
511.378487278295
 20
82.1307975206581
 30
0.0
 11
511.7768942782951
 21
82.1307975206581
 31
0.0
  0
LINE
  5
67B
330
2
100
AcDbEntity
  8
0
100
AcDbLine
 10
517.180687278295
 20
82.08099652065811
 30
0.0
 11
517.180687278295
 21
81.0849065206581
 31
0.0
  0
LINE
  5
67C
330
2
100
AcDbEntity
  8
0
100
AcDbLine
 10
519.185296278295
 20
82.08099652065811
 30
0.0
 11
519.185296278295
 21
81.0849065206581
 31
0.0
  0
LINE
  5
67D
330
2
100
AcDbEntity
  8
0
100
AcDbLine
 10
522.086495278295
 20
82.08099652065811
 30
0.0
 11
522.086495278295
 21
81.0849065206581
 31
0.0
  0
LINE
  5
67E
330
2
100
AcDbEntity
  8
0
100
AcDbLine
 10
519.185296278295
 20
81.0849065206581
 30
0.0
 11
517.180687278295
 21
81.0849065206581
 31
0.0
  0
LINE
  5
67F
330
2
100
AcDbEntity
  8
0
100
AcDbLine
 10
517.180687278295
 20
82.08099652065811
 30
0.0
 11
517.6537862782951
 21
82.08099652065811
 31
0.0
  0
LINE
  5
680
330
2
100
AcDbEntity
  8
0
100
AcDbLine
 10
518.749489278295
 20
85.5548735206581
 30
0.0
 11
520.7899862782951
 21
85.5548735206581
 31
0.0
  0
LINE
  5
681
330
2
100
AcDbEntity
  8
0
100
AcDbLine
 10
518.749489278295
 20
86.55073852065811
 30
0.0
 11
521.2041862782951
 21
86.55073852065811
 31
0.0
  0
LINE
  5
682
330
2
100
AcDbEntity
  8
0
100
AcDbLine
 10
518.749489278295
 20
82.08099652065811
 30
0.0
 11
519.185296278295
 21
82.08099652065811
 31
0.0
  0
LINE
  5
683
330
2
100
AcDbEntity
  8
0
100
AcDbLine
 10
518.749489278295
 20
85.5548735206581
 30
0.0
 11
518.749489278295
 21
82.08099652065811
 31
0.0
  0
LINE
  5
684
330
2
100
AcDbEntity
  8
0
100
AcDbLine
 10
513.039483278295
 20
89.47699652065811
 30
0.0
 11
513.328194278295
 21
88.65521852065811
 31
0.0
  0
LINE
  5
685
330
2
100
AcDbEntity
  8
0
100
AcDbLine
 10
507.618187278295
 20
90.64740652065811
 30
0.0
 11
513.993187278295
 21
90.64740652065811
 31
0.0
  0
LINE
  5
686
330
2
100
AcDbEntity
  8
0
100
AcDbLine
 10
510.183083278295
 20
89.47699652065811
 30
0.0
 11
508.6682822782949
 21
89.47699652065811
 31
0.0
  0
LINE
  5
687
330
2
100
AcDbEntity
  8
0
100
AcDbLine
 10
508.6682822782949
 20
89.47699652065811
 30
0.0
 11
508.325783278295
 21
88.65521852065811
 31
0.0
  0
LINE
  5
688
330
2
100
AcDbEntity
  8
0
100
AcDbLine
 10
507.618187278295
 20
88.65521852065811
 30
0.0
 11
508.325783278295
 21
88.65521852065811
 31
0.0
  0
LINE
  5
689
330
2
100
AcDbEntity
  8
0
100
AcDbLine
 10
504.430687278295
 20
89.61426452065811
 30
0.0
 11
504.430687278295
 21
88.65521852065811
 31
0.0
  0
LINE
  5
68A
330
2
100
AcDbEntity
  8
0
100
AcDbLine
 10
507.618187278295
 20
88.65521852065811
 30
0.0
 11
507.618187278295
 21
90.64740652065811
 31
0.0
  0
LINE
  5
68B
330
2
100
AcDbEntity
  8
0
100
AcDbLine
 10
511.378487278295
 20
89.47699652065811
 30
0.0
 11
513.039483278295
 21
89.47699652065811
 31
0.0
  0
LINE
  5
68C
330
2
100
AcDbEntity
  8
0
100
AcDbLine
 10
517.180687278295
 20
89.47699652065811
 30
0.0
 11
517.6537862782951
 21
89.47699652065811
 31
0.0
  0
LINE
  5
68D
330
2
100
AcDbEntity
  8
0
100
AcDbLine
 10
517.180687278295
 20
90.64740652065811
 30
0.0
 11
521.003182278295
 21
90.64740652065811
 31
0.0
  0
LINE
  5
68E
330
2
100
AcDbEntity
  8
0
100
AcDbLine
 10
517.180687278295
 20
90.64740652065811
 30
0.0
 11
517.180687278295
 21
89.47699652065811
 31
0.0
  0
LINE
  5
68F
330
2
100
AcDbEntity
  8
0
100
AcDbLine
 10
513.328194278295
 20
88.65521852065811
 30
0.0
 11
513.993187278295
 21
88.65521852065811
 31
0.0
  0
LINE
  5
690
330
2
100
AcDbEntity
  8
0
100
AcDbLine
 10
513.993187278295
 20
88.65521852065811
 30
0.0
 11
513.993187278295
 21
90.64740652065811
 31
0.0
  0
LINE
  5
691
330
2
100
AcDbEntity
  8
0
100
AcDbLine
 10
518.749489278295
 20
89.47699652065811
 30
0.0
 11
521.7243892782951
 21
89.47505852065811
 31
0.0
  0
LINE
  5
692
330
2
100
AcDbEntity
  8
0
100
AcDbLine
 10
523.555687278295
 20
82.08099652065811
 30
0.0
 11
523.555687278295
 21
81.0849065206581
 31
0.0
  0
LINE
  5
693
330
2
100
AcDbEntity
  8
0
100
AcDbLine
 10
523.2873922782951
 20
82.08099652065811
 30
0.0
 11
523.555687278295
 21
82.08099652065811
 31
0.0
  0
LINE
  5
694
330
2
100
AcDbEntity
  8
HIDS
  6
SEKKEI_H
100
AcDbLine
 10
548.055687278295
 20
60.08490652065811
 30
0.0
 11
548.055687278295
 21
52.08490652065811
 31
0.0
  0
LINE
  5
695
330
2
100
AcDbEntity
  8
HIDS
  6
SEKKEI_H
100
AcDbLine
 10
541.555687278295
 20
60.08490652065811
 30
0.0
 11
541.555687278295
 21
52.08490652065811
 31
0.0
  0
LINE
  5
696
330
2
100
AcDbEntity
  8
CENTER
100
AcDbLine
 10
544.8056872782951
 20
63.5849065206581
 30
0.0
 11
544.8056872782951
 21
48.58490652065809
 31
0.0
  0
ARC
  5
697
330
2
100
AcDbEntity
  8
0
100
AcDbCircle
 10
551.305687278295
 20
58.08491652065811
 30
0.0
 40
2.0
100
AcDbArc
 50
0.0
 51
90.0
  0
LINE
  5
698
330
2
100
AcDbEntity
  8
0
100
AcDbLine
 10
551.177987278295
 20
131.8781685206581
 30
0.0
 11
527.098595278295
 21
148.7775605206581
 31
0.0
  0
LINE
  5
699
330
2
100
AcDbEntity
  8
CENTER
100
AcDbLine
 10
537.805687278295
 20
117.0849105206581
 30
0.0
 11
483.805687278295
 21
117.0849105206581
 31
0.0
  0
LINE
  5
69A
330
2
100
AcDbEntity
  8
0
100
AcDbLine
 10
470.433388278295
 20
131.8781685206581
 30
0.0
 11
494.512886278295
 21
148.7775675206581
 31
0.0
  0
ARC
  5
69B
330
2
100
AcDbEntity
  8
0
100
AcDbCircle
 10
510.8056872782951
 20
117.0849105206581
 30
0.0
 40
7.5
100
AcDbArc
 50
199.4712070000002
 51
160.5287929999997
  0
LINE
  5
69C
330
2
100
AcDbEntity
  8
0
100
AcDbLine
 10
506.305687278295
 20
114.5849105206581
 30
0.0
 11
501.305687278295
 21
114.5849105206581
 31
0.0
  0
LINE
  5
69D
330
2
100
AcDbEntity
  8
0
100
AcDbLine
 10
506.305687278295
 20
119.5849105206581
 30
0.0
 11
501.305687278295
 21
119.5849105206581
 31
0.0
  0
LINE
  5
69E
330
2
100
AcDbEntity
  8
0
100
AcDbLine
 10
501.305687278295
 20
119.5849105206581
 30
0.0
 11
501.305687278295
 21
114.5849105206581
 31
0.0
  0
LINE
  5
69F
330
2
100
AcDbEntity
  8
0
100
AcDbLine
 10
506.305687278295
 20
114.5849105206581
 30
0.0
 11
506.305687278295
 21
119.5849105206581
 31
0.0
  0
LINE
  5
6A0
330
2
100
AcDbEntity
  8
0
100
AcDbLine
 10
524.2261892782951
 20
149.684908520658
 30
0.0
 11
497.385186278295
 21
149.684908520658
 31
0.0
  0
ARC
  5
6A1
330
2
100
AcDbEntity
  8
0
100
AcDbCircle
 10
497.385094278295
 20
144.6848935206581
 30
0.0
 40
5.0
100
AcDbArc
 50
90.0
 51
125.0615999999999
  0
ARC
  5
6A2
330
2
100
AcDbEntity
  8
0
100
AcDbCircle
 10
524.2261892782951
 20
144.6849165206581
 30
0.0
 40
5.0
100
AcDbArc
 50
54.93780099999962
 51
90.0
  0
ARC
  5
6A3
330
2
100
AcDbEntity
  8
0
100
AcDbCircle
 10
548.3056872782951
 20
127.785525520658
 30
0.0
 40
5.0
100
AcDbArc
 50
0.0
 51
54.93769800000007
  0
LINE
  5
6A4
330
2
100
AcDbEntity
  8
0
100
AcDbLine
 10
684.3057032782951
 20
59.78490752065811
 30
0.0
 11
684.3057032782951
 21
129.7849075206581
 31
0.0
  0
LINE
  5
6A5
330
2
100
AcDbEntity
  8
0
100
AcDbLine
 10
635.3057032782951
 20
54.78490652065811
 30
0.0
 11
635.3057032782951
 21
134.7849075206581
 31
0.0
  0
LINE
  5
6A6
330
2
100
AcDbEntity
  8
0
100
AcDbLine
 10
625.8057032782951
 20
56.78490652065811
 30
0.0
 11
625.8057032782951
 21
132.7849075206581
 31
0.0
  0
ARC
  5
6A7
330
2
100
AcDbEntity
  8
0
100
AcDbCircle
 10
679.3057032782951
 20
59.78490752065811
 30
0.0
 40
5.0
100
AcDbArc
 50
270.0
 51
0.0
  0
LINE
  5
6A8
330
2
100
AcDbEntity
  8
0
100
AcDbLine
 10
681.8057032782951
 20
68.78490752065811
 30
0.0
 11
635.3057032782951
 21
68.78490752065811
 31
0.0
  0
LINE
  5
6A9
330
2
100
AcDbEntity
  8
0
100
AcDbLine
 10
679.3057032782951
 20
54.78490652065811
 30
0.0
 11
635.3057032782951
 21
54.78490652065811
 31
0.0
  0
LINE
  5
6AA
330
2
100
AcDbEntity
  8
0
100
AcDbLine
 10
635.3057032782951
 20
64.53590652065812
 30
0.0
 11
625.8057032782951
 21
64.53590652065812
 31
0.0
  0
LINE
  5
6AB
330
2
100
AcDbEntity
  8
0
100
AcDbLine
 10
635.3057032782951
 20
56.78490652065811
 30
0.0
 11
625.8057032782951
 21
56.78490652065811
 31
0.0
  0
ARC
  5
6AC
330
2
100
AcDbEntity
  8
0
100
AcDbCircle
 10
679.3057032782951
 20
129.7849295206581
 30
0.0
 40
5.0
100
AcDbArc
 50
0.0
 51
90.0
  0
LINE
  5
6AF
330
2
100
AcDbEntity
  8
0
100
AcDbLine
 10
681.8057032782951
 20
118.7849075206581
 30
0.0
 11
635.3057032782951
 21
118.7849075206581
 31
0.0
  0
LINE
  5
6B0
330
2
100
AcDbEntity
  8
0
100
AcDbLine
 10
679.3057032782951
 20
134.7849075206581
 30
0.0
 11
635.3057032782951
 21
134.7849075206581
 31
0.0
  0
LINE
  5
6B1
330
2
100
AcDbEntity
  8
0
100
AcDbLine
 10
635.3057032782951
 20
125.0339075206581
 30
0.0
 11
625.8057032782951
 21
125.0339075206581
 31
0.0
  0
LINE
  5
6B3
330
2
100
AcDbEntity
  8
0
100
AcDbLine
 10
635.3057032782951
 20
132.7849075206581
 30
0.0
 11
625.8057032782951
 21
132.7849075206581
 31
0.0
  0
LINE
  5
6BB
330
2
100
AcDbEntity
  8
0
100
AcDbLine
 10
137.2224530316813
 20
274.6989389188257
 30
0.0
 11
172.1423240316123
 21
274.6989389188257
 31
0.0
  0
LINE
  5
6BC
330
2
100
AcDbEntity
  8
0
100
AcDbLine
 10
96.2226310316123
 20
259.6989389188257
 30
0.0
 11
166.7226470316123
 21
259.6989389188257
 31
0.0
  0
LINE
  5
6BD
330
2
100
AcDbEntity
  8
0
100
AcDbLine
 10
137.2226510316123
 20
320.6989229188257
 30
0.0
 11
172.1423240316123
 21
320.6989229188257
 31
0.0
  0
LINE
  5
6BE
330
2
100
AcDbEntity
  8
0
100
AcDbLine
 10
166.7226470316123
 20
335.6989229188257
 30
0.0
 11
96.2226310316123
 21
335.6989229188257
 31
0.0
  0
LINE
  5
6BF
330
2
100
AcDbEntity
  8
0
100
AcDbLine
 10
172.1423240316123
 20
276.6989389188257
 30
0.0
 11
172.1423240316123
 21
318.6991979188257
 31
0.0
  0
LINE
  5
6C0
330
2
100
AcDbEntity
  8
0
100
AcDbLine
 10
196.2226470316123
 20
326.7338349188257
 30
0.0
 11
196.2226470316123
 21
268.6640259188257
 31
0.0
  0
LINE
  5
6C1
330
2
100
AcDbEntity
  8
0
100
AcDbLine
 10
226.2226470316123
 20
326.7338349188257
 30
0.0
 11
226.2226470316123
 21
268.6640259188257
 31
0.0
  0
LINE
  5
6C2
330
2
100
AcDbEntity
  8
CENTER
100
AcDbLine
 10
211.2226470316124
 20
368.6989229188256
 30
0.0
 11
211.2226470316122
 21
243.6989389188256
 31
0.0
  0
LINE
  5
6C4
330
2
100
AcDbEntity
  8
0
100
AcDbLine
 10
172.4910030316123
 20
344.6989229188257
 30
0.0
 11
203.7226470316123
 21
344.6989229188257
 31
0.0
  0
LINE
  5
6C5
330
2
100
AcDbEntity
  8
0
100
AcDbLine
 10
171.2291470316123
 20
328.6989229188257
 30
0.0
 11
251.2161460316124
 21
328.6989229188257
 31
0.0
  0
LINE
  5
6C6
330
2
100
AcDbEntity
  8
0
100
AcDbLine
 10
218.2936460316124
 20
337.6989229188257
 30
0.0
 11
218.2936460316124
 21
361.6989229188257
 31
0.0
  0
LINE
  5
6C7
330
2
100
AcDbEntity
  8
0
100
AcDbLine
 10
220.7226470316123
 20
337.6989229188257
 30
0.0
 11
220.7226470316123
 21
361.6989229188257
 31
0.0
  0
LINE
  5
6C8
330
2
100
AcDbEntity
  8
0
100
AcDbLine
 10
203.7226470316123
 20
361.6989229188257
 30
0.0
 11
203.7226470316123
 21
334.6989229188257
 31
0.0
  0
LINE
  5
6CA
330
2
100
AcDbEntity
  8
0
100
AcDbLine
 10
203.7226470316123
 20
361.6989229188257
 30
0.0
 11
220.7226470316123
 21
361.6989229188257
 31
0.0
  0
LINE
  5
6CB
330
2
100
AcDbEntity
  8
0
100
AcDbLine
 10
220.7226470316123
 20
344.6989229188257
 30
0.0
 11
249.9541680316124
 21
344.6989229188257
 31
0.0
  0
LINE
  5
6CC
330
2
100
AcDbEntity
  8
0
100
AcDbLine
 10
202.7226470316124
 20
334.6989229188257
 30
0.0
 11
219.7226470316123
 21
334.6989229188257
 31
0.0
  0
LINE
  5
6CD
330
2
100
AcDbEntity
  8
0
100
AcDbLine
 10
230.2226470316123
 20
332.6989229188257
 30
0.0
 11
192.2226470316123
 21
332.6989229188257
 31
0.0
  0
CIRCLE
  5
6CE
330
2
100
AcDbEntity
  8
0
100
AcDbCircle
 10
245.2226470316123
 20
337.6989229188257
 30
0.0
 40
3.25
  0
ARC
  5
6CF
330
2
100
AcDbEntity
  8
0
100
AcDbCircle
 10
230.2226470316123
 20
331.6989229188257
 30
0.0
 40
1.0
100
AcDbArc
 50
0.0
 51
90.0
  0
LINE
  5
6D0
330
2
100
AcDbEntity
  8
0
100
AcDbLine
 10
218.7226470316123
 20
337.6989229188257
 30
0.0
 11
218.7226470316123
 21
334.6989229188257
 31
0.0
  0
LINE
  5
6D1
330
2
100
AcDbEntity
  8
0
100
AcDbLine
 10
218.2936460316124
 20
337.6989229188257
 30
0.0
 11
220.7226470316123
 21
337.6989229188257
 31
0.0
  0
LINE
  5
6D2
330
2
100
AcDbEntity
  8
0
100
AcDbLine
 10
219.7226470316123
 20
334.6989229188257
 30
0.0
 11
219.7226470316123
 21
332.6989229188257
 31
0.0
  0
LINE
  5
6D3
330
2
100
AcDbEntity
  8
0
100
AcDbLine
 10
231.2226470316123
 20
331.6989229188257
 30
0.0
 11
231.2226470316123
 21
330.6989269188259
 31
0.0
  0
LINE
  5
6D4
330
2
100
AcDbEntity
  8
0
100
AcDbLine
 10
202.7226470316124
 20
334.6989229188257
 30
0.0
 11
202.7226470316124
 21
332.6989229188257
 31
0.0
  0
ARC
  5
6D5
330
2
100
AcDbEntity
  8
0
100
AcDbCircle
 10
192.2226470316123
 20
331.6989229188257
 30
0.0
 40
1.0
100
AcDbArc
 50
90.0
 51
180.0
  0
LINE
  5
6D6
330
2
100
AcDbEntity
  8
0
100
AcDbLine
 10
191.2226470316123
 20
331.6989229188257
 30
0.0
 11
191.2226470316123
 21
330.6989269188259
 31
0.0
  0
ARC
  5
6D8
330
2
100
AcDbEntity
  8
0
100
AcDbCircle
 10
172.4910030316123
 20
341.6989229188256
 30
0.0
 40
3.0
100
AcDbArc
 50
90.0
 51
179.0001529999997
  0
LINE
  5
6D9
330
2
100
AcDbEntity
  8
0
100
AcDbLine
 10
168.7226470316123
 20
333.6989229188257
 30
0.0
 11
168.7226470316123
 21
330.0510809188256
 31
0.0
  0
LINE
  5
6DA
330
2
100
AcDbEntity
  8
0
100
AcDbLine
 10
169.4914610316124
 20
341.7512759188257
 30
0.0
 11
169.2670950316123
 21
328.8948309188256
 31
0.0
  0
CIRCLE
  5
6DB
330
2
100
AcDbEntity
  8
0
100
AcDbCircle
 10
177.2226470316123
 20
337.6989229188257
 30
0.0
 40
3.25
  0
ARC
  5
6DC
330
2
100
AcDbEntity
  8
0
100
AcDbCircle
 10
166.7226470316123
 20
333.6989229188257
 30
0.0
 40
2.0
100
AcDbArc
 50
0.0
 51
90.0
  0
LINE
  5
6DD
330
2
100
AcDbEntity
  8
0
100
AcDbLine
 10
169.2293760316123
 20
326.7338349188257
 30
0.0
 11
169.1240600316123
 21
320.6989229188257
 31
0.0
  0
ARC
  5
6DE
330
2
100
AcDbEntity
  8
0
100
AcDbCircle
 10
170.2226470316123
 20
330.0510809188256
 30
0.0
 40
1.5
100
AcDbArc
 50
180.0
 51
286.7126539999996
  0
ARC
  5
6DF
330
2
100
AcDbEntity
  8
0
100
AcDbCircle
 10
171.2291470316123
 20
326.6989229188257
 30
0.0
 40
2.0
100
AcDbArc
 50
90.0
 51
178.9999999999998
  0
LINE
  5
6E0
330
2
100
AcDbEntity
  8
CENTER
100
AcDbLine
 10
171.3729947569607
 20
257.6989389188257
 30
0.0
 11
183.0722993062639
 21
257.6989389188257
 31
0.0
  0
LINE
  5
6E1
330
2
100
AcDbEntity
  8
0
100
AcDbLine
 10
172.4910030316123
 20
250.6989389188257
 30
0.0
 11
249.9541680316124
 21
250.6989389188257
 31
0.0
  0
LINE
  5
6E2
330
2
100
AcDbEntity
  8
0
100
AcDbLine
 10
171.2291470316123
 20
266.6989389188257
 30
0.0
 11
251.2161460316124
 21
266.6989389188257
 31
0.0
  0
CIRCLE
  5
6E5
330
2
100
AcDbEntity
  8
0
100
AcDbCircle
 10
245.2226470316123
 20
257.6989389188257
 30
0.0
 40
3.25
  0
LINE
  5
6E6
330
2
100
AcDbEntity
  8
CENTER
100
AcDbLine
 10
177.2226470316123
 20
251.8492866441741
 30
0.0
 11
177.2226470316123
 21
263.5485911934773
 31
0.0
  0
LINE
  5
6E7
330
2
100
AcDbEntity
  8
0
100
AcDbLine
 10
169.2293760316123
 20
268.6640259188257
 30
0.0
 11
169.1240600316123
 21
274.6989389188257
 31
0.0
  0
ARC
  5
6E8
330
2
100
AcDbEntity
  8
0
100
AcDbCircle
 10
166.7226470316123
 20
261.6989389188257
 30
0.0
 40
2.0
100
AcDbArc
 50
270.0
 51
0.0
  0
CIRCLE
  5
6E9
330
2
100
AcDbEntity
  8
0
100
AcDbCircle
 10
177.2226470316123
 20
257.6989389188257
 30
0.0
 40
3.25
  0
LINE
  5
6EA
330
2
100
AcDbEntity
  8
0
100
AcDbLine
 10
169.4914610316124
 20
253.6465699188257
 30
0.0
 11
169.2670950316123
 21
266.5030159188257
 31
0.0
  0
ARC
  5
6EB
330
2
100
AcDbEntity
  8
0
100
AcDbCircle
 10
170.2226470316123
 20
265.3467659188257
 30
0.0
 40
1.5
100
AcDbArc
 50
73.28734600000043
 51
180.0
  0
ARC
  5
6EC
330
2
100
AcDbEntity
  8
0
100
AcDbCircle
 10
171.2291470316123
 20
268.6989389188257
 30
0.0
 40
2.0
100
AcDbArc
 50
181.0000000000001
 51
270.0
  0
LINE
  5
6ED
330
2
100
AcDbEntity
  8
0
100
AcDbLine
 10
168.7226470316123
 20
261.6989389188257
 30
0.0
 11
168.7226470316123
 21
265.3467659188257
 31
0.0
  0
ARC
  5
6EE
330
2
100
AcDbEntity
  8
0
100
AcDbCircle
 10
172.4910030316123
 20
253.6989389188257
 30
0.0
 40
3.0
100
AcDbArc
 50
180.999848
 51
270.0
  0
LINE
  5
6EF
330
2
100
AcDbEntity
  8
0
100
AcDbLine
 10
37.72263103161231
 20
262.6989389188257
 30
0.0
 11
37.72263103161231
 21
332.6989229188257
 31
0.0
  0
LINE
  5
6F0
330
2
100
AcDbEntity
  8
0
100
AcDbLine
 10
86.72263103161231
 20
257.6989389188257
 30
0.0
 11
86.72263103161231
 21
290.1989229188257
 31
0.0
  0
ARC
  5
6F5
330
2
100
AcDbEntity
  8
0
100
AcDbCircle
 10
42.72266203161234
 20
332.6989539188257
 30
0.0
 40
5.0
100
AcDbArc
 50
90.0
 51
180.0
  0
LINE
  5
6F6
330
2
100
AcDbEntity
  8
0
100
AcDbLine
 10
40.22263103161231
 20
321.6989229188257
 30
0.0
 11
86.72263103161231
 21
321.6989229188257
 31
0.0
  0
LINE
  5
6F7
330
2
100
AcDbEntity
  8
0
100
AcDbLine
 10
42.72263103161231
 20
337.6989229188257
 30
0.0
 11
86.72263103161231
 21
337.6989229188257
 31
0.0
  0
LINE
  5
6F8
330
2
100
AcDbEntity
  8
0
100
AcDbLine
 10
96.2226310316123
 20
322.6989229188256
 30
0.0
 11
96.2226310316123
 21
335.6989229188257
 31
0.0
  0
LINE
  5
6FA
330
2
100
AcDbEntity
  8
0
100
AcDbLine
 10
86.72263103161231
 20
335.6989229188257
 30
0.0
 11
96.2226310316123
 21
335.6989229188257
 31
0.0
  0
ARC
  5
700
330
2
100
AcDbEntity
  8
0
100
AcDbCircle
 10
42.72263103161231
 20
262.6989389188257
 30
0.0
 40
5.0
100
AcDbArc
 50
180.0
 51
270.0
  0
LINE
  5
701
330
2
100
AcDbEntity
  8
0
100
AcDbLine
 10
40.22263103161231
 20
271.6989389188257
 30
0.0
 11
86.72263103161231
 21
271.6989389188257
 31
0.0
  0
LINE
  5
702
330
2
100
AcDbEntity
  8
0
100
AcDbLine
 10
42.72263103161231
 20
257.6989389188257
 30
0.0
 11
86.72263103161231
 21
257.6989389188257
 31
0.0
  0
LINE
  5
703
330
2
100
AcDbEntity
  8
0
100
AcDbLine
 10
96.2226310316123
 20
259.6989389188257
 30
0.0
 11
96.2226310316123
 21
272.6989229188256
 31
0.0
  0
LINE
  5
70A
330
2
100
AcDbEntity
  8
0
100
AcDbLine
 10
86.72263103161231
 20
259.6989389188257
 30
0.0
 11
96.2226310316123
 21
259.6989389188257
 31
0.0
  0
LINE
  5
83A
330
2
100
AcDbEntity
  8
CENTER
100
AcDbLine
 10
239.3729947569608
 20
257.6989389188257
 30
0.0
 11
251.0722993062639
 21
257.6989389188257
 31
0.0
  0
LINE
  5
83B
330
2
100
AcDbEntity
  8
CENTER
100
AcDbLine
 10
245.2226470316123
 20
251.8492866441741
 30
0.0
 11
245.2226470316123
 21
263.5485911934773
 31
0.0
  0
LINE
  5
83C
330
2
100
AcDbEntity
  8
CENTER
100
AcDbLine
 10
239.3729947569608
 20
337.6989229188257
 30
0.0
 11
251.072299306264
 21
337.6989229188257
 31
0.0
  0
LINE
  5
83D
330
2
100
AcDbEntity
  8
CENTER
100
AcDbLine
 10
245.2226470316123
 20
331.8492706441741
 30
0.0
 11
245.2226470316123
 21
343.5485751934773
 31
0.0
  0
LINE
  5
83E
330
2
100
AcDbEntity
  8
CENTER
100
AcDbLine
 10
171.3729947569607
 20
337.6989229188257
 30
0.0
 11
183.0722993062639
 21
337.6989229188257
 31
0.0
  0
LINE
  5
83F
330
2
100
AcDbEntity
  8
CENTER
100
AcDbLine
 10
177.2226470316123
 20
331.8492706441741
 30
0.0
 11
177.2226470316123
 21
343.5485751934773
 31
0.0
  0
LINE
  5
8C6
330
2
100
AcDbEntity
  8
CENTER
100
AcDbLine
 10
30.72265003161237
 20
94.78490752065814
 30
0.0
 11
187.9726470316123
 21
94.78490752065814
 31
0.0
  0
LINE
  5
8C7
330
2
100
AcDbEntity
  8
0
100
AcDbLine
 10
96.22265103161238
 20
132.7849075206581
 30
0.0
 11
172.1423550316123
 21
132.7849075206581
 31
0.0
  0
LINE
  5
8C8
330
2
100
AcDbEntity
  8
0
100
AcDbLine
 10
96.22265103161238
 20
56.78490652065814
 30
0.0
 11
168.7226470316123
 21
56.78490652065814
 31
0.0
  0
LINE
  5
8C9
330
2
100
AcDbEntity
  8
0
100
AcDbLine
 10
96.22260103161238
 20
125.0339075206581
 30
0.0
 11
168.7226470316123
 21
125.0339075206581
 31
0.0
  0
LINE
  5
8CA
330
2
100
AcDbEntity
  8
0
100
AcDbLine
 10
96.22260103161238
 20
64.53590652065814
 30
0.0
 11
168.7226470316123
 21
64.53590652065814
 31
0.0
  0
LINE
  5
8CC
330
2
100
AcDbEntity
  8
0
100
AcDbLine
 10
86.72265103161237
 20
132.7849075206581
 30
0.0
 11
96.22265103161238
 21
132.7849075206581
 31
0.0
  0
LINE
  5
8CE
330
2
100
AcDbEntity
  8
0
100
AcDbLine
 10
86.72265103161237
 20
125.0339075206581
 30
0.0
 11
96.22265103161238
 21
125.0339075206581
 31
0.0
  0
LINE
  5
8CF
330
2
100
AcDbEntity
  8
0
100
AcDbLine
 10
86.72265103161237
 20
56.78490652065814
 30
0.0
 11
96.22265103161238
 21
56.78490652065814
 31
0.0
  0
LINE
  5
8D0
330
2
100
AcDbEntity
  8
0
100
AcDbLine
 10
86.72265103161237
 20
64.53590652065814
 30
0.0
 11
96.22265103161238
 21
64.53590652065814
 31
0.0
  0
LINE
  5
8D1
330
2
100
AcDbEntity
  8
0
100
AcDbLine
 10
86.72265103161237
 20
54.78490652065814
 30
0.0
 11
86.72265103161237
 21
134.7849075206581
 31
0.0
  0
LINE
  5
8D2
330
2
100
AcDbEntity
  8
0
100
AcDbLine
 10
37.72265003161237
 20
59.78490652065814
 30
0.0
 11
37.72265003161237
 21
129.7849075206581
 31
0.0
  0
LINE
  5
8D3
330
2
100
AcDbEntity
  8
0
100
AcDbLine
 10
42.72265103161237
 20
54.78490652065814
 30
0.0
 11
86.72265103161237
 21
54.78490652065814
 31
0.0
  0
LINE
  5
8D4
330
2
100
AcDbEntity
  8
0
100
AcDbLine
 10
40.22265003161237
 20
70.78490752065814
 30
0.0
 11
86.72265103161237
 21
70.78490752065814
 31
0.0
  0
ARC
  5
8D5
330
2
100
AcDbEntity
  8
0
100
AcDbCircle
 10
42.72265003161237
 20
59.78490652065814
 30
0.0
 40
5.0
100
AcDbArc
 50
180.0
 51
270.0
  0
LINE
  5
8D6
330
2
100
AcDbEntity
  8
0
100
AcDbLine
 10
42.72265003161237
 20
134.7849075206581
 30
0.0
 11
86.72265103161237
 21
134.7849075206581
 31
0.0
  0
LINE
  5
8D7
330
2
100
AcDbEntity
  8
0
100
AcDbLine
 10
40.22265003161237
 20
120.7849075206581
 30
0.0
 11
86.72265103161237
 21
120.7849075206581
 31
0.0
  0
ARC
  5
8D8
330
2
100
AcDbEntity
  8
0
100
AcDbCircle
 10
42.72267503161242
 20
129.7849295206581
 30
0.0
 40
5.0
100
AcDbArc
 50
90.0
 51
180.0
  0
LINE
  5
8DB
330
2
100
AcDbEntity
  8
0
100
AcDbLine
 10
96.22265103161238
 20
56.78490652065814
 30
0.0
 11
96.22265103161238
 21
132.7849075206581
 31
0.0
  0
LINE
  5
8E2
330
2
100
AcDbEntity
  8
0
100
AcDbLine
 10
251.5949460316123
 20
131.8781685206581
 30
0.0
 11
227.5154480316123
 21
148.7775675206581
 31
0.0
  0
LINE
  5
8E3
330
2
100
AcDbEntity
  8
0
100
AcDbLine
 10
170.8503480316123
 20
131.8781685206581
 30
0.0
 11
194.9297540316124
 21
148.7775605206581
 31
0.0
  0
LINE
  5
8E4
330
2
100
AcDbEntity
  8
CENTER
100
AcDbLine
 10
211.2226470316123
 20
156.6849085206581
 30
0.0
 11
211.2226470316124
 21
45.08490652065813
 31
0.0
  0
LINE
  5
8E5
330
2
100
AcDbEntity
  8
0
100
AcDbLine
 10
168.7226470316123
 20
52.08490652065814
 30
0.0
 11
253.7226470316125
 21
52.08490652065814
 31
0.0
  0
LINE
  5
8E6
330
2
100
AcDbEntity
  8
0
100
AcDbLine
 10
170.7226470316124
 20
60.08490652065813
 30
0.0
 11
251.7226470316125
 21
60.08490652065813
 31
0.0
  0
ARC
  5
8E7
330
2
100
AcDbEntity
  8
0
100
AcDbCircle
 10
211.2226470316123
 20
104.0849065206581
 30
0.0
 40
42.5
100
AcDbArc
 50
199.7498929999999
 51
340.2500920000002
  0
ARC
  5
8E8
330
2
100
AcDbEntity
  8
0
100
AcDbCircle
 10
211.2226470316123
 20
104.0849065206581
 30
0.0
 40
42.5
100
AcDbArc
 50
19.74990099999923
 51
160.2501069999999
  0
LINE
  5
8E9
330
2
100
AcDbEntity
  8
0
100
AcDbLine
 10
219.1664490316123
 20
89.47699652065812
 30
0.0
 11
219.1664490316123
 21
86.55074152065813
 31
0.0
  0
ARC
  5
8EA
330
2
100
AcDbEntity
  8
0
100
AcDbCircle
 10
221.4201570316124
 20
88.09491652065814
 30
0.0
 40
1.557193
100
AcDbArc
 50
277.4147260000004
 51
62.41184999999839
  0
LINE
  5
8EB
330
2
100
AcDbEntity
  8
0
100
AcDbLine
 10
218.0707460316123
 20
89.47699652065812
 30
0.0
 11
218.0707460316123
 21
82.08099652065815
 31
0.0
  0
ARC
  5
8EC
330
2
100
AcDbEntity
  8
0
100
AcDbCircle
 10
221.4201570316124
 20
88.09491652065814
 30
0.0
 40
2.55249
100
AcDbArc
 50
286.0181270000003
 51
90.00351000000046
  0
LINE
  5
8ED
330
2
100
AcDbEntity
  8
0
100
AcDbLine
 10
210.6000430316123
 20
89.47699652065812
 30
0.0
 11
210.6000430316123
 21
82.13080452065813
 31
0.0
  0
LINE
  5
8EE
330
2
100
AcDbEntity
  8
0
100
AcDbLine
 10
211.7954470316123
 20
89.47699652065812
 30
0.0
 11
211.7954470316123
 21
82.13080452065813
 31
0.0
  0
LINE
  5
8EF
330
2
100
AcDbEntity
  8
0
100
AcDbLine
 10
198.4726470316123
 20
89.16540752065813
 30
0.0
 11
198.4726470316123
 21
82.32576652065814
 31
0.0
  0
LINE
  5
8F0
330
2
100
AcDbEntity
  8
0
100
AcDbLine
 10
199.5434480316123
 20
88.48488452065813
 30
0.0
 11
199.5434480316123
 21
82.97582552065813
 31
0.0
  0
LINE
  5
8F1
330
2
100
AcDbEntity
  8
0
100
AcDbLine
 10
168.7226470316123
 20
127.7855095206581
 30
0.0
 11
168.7226470316123
 21
52.08490652065814
 31
0.0
  0
LINE
  5
8F2
330
2
100
AcDbEntity
  8
CENTER
100
AcDbLine
 10
177.2226470316123
 20
63.58490652065812
 30
0.0
 11
177.2226470316125
 21
48.58490652065814
 31
0.0
  0
LINE
  5
8F3
330
2
100
AcDbEntity
  8
HIDS
  6
SEKKEI_H
100
AcDbLine
 10
180.4726470316123
 20
60.08490652065813
 30
0.0
 11
180.4726470316123
 21
52.08490652065814
 31
0.0
  0
LINE
  5
8F4
330
2
100
AcDbEntity
  8
HIDS
  6
SEKKEI_H
100
AcDbLine
 10
173.9726470316123
 20
60.08490652065813
 30
0.0
 11
173.9726470316123
 21
52.08490652065814
 31
0.0
  0
ARC
  5
8F5
330
2
100
AcDbEntity
  8
0
100
AcDbCircle
 10
170.7226470316124
 20
58.08491652065814
 30
0.0
 40
2.0
100
AcDbArc
 50
90.0
 51
180.0
  0
LINE
  5
8F6
330
2
100
AcDbEntity
  8
0
100
AcDbLine
 10
201.9340570316123
 20
82.20550852065812
 30
0.0
 11
200.2747560316124
 21
82.20550852065812
 31
0.0
  0
LINE
  5
8F7
330
2
100
AcDbEntity
  8
0
100
AcDbLine
 10
199.7024440316124
 20
81.08490652065814
 30
0.0
 11
203.0177520316124
 21
81.08490652065814
 31
0.0
  0
LINE
  5
8F8
330
2
100
AcDbEntity
  8
0
100
AcDbLine
 10
199.5434480316123
 20
82.97582552065813
 30
0.0
 11
200.2747560316124
 21
82.20550852065812
 31
0.0
  0
LINE
  5
8F9
330
2
100
AcDbEntity
  8
0
100
AcDbLine
 10
198.4726470316123
 20
82.32576652065814
 30
0.0
 11
199.7024440316124
 21
81.08490652065814
 31
0.0
  0
LINE
  5
8FA
330
2
100
AcDbEntity
  8
0
100
AcDbLine
 10
203.9262450316123
 20
84.59613652065815
 30
0.0
 11
203.9262450316123
 21
85.39301152065815
 31
0.0
  0
LINE
  5
8FB
330
2
100
AcDbEntity
  8
0
100
AcDbLine
 10
203.9262450316123
 20
85.59223052065815
 30
0.0
 11
203.9262450316123
 21
84.19769552065814
 31
0.0
  0
LINE
  5
8FC
330
2
100
AcDbEntity
  8
0
100
AcDbLine
 10
203.9262450316123
 20
81.84716652065814
 30
0.0
 11
203.9262450316123
 21
81.08490652065814
 31
0.0
  0
LINE
  5
8FD
330
2
100
AcDbEntity
  8
0
100
AcDbLine
 10
203.9262450316123
 20
81.08490652065814
 30
0.0
 11
204.8476470316123
 21
81.08490652065814
 31
0.0
  0
LINE
  5
8FE
330
2
100
AcDbEntity
  8
0
100
AcDbLine
 10
203.9262450316123
 20
81.84716652065814
 30
0.0
 11
203.0177520316124
 21
81.08490652065814
 31
0.0
  0
LINE
  5
8FF
330
2
100
AcDbEntity
  8
0
100
AcDbLine
 10
204.8476470316123
 20
86.63812952065814
 30
0.0
 11
204.8476470316123
 21
81.08490652065814
 31
0.0
  0
LINE
  5
900
330
2
100
AcDbEntity
  8
0
100
AcDbLine
 10
202.2578490316123
 20
86.63812952065814
 30
0.0
 11
202.2578490316123
 21
85.59223052065815
 31
0.0
  0
LINE
  5
901
330
2
100
AcDbEntity
  8
0
100
AcDbLine
 10
203.9262450316123
 20
85.59223052065815
 30
0.0
 11
202.2578490316123
 21
85.59223052065815
 31
0.0
  0
ARC
  5
902
330
2
100
AcDbEntity
  8
0
100
AcDbCircle
 10
201.9340570316123
 20
84.19769552065814
 30
0.0
 40
1.992186999999999
100
AcDbArc
 50
270.0002140000007
 51
0.0001089999998967
  0
LINE
  5
903
330
2
100
AcDbEntity
  8
0
100
AcDbLine
 10
202.2578490316123
 20
86.63812952065814
 30
0.0
 11
204.8476470316123
 21
86.63812952065814
 31
0.0
  0
LINE
  5
904
330
2
100
AcDbEntity
  8
HIDS
  6
SEKKEI_H
100
AcDbLine
 10
241.9726470316124
 20
60.08490652065813
 30
0.0
 11
241.9726470316124
 21
52.08490652065814
 31
0.0
  0
LINE
  5
905
330
2
100
AcDbEntity
  8
0
100
AcDbLine
 10
210.1269440316122
 20
81.08490652065814
 30
0.0
 11
212.1938540316123
 21
81.08490652065814
 31
0.0
  0
LINE
  5
906
330
2
100
AcDbEntity
  8
0
100
AcDbLine
 10
210.1269440316122
 20
82.13080452065813
 30
0.0
 11
210.1269440316122
 21
81.08490652065814
 31
0.0
  0
LINE
  5
907
330
2
100
AcDbEntity
  8
0
100
AcDbLine
 10
210.1269440316122
 20
82.13080452065813
 30
0.0
 11
210.6000430316123
 21
82.13080452065813
 31
0.0
  0
LINE
  5
908
330
2
100
AcDbEntity
  8
0
100
AcDbLine
 10
211.7954470316123
 20
82.13080452065813
 30
0.0
 11
212.1938540316123
 21
82.13080452065813
 31
0.0
  0
LINE
  5
909
330
2
100
AcDbEntity
  8
0
100
AcDbLine
 10
212.1938540316123
 20
82.13080452065813
 30
0.0
 11
212.1938540316123
 21
81.08490652065814
 31
0.0
  0
LINE
  5
90A
330
2
100
AcDbEntity
  8
0
100
AcDbLine
 10
219.1664490316123
 20
86.55074152065813
 30
0.0
 11
221.6211450316122
 21
86.55074152065813
 31
0.0
  0
LINE
  5
90B
330
2
100
AcDbEntity
  8
0
100
AcDbLine
 10
219.1664490316123
 20
85.55487752065815
 30
0.0
 11
221.2069460316124
 21
85.55487752065815
 31
0.0
  0
LINE
  5
90C
330
2
100
AcDbEntity
  8
0
100
AcDbLine
 10
219.1664490316123
 20
82.08099652065815
 30
0.0
 11
219.6022550316124
 21
82.08099652065815
 31
0.0
  0
LINE
  5
90D
330
2
100
AcDbEntity
  8
0
100
AcDbLine
 10
219.6022550316124
 20
82.08099652065815
 30
0.0
 11
219.6022550316124
 21
81.08490652065814
 31
0.0
  0
LINE
  5
90E
330
2
100
AcDbEntity
  8
0
100
AcDbLine
 10
219.1664490316123
 20
85.55487752065815
 30
0.0
 11
219.1664490316123
 21
82.08099652065815
 31
0.0
  0
LINE
  5
90F
330
2
100
AcDbEntity
  8
0
100
AcDbLine
 10
217.5976470316123
 20
82.08099652065815
 30
0.0
 11
217.5976470316123
 21
81.08490652065814
 31
0.0
  0
LINE
  5
910
330
2
100
AcDbEntity
  8
0
100
AcDbLine
 10
217.5976470316123
 20
82.08099652065815
 30
0.0
 11
218.0707460316123
 21
82.08099652065815
 31
0.0
  0
LINE
  5
911
330
2
100
AcDbEntity
  8
0
100
AcDbLine
 10
219.6022550316124
 20
81.08490652065814
 30
0.0
 11
217.5976470316123
 21
81.08490652065814
 31
0.0
  0
LINE
  5
912
330
2
100
AcDbEntity
  8
0
100
AcDbLine
 10
222.5034540316123
 20
82.08099652065815
 30
0.0
 11
222.7019560316123
 21
82.08099652065815
 31
0.0
  0
LINE
  5
913
330
2
100
AcDbEntity
  8
0
100
AcDbLine
 10
223.7043520316124
 20
82.08099652065815
 30
0.0
 11
223.9726470316123
 21
82.08099652065815
 31
0.0
  0
LINE
  5
914
330
2
100
AcDbEntity
  8
0
100
AcDbLine
 10
222.5034540316123
 20
81.08490652065814
 30
0.0
 11
223.9726470316123
 21
81.08490652065814
 31
0.0
  0
LINE
  5
915
330
2
100
AcDbEntity
  8
0
100
AcDbLine
 10
223.9726470316123
 20
82.08099652065815
 30
0.0
 11
223.9726470316123
 21
81.08490652065814
 31
0.0
  0
LINE
  5
916
330
2
100
AcDbEntity
  8
0
100
AcDbLine
 10
222.5034540316123
 20
82.08099652065815
 30
0.0
 11
222.5034540316123
 21
81.08490652065814
 31
0.0
  0
LINE
  5
917
330
2
100
AcDbEntity
  8
0
100
AcDbLine
 10
222.1244570316123
 20
85.64152752065814
 30
0.0
 11
223.7043520316124
 21
82.08099652065815
 31
0.0
  0
LINE
  5
918
330
2
100
AcDbEntity
  8
0
100
AcDbLine
 10
221.2069460316124
 20
85.55487752065815
 30
0.0
 11
222.7019560316123
 21
82.08099652065815
 31
0.0
  0
LINE
  5
919
330
2
100
AcDbEntity
  8
CENTER
100
AcDbLine
 10
184.4727095392102
 20
117.0849105206581
 30
0.0
 11
238.4725845240144
 21
117.0849105206581
 31
0.0
  0
ARC
  5
91A
330
2
100
AcDbEntity
  8
HIDS
100
AcDbCircle
 10
211.2226470316123
 20
117.0849105206581
 30
0.0
 40
7.5
100
AcDbArc
 50
19.47120999999928
 51
340.5288089999991
  0
CIRCLE
  5
91B
330
2
100
AcDbEntity
  8
0
100
AcDbCircle
 10
211.2226470316123
 20
117.0849105206581
 30
0.0
 40
20.0
  0
LINE
  5
91C
330
2
100
AcDbEntity
  8
0
100
AcDbLine
 10
171.2226470316123
 20
118.4461775206581
 30
0.0
 11
171.2226470316123
 21
89.72336852065813
 31
0.0
  0
LINE
  5
91D
330
2
100
AcDbEntity
  8
0
100
AcDbLine
 10
203.3351500316123
 20
89.37738652065815
 30
0.0
 11
200.2632510316122
 21
89.37738652065815
 31
0.0
  0
LINE
  5
91E
330
2
100
AcDbEntity
  8
0
100
AcDbLine
 10
199.6300570316122
 20
90.64740652065813
 30
0.0
 11
203.9166470316124
 21
90.64740652065813
 31
0.0
  0
LINE
  5
91F
330
2
100
AcDbEntity
  8
0
100
AcDbLine
 10
200.2632510316122
 20
89.37738652065815
 30
0.0
 11
199.5434480316123
 21
88.48488452065813
 31
0.0
  0
LINE
  5
920
330
2
100
AcDbEntity
  8
0
100
AcDbLine
 10
199.6300570316122
 20
90.64740652065813
 30
0.0
 11
198.4726470316123
 21
89.16540752065813
 31
0.0
  0
LINE
  5
921
330
2
100
AcDbEntity
  8
0
100
AcDbLine
 10
203.9262450316123
 20
88.80594152065814
 30
0.0
 11
203.3230500316124
 21
89.37738652065815
 31
0.0
  0
LINE
  5
922
330
2
100
AcDbEntity
  8
0
100
AcDbLine
 10
203.9262450316123
 20
88.65521852065814
 30
0.0
 11
204.8476470316123
 21
88.65521852065814
 31
0.0
  0
LINE
  5
923
330
2
100
AcDbEntity
  8
0
100
AcDbLine
 10
204.8476470316123
 20
89.61426452065813
 30
0.0
 11
204.8476470316123
 21
88.65521852065814
 31
0.0
  0
LINE
  5
924
330
2
100
AcDbEntity
  8
0
100
AcDbLine
 10
203.9262450316123
 20
88.80594152065814
 30
0.0
 11
203.9262450316123
 21
88.65521852065814
 31
0.0
  0
LINE
  5
925
330
2
100
AcDbEntity
  8
0
100
AcDbLine
 10
203.9166470316124
 20
90.64740652065813
 30
0.0
 11
204.8476470316123
 21
89.61426452065813
 31
0.0
  0
ARC
  5
926
330
2
100
AcDbEntity
  8
0
100
AcDbCircle
 10
173.7226470316123
 20
127.7855255206581
 30
0.0
 40
5.0
100
AcDbArc
 50
125.062302000001
 51
180.0
  0
LINE
  5
927
330
2
100
AcDbEntity
  8
0
100
AcDbLine
 10
193.0352540316123
 20
124.7849075206581
 30
0.0
 11
193.0353450316124
 21
124.7849075206581
 31
0.0
  0
LINE
  5
928
330
2
100
AcDbEntity
  8
HIDS
100
AcDbLine
 10
220.7226470316123
 20
119.5849105206581
 30
0.0
 11
220.7226470316123
 21
114.5849105206581
 31
0.0
  0
LINE
  5
929
330
2
100
AcDbEntity
  8
HIDS
100
AcDbLine
 10
215.7226470316123
 20
114.5849105206581
 30
0.0
 11
215.7226470316123
 21
119.5849105206581
 31
0.0
  0
LINE
  5
92A
330
2
100
AcDbEntity
  8
0
100
AcDbLine
 10
208.0351470316123
 20
90.64740652065813
 30
0.0
 11
214.4101470316123
 21
90.64740652065813
 31
0.0
  0
LINE
  5
92B
330
2
100
AcDbEntity
  8
0
100
AcDbLine
 10
208.0351470316123
 20
88.65521852065814
 30
0.0
 11
208.7427430316124
 21
88.65521852065814
 31
0.0
  0
LINE
  5
92C
330
2
100
AcDbEntity
  8
0
100
AcDbLine
 10
209.0851500316123
 20
89.47699652065812
 30
0.0
 11
208.7427430316124
 21
88.65521852065814
 31
0.0
  0
LINE
  5
92D
330
2
100
AcDbEntity
  8
0
100
AcDbLine
 10
210.6000430316123
 20
89.47699652065812
 30
0.0
 11
209.0851500316123
 21
89.47699652065812
 31
0.0
  0
LINE
  5
92E
330
2
100
AcDbEntity
  8
0
100
AcDbLine
 10
208.0351470316123
 20
88.65521852065814
 30
0.0
 11
208.0351470316123
 21
90.64740652065813
 31
0.0
  0
LINE
  5
92F
330
2
100
AcDbEntity
  8
0
100
AcDbLine
 10
213.4564570316124
 20
89.47699652065812
 30
0.0
 11
213.7451540316124
 21
88.65521852065814
 31
0.0
  0
LINE
  5
930
330
2
100
AcDbEntity
  8
0
100
AcDbLine
 10
211.7954470316123
 20
89.47699652065812
 30
0.0
 11
213.4564570316124
 21
89.47699652065812
 31
0.0
  0
LINE
  5
931
330
2
100
AcDbEntity
  8
0
100
AcDbLine
 10
213.7451540316124
 20
88.65521852065814
 30
0.0
 11
214.4101470316123
 21
88.65521852065814
 31
0.0
  0
LINE
  5
932
330
2
100
AcDbEntity
  8
0
100
AcDbLine
 10
214.4101470316123
 20
88.65521852065814
 30
0.0
 11
214.4101470316123
 21
90.64740652065813
 31
0.0
  0
LINE
  5
933
330
2
100
AcDbEntity
  8
0
100
AcDbLine
 10
219.1664490316123
 20
89.47699652065812
 30
0.0
 11
222.1413480316123
 21
89.47505852065814
 31
0.0
  0
LINE
  5
934
330
2
100
AcDbEntity
  8
0
100
AcDbLine
 10
217.5976470316123
 20
90.64740652065813
 30
0.0
 11
221.4201570316124
 21
90.64740652065813
 31
0.0
  0
LINE
  5
935
330
2
100
AcDbEntity
  8
0
100
AcDbLine
 10
217.5976470316123
 20
90.64740652065813
 30
0.0
 11
217.5976470316123
 21
89.47699652065812
 31
0.0
  0
LINE
  5
936
330
2
100
AcDbEntity
  8
0
100
AcDbLine
 10
217.5976470316123
 20
89.47699652065812
 30
0.0
 11
218.0707460316123
 21
89.47699652065812
 31
0.0
  0
LINE
  5
937
330
2
100
AcDbEntity
  8
HIDS
100
AcDbLine
 10
215.7226470316123
 20
114.5849105206581
 30
0.0
 11
220.7226470316123
 21
114.5849105206581
 31
0.0
  0
LINE
  5
938
330
2
100
AcDbEntity
  8
HIDS
100
AcDbLine
 10
215.7226470316123
 20
119.5849105206581
 30
0.0
 11
220.7226470316123
 21
119.5849105206581
 31
0.0
  0
LINE
  5
939
330
2
100
AcDbEntity
  8
0
100
AcDbLine
 10
253.7226470316125
 20
127.7854865206581
 30
0.0
 11
253.7226470316125
 21
52.08490652065814
 31
0.0
  0
LINE
  5
93A
330
2
100
AcDbEntity
  8
CENTER
100
AcDbLine
 10
245.2226470316125
 20
63.58490652065812
 30
0.0
 11
245.2226470316125
 21
48.58490652065814
 31
0.0
  0
LINE
  5
93B
330
2
100
AcDbEntity
  8
HIDS
  6
SEKKEI_H
100
AcDbLine
 10
248.4726470316124
 20
60.08490652065813
 30
0.0
 11
248.4726470316124
 21
52.08490652065814
 31
0.0
  0
ARC
  5
93C
330
2
100
AcDbEntity
  8
0
100
AcDbCircle
 10
251.7226470316125
 20
58.08489652065813
 30
0.0
 40
2.0
100
AcDbArc
 50
0.0
 51
90.0
  0
LINE
  5
93D
330
2
100
AcDbEntity
  8
0
100
AcDbLine
 10
251.2226470316125
 20
118.4463065206581
 30
0.0
 11
251.2226470316125
 21
89.72376852065812
 31
0.0
  0
ARC
  5
93E
330
2
100
AcDbEntity
  8
0
100
AcDbCircle
 10
248.7226470316124
 20
127.7854865206581
 30
0.0
 40
5.0
100
AcDbArc
 50
0.0
 51
54.93837000000021
  0
LINE
  5
93F
330
2
100
AcDbEntity
  8
0
100
AcDbLine
 10
197.8021450316123
 20
149.6849085206581
 30
0.0
 11
224.6431490316124
 21
149.6849085206581
 31
0.0
  0
ARC
  5
940
330
2
100
AcDbEntity
  8
0
100
AcDbCircle
 10
197.8021450316123
 20
144.6849165206581
 30
0.0
 40
5.0
100
AcDbArc
 50
90.0
 51
125.0622019999994
  0
ARC
  5
941
330
2
100
AcDbEntity
  8
0
100
AcDbCircle
 10
224.6432550316124
 20
144.6848935206581
 30
0.0
 40
5.0
100
AcDbArc
 50
54.93843100000081
 51
90.0
  0
TEXT
  5
95B
330
2
100
AcDbEntity
  8
TITLE
100
AcDbText
 10
306.7298345131766
 20
283.0856840337906
 30
0.0
 40
5.0
  1
HLM-15L-10~120-S40WT
 41
0.8
100
AcDbText
  0
TEXT
  5
95C
330
2
100
AcDbEntity
  8
TITLE
100
AcDbText
 10
306.7298345131766
 20
291.0856840337907
 30
0.0
 40
5.0
  1
HLM-15L-10~120-S40T
 41
0.8
100
AcDbText
  0
TEXT
  5
95D
330
2
100
AcDbEntity
  8
TITLE
100
AcDbText
 10
306.7298345131766
 20
307.0856840337906
 30
0.0
 40
5.0
  1
HLM-15L-10~120-T40WT
 41
0.8
100
AcDbText
  0
TEXT
  5
95E
330
2
100
AcDbEntity
  8
TITLE
100
AcDbText
 10
306.7298345131766
 20
299.0856840337907
 30
0.0
 40
5.0
  1
HLM-15L-10~60-T60T
 41
0.8
100
AcDbText
  0
LINE
  5
19BF
330
2
100
AcDbEntity
  8
0
100
AcDbLine
 10
324.8388420316123
 20
165.2849055206582
 30
0.0
 11
369.0009332155862
 21
165.2849055206581
 31
0.0
  0
LINE
  5
19C0
330
2
100
AcDbEntity
  8
0
100
AcDbLine
 10
323.8388420316123
 20
164.2849055206581
 30
0.0
 11
366.3388270316124
 21
164.2849055206581
 31
0.0
  0
LINE
  5
19C2
330
2
100
AcDbEntity
  8
CENTER
100
AcDbLine
 10
318.7952350504038
 20
155.7849055206581
 30
0.0
 11
378.8824490128209
 21
155.7849055206581
 31
0.0
  0
LINE
  5
1A12
330
2
100
AcDbEntity
  8
0
100
AcDbLine
 10
323.8388420316123
 20
164.2849055206581
 30
0.0
 11
323.8388420316123
 21
149.2484488340009
 31
0.0
  0
LINE
  5
1A15
330
2
100
AcDbEntity
  8
0
100
AcDbLine
 10
324.8388420316123
 20
165.2849055206582
 30
0.0
 11
323.8388420316123
 21
164.2849055206581
 31
0.0
  0
LINE
  5
1A16
330
2
100
AcDbEntity
  8
0
100
AcDbLine
 10
134.8227490316123
 20
274.0989169188257
 30
0.0
 11
94.72264403161238
 21
274.0989169188257
 31
0.0
  0
LINE
  5
1A17
330
2
100
AcDbEntity
  8
0
100
AcDbLine
 10
89.22264403161239
 20
272.6989229188257
 30
0.0
 11
135.2225440316123
 21
272.6989229188257
 31
0.0
  0
LINE
  5
1A19
330
2
100
AcDbEntity
  8
0
100
AcDbLine
 10
89.22264403161239
 20
322.6989229188257
 30
0.0
 11
135.2225440316124
 21
322.6989229188256
 31
0.0
  0
LINE
  5
1A1A
330
2
100
AcDbEntity
  8
0
100
AcDbLine
 10
89.62264503161236
 20
321.2989139188257
 30
0.0
 11
129.7225440316124
 21
321.2989139188256
 31
0.0
  0
LINE
  5
1A1B
330
2
100
AcDbEntity
  8
0
100
AcDbLine
 10
87.22264403161238
 20
320.6989229188257
 30
0.0
 11
87.22264403161238
 21
274.6989229188257
 31
0.0
  0
LINE
  5
1A1C
330
2
100
AcDbEntity
  8
CENTER
100
AcDbLine
 10
112.2226510316123
 20
328.0881488629335
 30
0.0
 11
112.2226510316123
 21
266.9489229188257
 31
0.0
  0
LINE
  5
1A1D
330
2
100
AcDbEntity
  8
0
100
AcDbLine
 10
88.62263803161239
 20
320.2989139188257
 30
0.0
 11
88.62264503161236
 21
280.1989229188257
 31
0.0
  0
ARC
  5
1A1E
330
2
100
AcDbEntity
  8
0
100
AcDbCircle
 10
90.72267403161232
 20
276.1989229188257
 30
0.0
 40
4.0
100
AcDbArc
 50
0.0
 51
90.0
  0
ARC
  5
1A1F
330
2
100
AcDbEntity
  8
0
100
AcDbCircle
 10
88.69297403161239
 20
278.2286229188256
 30
0.0
 40
1.742199999999999
100
AcDbArc
 50
269.9986903345002
 51
0.0013096654997424
  0
ARC
  5
1A20
330
2
100
AcDbEntity
  8
0
100
AcDbCircle
 10
88.69297403161239
 20
274.1692229188257
 30
0.0
 40
1.742199999999999
100
AcDbArc
 50
359.9986903345002
 51
90.00130966549649
  0
CIRCLE
  5
1A21
330
2
100
AcDbEntity
  8
0
100
AcDbCircle
 10
90.72267403161232
 20
276.1989229188257
 30
0.0
 40
3.500000000000028
  0
LINE
  5
1A22
330
2
100
AcDbEntity
  8
0
100
AcDbLine
 10
90.72267403161243
 20
280.1989229188257
 30
0.0
 11
87.22267403161243
 21
280.1989229188257
 31
0.0
  0
ARC
  5
1A23
330
2
100
AcDbEntity
  8
0
100
AcDbCircle
 10
90.72267403161232
 20
276.1989229188257
 30
0.0
 40
2.049999999999998
100
AcDbArc
 50
180.0
 51
188.0619600839821
  0
ARC
  5
1A24
330
2
100
AcDbEntity
  8
0
100
AcDbCircle
 10
90.72267403161232
 20
276.1989229188257
 30
0.0
 40
2.049999999999998
100
AcDbArc
 50
171.9380399160178
 51
180.0
  0
LINE
  5
1A25
330
2
100
AcDbEntity
  8
0
100
AcDbLine
 10
87.22264403161238
 20
274.6989229188257
 30
0.0
 11
89.22264403161239
 21
272.6989229188257
 31
0.0
  0
LINE
  5
1A26
330
2
100
AcDbEntity
  8
0
100
AcDbLine
 10
87.22264403161238
 20
274.6989229188257
 30
0.0
 11
89.22264403161239
 21
272.6989229188257
 31
0.0
  0
ARC
  5
1A27
330
2
100
AcDbEntity
  8
0
100
AcDbCircle
 10
92.75237403161247
 20
278.2286229188256
 30
0.0
 40
1.742199999999999
100
AcDbArc
 50
179.9986903345002
 51
270.0013096654964
  0
ARC
  5
1A28
330
2
100
AcDbEntity
  8
0
100
AcDbCircle
 10
90.72267403161232
 20
276.1989229188257
 30
0.0
 40
2.049999999999998
100
AcDbArc
 50
351.9380399160179
 51
0.0
  0
ARC
  5
1A29
330
2
100
AcDbEntity
  8
0
100
AcDbCircle
 10
92.75237403161247
 20
274.1692229188257
 30
0.0
 40
1.742199999999999
100
AcDbArc
 50
89.9986903345035
 51
180.0013096654997
  0
ARC
  5
1A2A
330
2
100
AcDbEntity
  8
0
100
AcDbCircle
 10
90.72267403161232
 20
276.1989229188257
 30
0.0
 40
2.049999999999998
100
AcDbArc
 50
81.93803991601813
 51
90.0
  0
ARC
  5
1A2B
330
2
100
AcDbEntity
  8
0
100
AcDbCircle
 10
90.72267403161232
 20
276.1989229188257
 30
0.0
 40
2.049999999999998
100
AcDbArc
 50
0.0
 51
8.061960083982105
  0
ARC
  5
1A2C
330
2
100
AcDbEntity
  8
0
100
AcDbCircle
 10
90.72267403161232
 20
276.1989229188257
 30
0.0
 40
2.049999999999998
100
AcDbArc
 50
90.0
 51
98.06196008398188
  0
ARC
  5
1A2D
330
2
100
AcDbEntity
  8
0
100
AcDbCircle
 10
90.72267403161232
 20
276.1989229188257
 30
0.0
 40
2.049999999999998
100
AcDbArc
 50
270.0
 51
278.0619600839818
  0
ARC
  5
1A2E
330
2
100
AcDbEntity
  8
0
100
AcDbCircle
 10
90.72267403161232
 20
276.1989229188257
 30
0.0
 40
2.049999999999998
100
AcDbArc
 50
261.9380399160181
 51
270.0
  0
LINE
  5
1A2F
330
2
100
AcDbEntity
  8
0
100
AcDbLine
 10
85.22264403161239
 20
292.1989229188257
 30
0.0
 11
81.72264403161239
 21
295.6989229188257
 31
0.0
  0
LINE
  5
1A30
330
2
100
AcDbEntity
  8
0
100
AcDbLine
 10
81.72264403161239
 20
299.6989229188257
 30
0.0
 11
85.22264403161239
 21
303.1989229188257
 31
0.0
  0
LINE
  5
1A31
330
2
100
AcDbEntity
  8
0
100
AcDbLine
 10
81.72264403161239
 20
299.6989229188257
 30
0.0
 11
81.72264403161239
 21
295.6989229188257
 31
0.0
  0
LINE
  5
1A32
330
2
100
AcDbEntity
  8
0
100
AcDbLine
 10
85.22264403161239
 20
291.1989229188257
 30
0.0
 11
85.22264403161239
 21
304.1989229188257
 31
0.0
  0
ARC
  5
1A33
330
2
100
AcDbEntity
  8
0
100
AcDbCircle
 10
86.22264403161228
 20
291.1989229188257
 30
0.0
 40
1.0
100
AcDbArc
 50
180.0
 51
270.0
  0
LINE
  5
1A34
330
2
100
AcDbEntity
  8
0
100
AcDbLine
 10
86.22264403161238
 20
290.1989229188257
 30
0.0
 11
87.22264403161238
 21
290.1989229188257
 31
0.0
  0
ARC
  5
1A35
330
2
100
AcDbEntity
  8
0
100
AcDbCircle
 10
86.22265903161235
 20
304.1989229188257
 30
0.0
 40
1.0
100
AcDbArc
 50
90.0
 51
180.0
  0
LINE
  5
1A36
330
2
100
AcDbEntity
  8
0
100
AcDbLine
 10
86.22264403161238
 20
305.1989229188257
 30
0.0
 11
87.22264403161238
 21
305.1989229188257
 31
0.0
  0
LINE
  5
1A37
330
2
100
AcDbEntity
  8
0
100
AcDbLine
 10
94.72264403161238
 20
276.1989229188257
 30
0.0
 11
94.72264403161238
 21
272.6991219188257
 31
0.0
  0
LINE
  5
1A38
330
2
100
AcDbEntity
  8
0
100
AcDbLine
 10
88.62263803161239
 20
320.2989139188257
 30
0.0
 11
89.62264503161236
 21
321.2989139188257
 31
0.0
  0
LINE
  5
1A39
330
2
100
AcDbEntity
  8
0
100
AcDbLine
 10
87.22264403161238
 20
320.6989229188257
 30
0.0
 11
89.22264403161239
 21
322.6989229188257
 31
0.0
  0
LINE
  5
1A3A
330
2
100
AcDbEntity
  8
0
100
AcDbLine
 10
137.2225440316124
 20
320.6989229188256
 30
0.0
 11
137.2225440316123
 21
274.6989229188257
 31
0.0
  0
LINE
  5
1A3B
330
2
100
AcDbEntity
  8
0
100
AcDbLine
 10
135.8227490316123
 20
275.0989169188257
 30
0.0
 11
135.8227490316123
 21
315.1989229188257
 31
0.0
  0
LINE
  5
1A3C
330
2
100
AcDbEntity
  8
0
100
AcDbLine
 10
137.2227430316123
 20
274.6989229188257
 30
0.0
 11
135.2225440316123
 21
272.6989229188257
 31
0.0
  0
LINE
  5
1A3D
330
2
100
AcDbEntity
  8
0
100
AcDbLine
 10
137.2225440316123
 20
274.6989229188257
 30
0.0
 11
135.2225440316123
 21
272.6989229188257
 31
0.0
  0
LINE
  5
1A3E
330
2
100
AcDbEntity
  8
0
100
AcDbLine
 10
137.2225440316123
 20
274.6989229188257
 30
0.0
 11
135.2225440316123
 21
272.6989229188257
 31
0.0
  0
LINE
  5
1A3F
330
2
100
AcDbEntity
  8
0
100
AcDbLine
 10
134.8227490316123
 20
274.0989169188257
 30
0.0
 11
135.8227490316123
 21
275.0989169188257
 31
0.0
  0
ARC
  5
1A40
330
2
100
AcDbEntity
  8
0
100
AcDbCircle
 10
131.6930430316124
 20
321.2286229188257
 30
0.0
 40
1.742199999999999
100
AcDbArc
 50
269.9986903345002
 51
0.0013096654997424
  0
ARC
  5
1A41
330
2
100
AcDbEntity
  8
0
100
AcDbCircle
 10
131.6930430316124
 20
317.1692229188256
 30
0.0
 40
1.742199999999999
100
AcDbArc
 50
359.9986903345002
 51
90.00130966549649
  0
CIRCLE
  5
1A42
330
2
100
AcDbEntity
  8
0
100
AcDbCircle
 10
133.7227430316123
 20
319.1989229188257
 30
0.0
 40
3.500000000000028
  0
ARC
  5
1A43
330
2
100
AcDbEntity
  8
0
100
AcDbCircle
 10
133.7227430316123
 20
319.1989229188257
 30
0.0
 40
4.0
100
AcDbArc
 50
180.0
 51
270.0
  0
LINE
  5
1A44
330
2
100
AcDbEntity
  8
0
100
AcDbLine
 10
129.7225440316124
 20
319.1989229188257
 30
0.0
 11
129.7225440316124
 21
322.6989229188256
 31
0.0
  0
ARC
  5
1A45
330
2
100
AcDbEntity
  8
0
100
AcDbCircle
 10
133.7227430316123
 20
319.1989229188257
 30
0.0
 40
2.049999999999998
100
AcDbArc
 50
180.0
 51
188.0619600839821
  0
ARC
  5
1A46
330
2
100
AcDbEntity
  8
0
100
AcDbCircle
 10
133.7227430316123
 20
319.1989229188257
 30
0.0
 40
2.049999999999998
100
AcDbArc
 50
171.9380399160178
 51
180.0
  0
ARC
  5
1A47
330
2
100
AcDbEntity
  8
0
100
AcDbCircle
 10
135.7524430316125
 20
321.2286229188257
 30
0.0
 40
1.742199999999999
100
AcDbArc
 50
179.9986903345002
 51
270.0013096654964
  0
ARC
  5
1A48
330
2
100
AcDbEntity
  8
0
100
AcDbCircle
 10
133.7227430316123
 20
319.1989229188257
 30
0.0
 40
2.049999999999998
100
AcDbArc
 50
351.9380399160179
 51
0.0
  0
ARC
  5
1A49
330
2
100
AcDbEntity
  8
0
100
AcDbCircle
 10
135.7524430316125
 20
317.1692229188256
 30
0.0
 40
1.742199999999999
100
AcDbArc
 50
89.9986903345035
 51
180.0013096654997
  0
ARC
  5
1A4A
330
2
100
AcDbEntity
  8
0
100
AcDbCircle
 10
133.7227430316123
 20
319.1989229188257
 30
0.0
 40
2.049999999999998
100
AcDbArc
 50
0.0
 51
8.061960083982105
  0
ARC
  5
1A4B
330
2
100
AcDbEntity
  8
0
100
AcDbCircle
 10
133.7227430316123
 20
319.1989229188257
 30
0.0
 40
2.049999999999998
100
AcDbArc
 50
270.0
 51
278.0619600839818
  0
ARC
  5
1A4C
330
2
100
AcDbEntity
  8
0
100
AcDbCircle
 10
133.7227430316123
 20
319.1989229188257
 30
0.0
 40
2.049999999999998
100
AcDbArc
 50
261.9380399160181
 51
270.0
  0
LINE
  5
1A4D
330
2
100
AcDbEntity
  8
0
100
AcDbLine
 10
133.7225440316124
 20
315.1989229188257
 30
0.0
 11
137.2225440316124
 21
315.1989229188257
 31
0.0
  0
ARC
  5
1A4E
330
2
100
AcDbEntity
  8
0
100
AcDbCircle
 10
133.7227430316123
 20
319.1989229188257
 30
0.0
 40
2.049999999999998
100
AcDbArc
 50
81.93803991601813
 51
90.0
  0
ARC
  5
1A4F
330
2
100
AcDbEntity
  8
0
100
AcDbCircle
 10
133.7227430316123
 20
319.1989229188257
 30
0.0
 40
2.049999999999998
100
AcDbArc
 50
90.0
 51
98.06196008398188
  0
LINE
  5
1A50
330
2
100
AcDbEntity
  8
0
100
AcDbLine
 10
135.2225440316124
 20
322.6989229188256
 30
0.0
 11
137.2225440316124
 21
320.6989229188256
 31
0.0
  0
LINE
  5
1A51
330
2
100
AcDbEntity
  8
0
100
AcDbLine
 10
137.2225440316124
 20
320.6989229188256
 30
0.0
 11
135.2225440316124
 21
322.6989229188256
 31
0.0
  0
ARC
  5
1A52
330
2
100
AcDbEntity
  8
0
100
AcDbCircle
 10
368.2318312780194
 20
163.7910182449044
 30
0.0
 40
1.3
100
AcDbArc
 50
105.8808500082811
 51
175.0000000000002
  0
LINE
  5
1A53
330
2
100
AcDbEntity
  8
0
100
AcDbLine
 10
366.3388270316124
 20
162.7849055206581
 30
0.0
 11
373.8388270316124
 21
162.7849055206582
 31
0.0
  0
LINE
  5
1A55
330
2
100
AcDbEntity
  8
0
100
AcDbLine
 10
366.8388420316123
 20
162.7849055206582
 30
0.0
 11
366.9367781705003
 21
163.9043207104764
 31
0.0
  0
LINE
  5
1A56
330
2
100
AcDbEntity
  8
0
100
AcDbLine
 10
365.8388270316124
 20
165.2849055206581
 30
0.0
 11
366.3388270316124
 21
164.7849055206581
 31
0.0
  0
LINE
  5
1A57
330
2
100
AcDbEntity
  8
0
100
AcDbLine
 10
366.3388270316124
 20
162.7849055206581
 30
0.0
 11
366.3388270316124
 21
164.7849055206582
 31
0.0
  0
LINE
  5
1A58
330
2
100
AcDbEntity
  8
0
100
AcDbLine
 10
366.3388270316124
 20
164.7849055206581
 30
0.0
 11
367.393864641992
 21
164.7849055206581
 31
0.0
  0
LINE
  5
1A59
330
2
100
AcDbEntity
  8
0
100
AcDbLine
 10
373.8388270316124
 20
164.2849055206581
 30
0.0
 11
373.8388270316124
 21
149.2485471182609
 31
0.0
  0
LINE
  5
1A5C
330
2
100
AcDbEntity
  8
0
100
AcDbLine
 10
371.6767508476386
 20
165.2849055206581
 30
0.0
 11
372.8388270316124
 21
165.2849055206581
 31
0.0
  0
ARC
  5
1A5D
330
2
100
AcDbEntity
  8
0
100
AcDbCircle
 10
370.3388420316124
 20
156.3849055206581
 30
0.0
 40
9.0
100
AcDbArc
 50
74.11914999171883
 51
105.8808500082811
  0
LINE
  5
1A5E
330
2
100
AcDbEntity
  8
0
100
AcDbLine
 10
372.3685818547765
 20
164.9373470580357
 30
0.0
 11
372.3888420316124
 21
165.1483238034973
 31
0.0
  0
LINE
  5
1A5F
330
2
100
AcDbEntity
  8
0
100
AcDbLine
 10
368.3091022084483
 20
164.9373470580357
 30
0.0
 11
368.2888420316124
 21
165.1483238034973
 31
0.0
  0
LINE
  5
1A60
330
2
100
AcDbEntity
  8
0
100
AcDbLine
 10
370.6263420320675
 20
163.8679055206582
 30
0.0
 11
370.0513420311573
 21
163.8679055206582
 31
0.0
  0
SPLINE
  5
1A61
330
2
100
AcDbEntity
  8
0
100
AcDbSpline
210
0.0
220
0.0
230
1.0
 70
     8
 71
     3
 72
    11
 73
     7
 74
     0
 42
0.0000000001
 43
0.0000000001
 40
0.0
 40
0.0
 40
0.0
 40
0.0
 40
0.4601364636755307
 40
1.04988694485363
 40
1.713742833862792
 40
2.320347933405154
 40
2.320347933405154
 40
2.320347933405154
 40
2.320347933405179
 10
370.6263420320675
 20
163.8679055206582
 30
0.0
 10
370.6487596891753
 20
164.022928960338
 30
0.0
 10
370.6999097444086
 20
164.3766437782555
 30
0.0
 10
371.1357949059422
 20
164.8013714498572
 30
0.0
 10
371.7408456209496
 20
165.0205586298231
 30
0.0
 10
372.1660302451254
 20
164.9515673302124
 30
0.0
 10
372.3685818547765
 20
164.9373470580357
 30
0.0
  0
SPLINE
  5
1A62
330
2
100
AcDbEntity
  8
0
100
AcDbSpline
210
0.0
220
0.0
230
1.0
 70
     8
 71
     3
 72
    11
 73
     7
 74
     0
 42
0.0000000001
 43
0.0000000001
 40
0.0
 40
0.0
 40
0.0
 40
0.0
 40
0.4601364636755307
 40
1.04988694485363
 40
1.713742833862792
 40
2.320347933405154
 40
2.320347933405154
 40
2.320347933405154
 40
2.320347933405179
 10
370.0513420311573
 20
163.8679055206582
 30
0.0
 10
370.0289243740495
 20
164.022928960338
 30
0.0
 10
369.9777743188163
 20
164.3766437782555
 30
0.0
 10
369.5418891572827
 20
164.8013714498572
 30
0.0
 10
368.9368384422752
 20
165.0205586298231
 30
0.0
 10
368.5116538180994
 20
164.9515673302124
 30
0.0
 10
368.3091022084483
 20
164.9373470580357
 30
0.0
  0
LINE
  5
1A63
330
2
100
AcDbEntity
  8
0
100
AcDbLine
 10
373.8388420316123
 20
162.7849055206582
 30
0.0
 11
373.7409058927244
 21
163.9043207104764
 31
0.0
  0
ARC
  5
1A64
330
2
100
AcDbEntity
  8
0
100
AcDbCircle
 10
372.4458527852053
 20
163.7910182449044
 30
0.0
 40
1.3
100
AcDbArc
 50
4.999999999999743
 51
74.11914999171883
  0
LINE
  5
1A65
330
2
100
AcDbEntity
  8
0
100
AcDbLine
 10
372.8388270316124
 20
165.2849055206581
 30
0.0
 11
373.8388270316124
 21
164.2849055206581
 31
0.0
  0
LINE
  5
1A67
330
2
100
AcDbEntity
  8
0
100
AcDbLine
 10
589.6436120943206
 20
165.2849055206581
 30
0.0
 11
633.8057032782951
 21
165.2849055206581
 31
0.0
  0
LINE
  5
1A68
330
2
100
AcDbEntity
  8
0
100
AcDbLine
 10
592.3057037068661
 20
164.2849055206581
 30
0.0
 11
634.8057102782951
 21
164.2849055206581
 31
0.0
  0
LINE
  5
1A6A
330
2
100
AcDbEntity
  8
0
100
AcDbLine
 10
634.8057102782952
 20
136.2849075206581
 30
0.0
 11
584.8057032782951
 21
136.2849075206581
 31
0.0
  0
LINE
  5
1A6B
330
2
100
AcDbEntity
  8
0
100
AcDbLine
 10
633.3057102782952
 20
134.2849075206581
 30
0.0
 11
586.8057032782951
 21
134.2849075206581
 31
0.0
  0
LINE
  5
1A6C
330
2
100
AcDbEntity
  8
CENTER
100
AcDbLine
 10
642.7494592782951
 20
155.7849055206581
 30
0.0
 11
580.8534003145571
 21
155.7849055206581
 31
0.0
  0
LINE
  5
1A6D
330
2
100
AcDbEntity
  8
0
100
AcDbLine
 10
636.8057102782952
 20
146.2849075206581
 30
0.0
 11
584.8057032782951
 21
146.2849075206581
 31
0.0
  0
LINE
  5
1A6E
330
2
100
AcDbEntity
  8
0
100
AcDbLine
 10
584.8057032782951
 20
164.2849055206581
 30
0.0
 11
584.8057032782951
 21
136.2849075206581
 31
0.0
  0
LINE
  5
1A6F
330
2
100
AcDbEntity
  8
0
100
AcDbLine
 10
586.8057032782951
 20
134.2849075206581
 30
0.0
 11
584.8057032782951
 21
136.2849075206581
 31
0.0
  0
LINE
  5
1A70
330
2
100
AcDbEntity
  8
0
100
AcDbLine
 10
587.3057032782951
 20
134.2849075206581
 30
0.0
 11
587.3057032782951
 21
132.7849075206581
 31
0.0
  0
ARC
  5
1A71
330
2
100
AcDbEntity
  8
0
100
AcDbCircle
 10
588.3057032782951
 20
156.384905520658
 30
0.0
 40
9.0
100
AcDbArc
 50
74.11914999171883
 51
105.8808500082811
  0
SPLINE
  5
1A72
330
2
100
AcDbEntity
  8
0
100
AcDbSpline
210
0.0
220
0.0
230
1.0
 70
     8
 71
     3
 72
    11
 73
     7
 74
     0
 42
0.0000000001
 43
0.0000000001
 40
0.0
 40
0.0
 40
0.0
 40
0.0
 40
0.4601364636755307
 40
1.04988694485363
 40
1.713742833862792
 40
2.320347933405154
 40
2.320347933405154
 40
2.320347933405154
 40
2.320347933405179
 10
588.0182032778401
 20
163.867905520658
 30
0.0
 10
587.9957856207322
 20
164.0229289603379
 30
0.0
 10
587.944635565499
 20
164.3766437782554
 30
0.0
 10
587.5087504039654
 20
164.8013714498571
 30
0.0
 10
586.903699688958
 20
165.0205586298229
 30
0.0
 10
586.4785150647821
 20
164.9515673302123
 30
0.0
 10
586.275963455131
 20
164.9373470580356
 30
0.0
  0
LINE
  5
1A73
330
2
100
AcDbEntity
  8
0
100
AcDbLine
 10
592.3057037068661
 20
162.784905520658
 30
0.0
 11
584.805703706866
 21
162.784905520658
 31
0.0
  0
LINE
  5
1A74
330
2
100
AcDbEntity
  8
0
100
AcDbLine
 10
586.275963455131
 20
164.9373470580356
 30
0.0
 11
586.2557032782952
 21
165.1483238034971
 31
0.0
  0
LINE
  5
1A75
330
2
100
AcDbEntity
  8
0
100
AcDbLine
 10
584.8057032782951
 20
162.784905520658
 30
0.0
 11
584.9036394171831
 21
163.9043207104763
 31
0.0
  0
ARC
  5
1A76
330
2
100
AcDbEntity
  8
0
100
AcDbCircle
 10
586.1986925247022
 20
163.7910182449043
 30
0.0
 40
1.3
100
AcDbArc
 50
105.8808500082811
 51
175.0000000000002
  0
LINE
  5
1A77
330
2
100
AcDbEntity
  8
0
100
AcDbLine
 10
584.8057032782951
 20
164.2849055206581
 30
0.0
 11
585.8057032782951
 21
165.2849055206581
 31
0.0
  0
LINE
  5
1A78
330
2
100
AcDbEntity
  8
0
100
AcDbLine
 10
585.8057032782951
 20
165.2849055206581
 30
0.0
 11
586.9677944622698
 21
165.2849055206581
 31
0.0
  0
LINE
  5
1A79
330
2
100
AcDbEntity
  8
0
100
AcDbLine
 10
592.3057037068661
 20
164.784905520658
 30
0.0
 11
591.2506806679154
 21
164.784905520658
 31
0.0
  0
LINE
  5
1A7A
330
2
100
AcDbEntity
  8
0
100
AcDbLine
 10
591.8057032782951
 20
162.784905520658
 30
0.0
 11
591.7077671394072
 21
163.9043207104763
 31
0.0
  0
ARC
  5
1A7B
330
2
100
AcDbEntity
  8
0
100
AcDbCircle
 10
590.412714031888
 20
163.7910182449043
 30
0.0
 40
1.3
100
AcDbArc
 50
4.999999999999743
 51
74.11914999171883
  0
LINE
  5
1A7C
330
2
100
AcDbEntity
  8
0
100
AcDbLine
 10
590.3354431014593
 20
164.9373470580356
 30
0.0
 11
590.3557032782952
 21
165.1483238034971
 31
0.0
  0
LINE
  5
1A7D
330
2
100
AcDbEntity
  8
0
100
AcDbLine
 10
588.5932032787502
 20
163.867905520658
 30
0.0
 11
588.0182032778401
 21
163.867905520658
 31
0.0
  0
SPLINE
  5
1A7E
330
2
100
AcDbEntity
  8
0
100
AcDbSpline
210
0.0
220
0.0
230
1.0
 70
     8
 71
     3
 72
    11
 73
     7
 74
     0
 42
0.0000000001
 43
0.0000000001
 40
0.0
 40
0.0
 40
0.0
 40
0.0
 40
0.4601364636755307
 40
1.04988694485363
 40
1.713742833862792
 40
2.320347933405154
 40
2.320347933405154
 40
2.320347933405154
 40
2.320347933405179
 10
588.5932032787502
 20
163.867905520658
 30
0.0
 10
588.615620935858
 20
164.0229289603379
 30
0.0
 10
588.6667709910914
 20
164.3766437782554
 30
0.0
 10
589.1026561526249
 20
164.8013714498571
 30
0.0
 10
589.7077068676323
 20
165.0205586298229
 30
0.0
 10
590.1328914918082
 20
164.9515673302123
 30
0.0
 10
590.3354431014593
 20
164.9373470580356
 30
0.0
  0
LINE
  5
1A7F
330
2
100
AcDbEntity
  8
0
100
AcDbLine
 10
592.805703706866
 20
165.284905520658
 30
0.0
 11
592.3057037068661
 21
164.784905520658
 31
0.0
  0
LINE
  5
1A80
330
2
100
AcDbEntity
  8
0
100
AcDbLine
 10
592.3057037068661
 20
162.784905520658
 30
0.0
 11
592.3057037068661
 21
164.784905520658
 31
0.0
  0
LINE
  5
1A81
330
2
100
AcDbEntity
  8
0
100
AcDbLine
 10
640.3056952782951
 20
159.7849055206581
 30
0.0
 11
636.8056952782951
 21
161.2849055206581
 31
0.0
  0
LINE
  5
1A82
330
2
100
AcDbEntity
  8
0
100
AcDbLine
 10
634.8057102782952
 20
164.2849055206581
 30
0.0
 11
634.8057102782952
 21
136.2849075206581
 31
0.0
  0
LINE
  5
1A83
330
2
100
AcDbEntity
  8
0
100
AcDbLine
 10
636.8056952782951
 20
162.2849055206581
 30
0.0
 11
636.8057102782952
 21
146.2849075206581
 31
0.0
  0
LINE
  5
1A84
330
2
100
AcDbEntity
  8
CENTER
100
AcDbLine
 10
609.8057032782951
 20
129.5912065206581
 30
0.0
 11
609.8057032782951
 21
170.6724055206581
 31
0.0
  0
LINE
  5
1A85
330
2
100
AcDbEntity
  8
0
100
AcDbLine
 10
634.8057102782952
 20
136.2849075206581
 30
0.0
 11
632.8057102782952
 21
134.2849075206581
 31
0.0
  0
LINE
  5
1A86
330
2
100
AcDbEntity
  8
0
100
AcDbLine
 10
633.3057102782952
 20
134.2849075206581
 30
0.0
 11
633.3057102782952
 21
132.7849075206581
 31
0.0
  0
LINE
  5
1A87
330
2
100
AcDbEntity
  8
0
100
AcDbLine
 10
640.3057102782952
 20
151.7849055206581
 30
0.0
 11
636.8057102782952
 21
150.2849055206581
 31
0.0
  0
LINE
  5
1A88
330
2
100
AcDbEntity
  8
0
100
AcDbLine
 10
640.3056952782951
 20
159.7849055206581
 30
0.0
 11
640.3056952782951
 21
151.7849055206581
 31
0.0
  0
ARC
  5
1A89
330
2
100
AcDbEntity
  8
0
100
AcDbCircle
 10
635.8056952782951
 20
162.2849055206581
 30
0.0
 40
1.0
100
AcDbArc
 50
0.0
 51
90.0
  0
LINE
  5
1A8A
330
2
100
AcDbEntity
  8
0
100
AcDbLine
 10
635.8057102782952
 20
163.2849055206581
 30
0.0
 11
634.8057102782952
 21
163.2849055206581
 31
0.0
  0
LINE
  5
1A8B
330
2
100
AcDbEntity
  8
0
100
AcDbLine
 10
633.8057102782951
 20
165.2849055206581
 30
0.0
 11
634.8057102782951
 21
164.2849055206581
 31
0.0
  0
LINE
  5
1ADC
330
2
100
AcDbEntity
  8
0
100
AcDbLine
 10
137.2226510316123
 20
164.2849055206581
 30
0.0
 11
137.2226510316123
 21
136.2849075206581
 31
0.0
  0
LINE
  5
1ADE
330
2
100
AcDbEntity
  8
0
100
AcDbLine
 10
81.72265903161235
 20
159.7849055206581
 30
0.0
 11
81.72265903161235
 21
151.7849055206581
 31
0.0
  0
LINE
  5
1ADF
330
2
100
AcDbEntity
  8
0
100
AcDbLine
 10
85.22265903161235
 20
162.2849055206581
 30
0.0
 11
85.22264403161239
 21
146.2849075206581
 31
0.0
  0
LINE
  5
1AE0
330
2
100
AcDbEntity
  8
0
100
AcDbLine
 10
87.22264403161238
 20
164.2849055206581
 30
0.0
 11
87.22264403161238
 21
136.2849075206581
 31
0.0
  0
LINE
  5
1AE1
330
2
100
AcDbEntity
  8
CENTER
100
AcDbLine
 10
112.2226510316123
 20
129.5912065206581
 30
0.0
 11
112.2226510316123
 21
170.6724055206581
 31
0.0
  0
LINE
  5
1AE2
330
2
100
AcDbEntity
  8
CENTER
100
AcDbLine
 10
79.27889503161236
 20
155.7849055206581
 30
0.0
 11
141.1749539953505
 21
155.7849055206581
 31
0.0
  0
LINE
  5
1AE3
330
2
100
AcDbEntity
  8
0
100
AcDbLine
 10
87.22264403161238
 20
136.2849075206581
 30
0.0
 11
137.2226510316123
 21
136.2849075206581
 31
0.0
  0
LINE
  5
1AE4
330
2
100
AcDbEntity
  8
0
100
AcDbLine
 10
85.22264403161239
 20
146.2849075206581
 30
0.0
 11
137.2226510316123
 21
146.2849075206581
 31
0.0
  0
LINE
  5
1AE5
330
2
100
AcDbEntity
  8
0
100
AcDbLine
 10
88.72264403161238
 20
134.2849075206581
 30
0.0
 11
135.2226510316123
 21
134.2849075206581
 31
0.0
  0
LINE
  5
1AE6
330
2
100
AcDbEntity
  8
0
100
AcDbLine
 10
88.72264403161238
 20
134.2849075206581
 30
0.0
 11
88.72264403161238
 21
132.7849075206581
 31
0.0
  0
LINE
  5
1AE7
330
2
100
AcDbEntity
  8
0
100
AcDbLine
 10
87.22264403161238
 20
136.2849075206581
 30
0.0
 11
89.22264403161239
 21
134.2849075206581
 31
0.0
  0
LINE
  5
1AE8
330
2
100
AcDbEntity
  8
0
100
AcDbLine
 10
81.72264403161239
 20
151.7849055206581
 30
0.0
 11
85.22264403161239
 21
150.2849055206581
 31
0.0
  0
LINE
  5
1AE9
330
2
100
AcDbEntity
  8
0
100
AcDbLine
 10
134.7226510316123
 20
134.2849075206581
 30
0.0
 11
134.7226510316123
 21
132.7849075206581
 31
0.0
  0
LINE
  5
1AEA
330
2
100
AcDbEntity
  8
0
100
AcDbLine
 10
135.2226510316123
 20
134.2849075206581
 30
0.0
 11
137.2226510316123
 21
136.2849075206581
 31
0.0
  0
LINE
  5
1AEB
330
2
100
AcDbEntity
  8
0
100
AcDbLine
 10
94.72264446018334
 20
164.2849055206581
 30
0.0
 11
137.2226580316124
 21
164.2849055206581
 31
0.0
  0
LINE
  5
1AEC
330
2
100
AcDbEntity
  8
0
100
AcDbLine
 10
92.06055984763793
 20
165.2849055206581
 30
0.0
 11
136.2226510316123
 21
165.2849055206581
 31
0.0
  0
LINE
  5
1AEE
330
2
100
AcDbEntity
  8
0
100
AcDbLine
 10
95.22264446018334
 20
165.284905520658
 30
0.0
 11
94.72264446018334
 21
164.784905520658
 31
0.0
  0
LINE
  5
1AEF
330
2
100
AcDbEntity
  8
0
100
AcDbLine
 10
94.72264446018334
 20
162.784905520658
 30
0.0
 11
94.72264446018334
 21
164.784905520658
 31
0.0
  0
LINE
  5
1AF0
330
2
100
AcDbEntity
  8
0
100
AcDbLine
 10
94.22265103161237
 20
162.784905520658
 30
0.0
 11
94.12471489272457
 21
163.9043207104763
 31
0.0
  0
LINE
  5
1AF1
330
2
100
AcDbEntity
  8
0
100
AcDbLine
 10
87.22265103161248
 20
162.784905520658
 30
0.0
 11
87.32058717050028
 21
163.9043207104763
 31
0.0
  0
LINE
  5
1AF2
330
2
100
AcDbEntity
  8
0
100
AcDbLine
 10
86.22264403161238
 20
163.2849055206581
 30
0.0
 11
87.22264403161238
 21
163.2849055206581
 31
0.0
  0
ARC
  5
1AF3
330
2
100
AcDbEntity
  8
0
100
AcDbCircle
 10
86.22265903161235
 20
162.2849055206581
 30
0.0
 40
1.0
100
AcDbArc
 50
90.0
 51
180.0
  0
LINE
  5
1AF4
330
2
100
AcDbEntity
  8
0
100
AcDbLine
 10
81.72265903161235
 20
159.7849055206581
 30
0.0
 11
85.22265903161235
 21
161.2849055206581
 31
0.0
  0
LINE
  5
1AF5
330
2
100
AcDbEntity
  8
0
100
AcDbLine
 10
94.72264446018334
 20
162.784905520658
 30
0.0
 11
87.22264446018334
 21
162.784905520658
 31
0.0
  0
ARC
  5
1AF6
330
2
100
AcDbEntity
  8
0
100
AcDbCircle
 10
88.61564027801945
 20
163.7910182449044
 30
0.0
 40
1.3
100
AcDbArc
 50
105.8808500082811
 51
175.0000000000002
  0
SPLINE
  5
1AF7
330
2
100
AcDbEntity
  8
0
100
AcDbSpline
210
0.0
220
0.0
230
1.0
 70
     8
 71
     3
 72
    11
 73
     7
 74
     0
 42
0.0000000001
 43
0.0000000001
 40
0.0
 40
0.0
 40
0.0
 40
0.0
 40
0.4601364636755307
 40
1.04988694485363
 40
1.713742833862792
 40
2.320347933405154
 40
2.320347933405154
 40
2.320347933405154
 40
2.320347933405179
 10
91.01015103206748
 20
163.867905520658
 30
0.0
 10
91.03256868917538
 20
164.0229289603379
 30
0.0
 10
91.08371874440866
 20
164.3766437782554
 30
0.0
 10
91.51960390594229
 20
164.8013714498571
 30
0.0
 10
92.12465462094963
 20
165.020558629823
 30
0.0
 10
92.54983924512556
 20
164.9515673302123
 30
0.0
 10
92.75239085477654
 20
164.9373470580356
 30
0.0
  0
LINE
  5
1AF8
330
2
100
AcDbEntity
  8
0
100
AcDbLine
 10
91.01015103206748
 20
163.867905520658
 30
0.0
 11
90.43515103115749
 21
163.867905520658
 31
0.0
  0
LINE
  5
1AF9
330
2
100
AcDbEntity
  8
0
100
AcDbLine
 10
92.75239085477654
 20
164.9373470580356
 30
0.0
 11
92.77265103161255
 21
165.1483238034972
 31
0.0
  0
LINE
  5
1AFA
330
2
100
AcDbEntity
  8
0
100
AcDbLine
 10
88.2226440316124
 20
165.2849055206581
 30
0.0
 11
89.38474221558704
 21
165.2849055206581
 31
0.0
  0
LINE
  5
1AFB
330
2
100
AcDbEntity
  8
0
100
AcDbLine
 10
87.22264403161238
 20
164.2849055206581
 30
0.0
 11
88.2226440316124
 21
165.2849055206581
 31
0.0
  0
LINE
  5
1AFC
330
2
100
AcDbEntity
  8
0
100
AcDbLine
 10
88.22264446018335
 20
165.284905520658
 30
0.0
 11
87.22264403161238
 21
164.2849055206581
 31
0.0
  0
LINE
  5
1AFD
330
2
100
AcDbEntity
  8
0
100
AcDbLine
 10
88.69291120844843
 20
164.9373470580356
 30
0.0
 11
88.67265103161242
 21
165.1483238034972
 31
0.0
  0
SPLINE
  5
1AFE
330
2
100
AcDbEntity
  8
0
100
AcDbSpline
210
0.0
220
0.0
230
1.0
 70
     8
 71
     3
 72
    11
 73
     7
 74
     0
 42
0.0000000001
 43
0.0000000001
 40
0.0
 40
0.0
 40
0.0
 40
0.0
 40
0.4601364636755307
 40
1.04988694485363
 40
1.713742833862792
 40
2.320347933405154
 40
2.320347933405154
 40
2.320347933405154
 40
2.320347933405179
 10
90.43515103115749
 20
163.867905520658
 30
0.0
 10
90.41273337404959
 20
164.0229289603379
 30
0.0
 10
90.36158331881631
 20
164.3766437782554
 30
0.0
 10
89.92569815728268
 20
164.8013714498571
 30
0.0
 10
89.32064744227535
 20
165.020558629823
 30
0.0
 10
88.89546281809941
 20
164.9515673302123
 30
0.0
 10
88.69291120844843
 20
164.9373470580356
 30
0.0
  0
ARC
  5
1AFF
330
2
100
AcDbEntity
  8
0
100
AcDbCircle
 10
90.72265103161248
 20
156.384905520658
 30
0.0
 40
9.0
100
AcDbArc
 50
74.11914999171883
 51
105.8808500082811
  0
LINE
  5
1B00
330
2
100
AcDbEntity
  8
0
100
AcDbLine
 10
94.72264446018334
 20
164.784905520658
 30
0.0
 11
93.66762842123263
 21
164.784905520658
 31
0.0
  0
ARC
  5
1B01
330
2
100
AcDbEntity
  8
0
100
AcDbCircle
 10
92.82966178520529
 20
163.7910182449044
 30
0.0
 40
1.3
100
AcDbArc
 50
4.999999999999743
 51
74.11914999171883
  0
LINE
  5
1B02
330
2
100
AcDbEntity
  8
0
100
AcDbLine
 10
136.2226580316124
 20
165.2849055206581
 30
0.0
 11
137.2226580316124
 21
164.2849055206581
 31
0.0
  0
LINE
  5
1BD4
330
2
100
AcDbEntity
  8
0
100
AcDbLine
 10
86.72263103161231
 20
305.1989229188257
 30
0.0
 11
86.72263103161231
 21
337.6989229188257
 31
0.0
  0
ARC
  5
1C2A
330
2
100
AcDbEntity
  8
0
100
AcDbCircle
 10
381.8388460316125
 20
139.0849105206581
 30
0.0
 40
2.0
100
AcDbArc
 50
180.0
 51
270.0
  0
ARC
  5
1C2B
330
2
100
AcDbEntity
  8
0
100
AcDbCircle
 10
381.8388460316125
 20
95.0849105206581
 30
0.0
 40
2.0
100
AcDbArc
 50
90.00000000000003
 51
180.0
  0
ARC
  5
1C2C
330
2
100
AcDbEntity
  8
0
100
AcDbCircle
 10
315.8388380316122
 20
95.0849105206581
 30
0.0
 40
2.0
100
AcDbArc
 50
0.000000000000007
 51
89.99999999999998
  0
ARC
  5
1C2D
330
2
100
AcDbEntity
  8
0
100
AcDbCircle
 10
315.8388380316122
 20
139.0849105206581
 30
0.0
 40
2.0
100
AcDbArc
 50
270.0
 51
0.000000000000007
  0
LINE
  5
1C2E
330
2
100
AcDbEntity
  8
0
100
AcDbLine
 10
230.2226510316123
 20
262.6989239188257
 30
0.0
 11
192.2226470316123
 21
262.6989239188257
 31
0.0
  0
ARC
  5
1C2F
330
2
100
AcDbEntity
  8
0
100
AcDbCircle
 10
230.2226550316123
 20
263.6989229188257
 30
0.0
 40
1.0
100
AcDbArc
 50
270.0
 51
0.0
  0
LINE
  5
1C30
330
2
100
AcDbEntity
  8
0
100
AcDbLine
 10
231.2226510316123
 20
263.6989229188257
 30
0.0
 11
231.2226510316123
 21
264.7029189168205
 31
0.0
  0
ARC
  5
1C31
330
2
100
AcDbEntity
  8
0
100
AcDbCircle
 10
233.2226470316124
 20
264.6989189188256
 30
0.0
 40
2.0
100
AcDbArc
 50
90.00000000000003
 51
180.0
  0
LINE
  5
1C32
330
2
100
AcDbEntity
  8
0
100
AcDbLine
 10
191.2226470316123
 20
263.6989229188257
 30
0.0
 11
191.2226470316123
 21
264.6989189188256
 31
0.0
  0
ARC
  5
1C33
330
2
100
AcDbEntity
  8
0
100
AcDbCircle
 10
189.2226470316122
 20
264.6989189188256
 30
0.0
 40
2.0
100
AcDbArc
 50
0.0
 51
90.00000000000003
  0
ARC
  5
1C34
330
2
100
AcDbEntity
  8
0
100
AcDbCircle
 10
192.2226470316123
 20
263.6989229188257
 30
0.0
 40
1.0
100
AcDbArc
 50
180.0
 51
270.0
  0
ARC
  5
1C35
330
2
100
AcDbEntity
  8
0
100
AcDbCircle
 10
189.2226470316122
 20
330.6989269188259
 30
0.0
 40
2.0
100
AcDbArc
 50
270.0
 51
0.0
  0
ARC
  5
1C36
330
2
100
AcDbEntity
  8
0
100
AcDbCircle
 10
233.2226470316124
 20
330.6989269188259
 30
0.0
 40
2.0
100
AcDbArc
 50
180.0
 51
270.0
  0
ENDSEC
  0
SECTION
  2
OBJECTS
  0
DICTIONARY
  5
7
330
0
100
AcDbDictionary
  3
ACAD_GROUP
350
75
  3
ACAD_LAYOUT
350
61
  3
ACAD_MLINESTYLE
350
76
  3
ACAD_PLOTSETTINGS
350
77
  3
ACAD_PLOTSTYLENAME
350
6
  3
ACADDIM
350
480
  3
ACDBHEADERROUNDTRIPXREC
350
1C7A
  3
ACDBVARIABLEDICTIONARY
350
102
  3
DWGPROPS
350
3D2
  0
DICTIONARY
  5
1C9B
330
2
100
AcDbDictionary
280
     1
  3
ACAD_LAYOUTSELFREF
360
1C9C
  0
DICTIONARY
  5
1C9D
330
1C74
100
AcDbDictionary
280
     1
  3
ACAD_LAYOUTSELFREF
360
1C9E
  0
DICTIONARY
  5
75
102
{ACAD_REACTORS
330
7
102
}
330
7
100
AcDbDictionary
  0
DICTIONARY
  5
61
102
{ACAD_REACTORS
330
7
102
}
330
7
100
AcDbDictionary
  0
DICTIONARY
  5
76
102
{ACAD_REACTORS
330
7
102
}
330
7
100
AcDbDictionary
  3
STANDARD
350
78
  0
DICTIONARY
  5
77
102
{ACAD_REACTORS
330
7
102
}
330
7
100
AcDbDictionary
  0
ACDBDICTIONARYWDFLT
  5
6
102
{ACAD_REACTORS
330
7
102
}
330
7
100
AcDbDictionary
281
     1
  3
Normal
350
5
100
AcDbDictionaryWithDefault
340
5
  0
XRECORD
  5
480
102
{ACAD_REACTORS
330
7
102
}
330
7
100
AcDbXrecord
 90
   990106
  3

 60
     0
 61
     0
 62
     1
 63
     3
 64
     1
 65
     0
 66
     0
 67
     3
 68
     1
 69
     0
 70
     0
 71
     0
 72
     0
 40
0.0
170
     2
340
0
  0
DICTIONARY
  5
1C7A
102
{ACAD_REACTORS
330
7
102
}
330
7
100
AcDbDictionary
  3
CEPSNTYPE
350
1C84
  3
DIMSTYLEDATA
350
1C88
  3
FINGERPRINTGUID
350
1C85
  3
HYPERLINKBASE
350
1C7D
  3
INSUNITS
350
1C83
  3
LAYOUTDICT
350
1C7F
  3
LWETCUNION
350
1C82
  3
PLOTSETDICT
350
1C80
  3
PLOTSTYLNAMDICT
350
1C81
  3
PSVPSCALE
350
1C87
  3
PUCSBASE
350
1C8B
  3
PUCSORGBACK
350
1C91
  3
PUCSORGBOTTOM
350
1C8D
  3
PUCSORGFRONT
350
1C90
  3
PUCSORGLEFT
350
1C8E
  3
PUCSORGRIGHT
350
1C8F
  3
PUCSORGTOP
350
1C8C
  3
PUCSORTHOREF
350
1C89
  3
PUCSORTHOVIEW
350
1C8A
  3
STYLESHEET
350
1C7E
  3
TSTACKALIGN
350
1C7B
  3
TSTACKSIZE
350
1C7C
  3
UCSBASE
350
1C94
  3
UCSORGBACK
350
1C9A
  3
UCSORGBOTTOM
350
1C96
  3
UCSORGFRONT
350
1C99
  3
UCSORGLEFT
350
1C97
  3
UCSORGRIGHT
350
1C98
  3
UCSORGTOP
350
1C95
  3
UCSORTHOREF
350
1C92
  3
UCSORTHOVIEW
350
1C93
  3
VERSIONGUID
350
1C86
  0
DICTIONARY
  5
102
102
{ACAD_REACTORS
330
7
102
}
330
7
100
AcDbDictionary
  3
DIMASSOC
350
103
  0
XRECORD
  5
3D2
102
{ACAD_REACTORS
330
7
102
}
330
7
100
AcDbXrecord
  1
DWGPROPS COOKIE
  2

  3

  4

  6

  7

  8

  9

300
=
301
=
302
=
303
=
304
=
305
=
306
=
307
=
308
=
309
=
 40
0.5353330671296296
 41
2452052.431989363
 42
2453406.550756377
  1

 90
        0
  0
XRECORD
  5
1C9C
102
{ACAD_REACTORS
330
1C9B
102
}
330
1C9B
100
AcDbXrecord
340
2
  0
XRECORD
  5
1C9E
102
{ACAD_REACTORS
330
1C9D
102
}
330
1C9D
100
AcDbXrecord
340
1C74
  0
MLINESTYLE
  5
78
102
{ACAD_REACTORS
330
76
102
}
330
76
100
AcDbMlineStyle
  2
STANDARD
 70
     0
  3

 62
     0
 51
90.0
 52
90.0
 71
     2
 49
0.5
 62
   256
  6
BYLAYER
 49
-0.5
 62
   256
  6
BYLAYER
  0
ACDBPLACEHOLDER
  5
5
102
{ACAD_REACTORS
330
6
102
}
330
6
100
AcDbPlaceHolder
280
     0
  0
XRECORD
  5
1C84
102
{ACAD_REACTORS
330
1C7A
102
}
330
1C7A
100
AcDbXrecord
 90
        0
  0
XRECORD
  5
1C88
102
{ACAD_REACTORS
330
1C7A
102
}
330
1C7A
100
AcDbXrecord
1000
DSTYLE
1002
{
1070
   179
 70
     2
1070
   277
 70
     6
1002
}
  0
XRECORD
  5
1C85
102
{ACAD_REACTORS
330
1C7A
102
}
330
1C7A
100
AcDbXrecord
  1
{6385560B-F4B1-4644-A7C2-A3E32AC3D232}
  0
XRECORD
  5
1C7D
102
{ACAD_REACTORS
330
1C7A
102
}
330
1C7A
100
AcDbXrecord
  1

  0
XRECORD
  5
1C83
102
{ACAD_REACTORS
330
1C7A
102
}
330
1C7A
100
AcDbXrecord
 90
        0
  0
XRECORD
  5
1C7F
102
{ACAD_REACTORS
330
1C7A
102
}
330
1C7A
100
AcDbXrecord
340
61
  0
XRECORD
  5
1C82
102
{ACAD_REACTORS
330
1C7A
102
}
330
1C7A
100
AcDbXrecord
 90
    10781
  0
XRECORD
  5
1C80
102
{ACAD_REACTORS
330
1C7A
102
}
330
1C7A
100
AcDbXrecord
340
77
  0
XRECORD
  5
1C81
102
{ACAD_REACTORS
330
1C7A
102
}
330
1C7A
100
AcDbXrecord
340
6
  0
XRECORD
  5
1C87
102
{ACAD_REACTORS
330
1C7A
102
}
330
1C7A
100
AcDbXrecord
 40
0.0
  0
XRECORD
  5
1C8B
102
{ACAD_REACTORS
330
1C7A
102
}
330
1C7A
100
AcDbXrecord
340
0
  0
XRECORD
  5
1C91
102
{ACAD_REACTORS
330
1C7A
102
}
330
1C7A
100
AcDbXrecord
 10
0.0
 20
0.0
 30
0.0
  0
XRECORD
  5
1C8D
102
{ACAD_REACTORS
330
1C7A
102
}
330
1C7A
100
AcDbXrecord
 10
0.0
 20
0.0
 30
0.0
  0
XRECORD
  5
1C90
102
{ACAD_REACTORS
330
1C7A
102
}
330
1C7A
100
AcDbXrecord
 10
0.0
 20
0.0
 30
0.0
  0
XRECORD
  5
1C8E
102
{ACAD_REACTORS
330
1C7A
102
}
330
1C7A
100
AcDbXrecord
 10
0.0
 20
0.0
 30
0.0
  0
XRECORD
  5
1C8F
102
{ACAD_REACTORS
330
1C7A
102
}
330
1C7A
100
AcDbXrecord
 10
0.0
 20
0.0
 30
0.0
  0
XRECORD
  5
1C8C
102
{ACAD_REACTORS
330
1C7A
102
}
330
1C7A
100
AcDbXrecord
 10
0.0
 20
0.0
 30
0.0
  0
XRECORD
  5
1C89
102
{ACAD_REACTORS
330
1C7A
102
}
330
1C7A
100
AcDbXrecord
340
0
  0
XRECORD
  5
1C8A
102
{ACAD_REACTORS
330
1C7A
102
}
330
1C7A
100
AcDbXrecord
 70
     0
  0
XRECORD
  5
1C7E
102
{ACAD_REACTORS
330
1C7A
102
}
330
1C7A
100
AcDbXrecord
  1
Sekkei.ctb
  0
XRECORD
  5
1C7B
102
{ACAD_REACTORS
330
1C7A
102
}
330
1C7A
100
AcDbXrecord
 90
        1
  0
XRECORD
  5
1C7C
102
{ACAD_REACTORS
330
1C7A
102
}
330
1C7A
100
AcDbXrecord
 90
       70
  0
XRECORD
  5
1C94
102
{ACAD_REACTORS
330
1C7A
102
}
330
1C7A
100
AcDbXrecord
340
0
  0
XRECORD
  5
1C9A
102
{ACAD_REACTORS
330
1C7A
102
}
330
1C7A
100
AcDbXrecord
 10
0.0
 20
0.0
 30
0.0
  0
XRECORD
  5
1C96
102
{ACAD_REACTORS
330
1C7A
102
}
330
1C7A
100
AcDbXrecord
 10
0.0
 20
0.0
 30
0.0
  0
XRECORD
  5
1C99
102
{ACAD_REACTORS
330
1C7A
102
}
330
1C7A
100
AcDbXrecord
 10
0.0
 20
0.0
 30
0.0
  0
XRECORD
  5
1C97
102
{ACAD_REACTORS
330
1C7A
102
}
330
1C7A
100
AcDbXrecord
 10
0.0
 20
0.0
 30
0.0
  0
XRECORD
  5
1C98
102
{ACAD_REACTORS
330
1C7A
102
}
330
1C7A
100
AcDbXrecord
 10
0.0
 20
0.0
 30
0.0
  0
XRECORD
  5
1C95
102
{ACAD_REACTORS
330
1C7A
102
}
330
1C7A
100
AcDbXrecord
 10
0.0
 20
0.0
 30
0.0
  0
XRECORD
  5
1C92
102
{ACAD_REACTORS
330
1C7A
102
}
330
1C7A
100
AcDbXrecord
340
0
  0
XRECORD
  5
1C93
102
{ACAD_REACTORS
330
1C7A
102
}
330
1C7A
100
AcDbXrecord
 70
     0
  0
XRECORD
  5
1C86
102
{ACAD_REACTORS
330
1C7A
102
}
330
1C7A
100
AcDbXrecord
  1
{3779DCE5-122D-43BC-9498-4AFFC632F7A3}
  0
DICTIONARYVAR
  5
103
102
{ACAD_REACTORS
330
102
102
}
330
102
100
DictionaryVariables
280
     0
  1
1
  0
ENDSEC
  0
EOF
